0
SECTION
2
HEADER
9
$INSUNITS
70
4
9
$ACADVER
1
AC1014
9
$HANDSEED
5
FFFF
0
ENDSEC
0
SECTION
2
TABLES
0
TABLE
2
VPORT
5
8
100
AcDbSymbolTable
0
ENDTAB
0
TABLE
2
LTYPE
5
5
100
AcDbSymbolTable
0
LTYPE
5
14
100
AcDbSymbolTableRecord
100
AcDbLinetypeTableRecord
2
BYBLOCK
70
0
0
LTYPE
5
15
100
AcDbSymbolTableRecord
100
AcDbLinetypeTableRecord
2
BYLAYER
70
0
0
ENDTAB
0
TABLE
2
LAYER
5
2
100
AcDbSymbolTable
70
2
0
LAYER
5
50
100
AcDbSymbolTableRecord
100
AcDbLayerTableRecord
2
0
70
0
6
CONTINUOUS
0
ENDTAB
0
TABLE
2
STYLE
5
3
100
AcDbSymbolTable
70
1
0
STYLE
5
11
100
AcDbSymbolTableRecord
100
AcDbTextStyleTableRecord
2
STANDARD
70
0
0
ENDTAB
0
TABLE
2
VIEW
5
6
100
AcDbSymbolTable
70
0
0
ENDTAB
0
TABLE
2
UCS
5
7
100
AcDbSymbolTable
70
0
0
ENDTAB
0
TABLE
2
APPID
5
9
100
AcDbSymbolTable
70
2
0
APPID
5
12
100
AcDbSymbolTableRecord
100
AcDbRegAppTableRecord
2
ACAD
70
0
0
ENDTAB
0
TABLE
2
DIMSTYLE
5
A
100
AcDbSymbolTable
70
1
0
ENDTAB
0
TABLE
2
BLOCK_RECORD
5
1
100
AcDbSymbolTable
70
1
0
BLOCK_RECORD
5
1F
100
AcDbSymbolTableRecord
100
AcDbBlockTableRecord
2
*MODEL_SPACE
0
BLOCK_RECORD
5
1B
100
AcDbSymbolTableRecord
100
AcDbBlockTableRecord
2
*PAPER_SPACE
0
ENDTAB
0
ENDSEC
0
SECTION
2
BLOCKS
0
BLOCK
5
20
100
AcDbEntity
100
AcDbBlockBegin
2
*MODEL_SPACE
0
ENDBLK
5
21
100
AcDbEntity
100
AcDbBlockEnd
0
BLOCK
5
1C
100
AcDbEntity
100
AcDbBlockBegin
2
*PAPER_SPACE
0
ENDBLK
5
1D
100
AcDbEntity
100
AcDbBlockEnd
0
ENDSEC
0
SECTION
2
ENTITIES
0
LINE
5
100
100
AcDbEntity
8
0
100
AcDbLine
10
-26.049848881690242
20
-143.00002695846729
30
1.7763568394002505e-14
11
-26.049838313977361
21
-153.00002695846044
31
1.7763568394002505e-14
0
LINE
5
101
100
AcDbEntity
8
0
100
AcDbLine
10
-26.049838313977361
20
-153.00002695846044
30
1.7763568394002505e-14
11
-31.549838313974288
21
-153.00003277070249
31
1.7763568394002505e-14
0
LINE
5
102
100
AcDbEntity
8
0
100
AcDbLine
10
-31.549838313974288
20
-153.00003277070249
30
1.7763568394002505e-14
11
-31.549817178548537
21
-173.00003277069129
31
1.7763568394002505e-14
0
LINE
5
103
100
AcDbEntity
8
0
100
AcDbLine
10
-31.549817178548537
20
-173.00003277069129
30
1.7763568394002505e-14
11
-26.049817178551606
21
-173.00002695844927
31
1.7763568394002505e-14
0
LINE
5
104
100
AcDbEntity
8
0
100
AcDbLine
10
-26.049817178551606
20
-173.00002695844927
30
1.7763568394002505e-14
11
-26.049806610838729
21
-183.00002695844498
31
1.7763568394002505e-14
0
LINE
5
105
100
AcDbEntity
8
0
100
AcDbLine
10
43.950193389122191
20
-182.99995298445481
30
1.7763568394002505e-14
11
43.950182821409307
21
-172.99995298445907
31
1.7763568394002505e-14
0
LINE
5
106
100
AcDbEntity
8
0
100
AcDbLine
10
43.950182821409307
20
-172.99995298445907
30
1.7763568394002505e-14
11
49.45018282140623
21
-172.99994717221705
31
1.7763568394002505e-14
0
LINE
5
107
100
AcDbEntity
8
0
100
AcDbLine
10
49.45018282140623
20
-172.99994717221705
30
1.7763568394002505e-14
11
49.450161685980476
21
-152.99994717222822
31
1.7763568394002505e-14
0
LINE
5
108
100
AcDbEntity
8
0
100
AcDbLine
10
49.450161685980476
20
-152.99994717222822
30
1.7763568394002505e-14
11
43.950161685983545
21
-152.99995298447027
31
1.7763568394002505e-14
0
LINE
5
109
100
AcDbEntity
8
0
100
AcDbLine
10
43.950161685983545
20
-152.99995298447027
30
1.7763568394002505e-14
11
43.950151118270675
21
-142.99995298447715
31
1.7763568394002505e-14
0
LINE
5
110
100
AcDbEntity
8
0
100
AcDbLine
10
-26.049785475412971
20
-203.00002695840988
30
1.7763568394002505e-14
11
43.950214524547953
21
-202.99995298441974
31
1.7763568394002505e-14
0
LINE
5
111
100
AcDbEntity
8
0
100
AcDbLine
10
43.950193389122191
20
-182.99995298443091
30
1.7763568394002505e-14
11
43.950214524547953
21
-202.99995298441974
31
1.7763568394002505e-14
0
LINE
5
112
100
AcDbEntity
8
0
100
AcDbLine
10
43.950182821409307
20
-172.9999529844591
30
1.7763568394002505e-14
11
43.950193389122191
21
-182.99995298445484
31
1.7763568394002505e-14
0
LINE
5
113
100
AcDbEntity
8
0
100
AcDbLine
10
43.950182821409307
20
-172.9999529844591
30
1.7763568394002505e-14
11
49.45018282140623
21
-172.99994717221705
31
1.7763568394002505e-14
0
LINE
5
114
100
AcDbEntity
8
0
100
AcDbLine
10
49.450161685980476
20
-152.99994717222819
30
1.7763568394002505e-14
11
49.45018282140623
21
-172.99994717221705
31
1.7763568394002505e-14
0
LINE
5
115
100
AcDbEntity
8
0
100
AcDbLine
10
43.950161685983545
20
-152.99995298447027
30
1.7763568394002505e-14
11
49.450161685980476
21
-152.99994717222819
31
1.7763568394002505e-14
0
LINE
5
116
100
AcDbEntity
8
0
100
AcDbLine
10
43.950151118270675
20
-142.99995298447718
30
1.7763568394002505e-14
11
43.950161685983545
21
-152.99995298447027
31
1.7763568394002505e-14
0
LINE
5
117
100
AcDbEntity
8
0
100
AcDbLine
10
43.950129982844921
20
-122.99995298446332
30
1.7763568394002505e-14
11
43.950151118270682
21
-142.99995298445214
31
1.7763568394002505e-14
0
LINE
5
118
100
AcDbEntity
8
0
100
AcDbLine
10
-26.049870017115992
20
-123.00002695845343
30
1.7763568394002505e-14
11
43.950129982844921
21
-122.99995298446332
31
1.7763568394002505e-14
0
LINE
5
119
100
AcDbEntity
8
0
100
AcDbLine
10
-26.049870017115992
20
-123.00002695845343
30
1.7763568394002505e-14
11
-26.049848881690242
21
-143.00002695844225
31
1.7763568394002505e-14
0
LINE
5
120
100
AcDbEntity
8
0
100
AcDbLine
10
-26.049848881690242
20
-143.00002695846729
30
1.7763568394002505e-14
11
-26.049838313977361
21
-153.00002695846044
31
1.7763568394002505e-14
0
LINE
5
121
100
AcDbEntity
8
0
100
AcDbLine
10
-26.049838313977361
20
-153.00002695846044
30
1.7763568394002505e-14
11
-31.549838313974288
21
-153.00003277070249
31
1.7763568394002505e-14
0
LINE
5
122
100
AcDbEntity
8
0
100
AcDbLine
10
-31.549817178548537
20
-173.00003277069135
30
1.7763568394002505e-14
11
-31.549838313974288
21
-153.00003277070249
31
1.7763568394002505e-14
0
LINE
5
123
100
AcDbEntity
8
0
100
AcDbLine
10
-26.049817178551606
20
-173.00002695844927
30
1.7763568394002505e-14
11
-31.549817178548537
21
-173.00003277069135
31
1.7763568394002505e-14
0
LINE
5
124
100
AcDbEntity
8
0
100
AcDbLine
10
-26.049817178551606
20
-173.00002695844927
30
1.7763568394002505e-14
11
-26.049806610838729
21
-183.00002695844498
31
1.7763568394002505e-14
0
LINE
5
125
100
AcDbEntity
8
0
100
AcDbLine
10
-26.049785475412971
20
-203.00002695840988
30
1.7763568394002505e-14
11
-26.049806610838729
21
-183.00002695842102
31
1.7763568394002505e-14
0
ENDSEC
0
SECTION
2
OBJECTS
0
DICTIONARY
5
C
100
AcDbDictionary
3
ACAD_GROUP
350
D
3
ACAD_MLINESTYLE
350
17
0
DICTIONARY
5
D
100
AcDbDictionary
0
DICTIONARY
5
1A
330
C
100
AcDbDictionary
0
DICTIONARY
5
17
100
AcDbDictionary
0
ENDSEC
0
EOF
