0
SECTION
2
HEADER
9
$INSUNITS
70
4
9
$ACADVER
1
AC1014
9
$HANDSEED
5
FFFF
0
ENDSEC
0
SECTION
2
TABLES
0
TABLE
2
VPORT
5
8
100
AcDbSymbolTable
0
ENDTAB
0
TABLE
2
LTYPE
5
5
100
AcDbSymbolTable
0
LTYPE
5
14
100
AcDbSymbolTableRecord
100
AcDbLinetypeTableRecord
2
BYBLOCK
70
0
0
LTYPE
5
15
100
AcDbSymbolTableRecord
100
AcDbLinetypeTableRecord
2
BYLAYER
70
0
0
ENDTAB
0
TABLE
2
LAYER
5
2
100
AcDbSymbolTable
70
2
0
LAYER
5
50
100
AcDbSymbolTableRecord
100
AcDbLayerTableRecord
2
0
70
0
6
CONTINUOUS
0
ENDTAB
0
TABLE
2
STYLE
5
3
100
AcDbSymbolTable
70
1
0
STYLE
5
11
100
AcDbSymbolTableRecord
100
AcDbTextStyleTableRecord
2
STANDARD
70
0
0
ENDTAB
0
TABLE
2
VIEW
5
6
100
AcDbSymbolTable
70
0
0
ENDTAB
0
TABLE
2
UCS
5
7
100
AcDbSymbolTable
70
0
0
ENDTAB
0
TABLE
2
APPID
5
9
100
AcDbSymbolTable
70
2
0
APPID
5
12
100
AcDbSymbolTableRecord
100
AcDbRegAppTableRecord
2
ACAD
70
0
0
ENDTAB
0
TABLE
2
DIMSTYLE
5
A
100
AcDbSymbolTable
70
1
0
ENDTAB
0
TABLE
2
BLOCK_RECORD
5
1
100
AcDbSymbolTable
70
1
0
BLOCK_RECORD
5
1F
100
AcDbSymbolTableRecord
100
AcDbBlockTableRecord
2
*MODEL_SPACE
0
BLOCK_RECORD
5
1B
100
AcDbSymbolTableRecord
100
AcDbBlockTableRecord
2
*PAPER_SPACE
0
ENDTAB
0
ENDSEC
0
SECTION
2
BLOCKS
0
BLOCK
5
20
100
AcDbEntity
100
AcDbBlockBegin
2
*MODEL_SPACE
0
ENDBLK
5
21
100
AcDbEntity
100
AcDbBlockEnd
0
BLOCK
5
1C
100
AcDbEntity
100
AcDbBlockBegin
2
*PAPER_SPACE
0
ENDBLK
5
1D
100
AcDbEntity
100
AcDbBlockEnd
0
ENDSEC
0
SECTION
2
ENTITIES
0
LWPOLYLINE
5
100
100
AcDbEntity
8
0
100
AcDbPolyline
90
4
70
1
43
0.0
10
400
20
-150
10
0
20
-150
10
0
20
-390
10
400
20
-390
0
LWPOLYLINE
5
101
100
AcDbEntity
8
0
100
AcDbPolyline
90
4
70
1
43
0.0
10
4.0000000000000036
20
-220
10
2.0000000000000018
20
-220
10
2.0000000000000018
20
-320
10
4.0000000000000036
20
-320
0
LWPOLYLINE
5
102
100
AcDbEntity
8
0
100
AcDbPolyline
90
5
70
1
43
0.0
10
6.0773196900288129
20
-150.00000162284024
10
6.0000000000000036
20
-219.99999999918717
10
6.0000000000000036
20
-250.00000210646746
10
7.9999999999999902
20
-250.00000188067054
10
7.9999999999999902
20
-150
0
LWPOLYLINE
5
103
100
AcDbEntity
8
0
100
AcDbPolyline
90
5
70
1
43
0.0
10
6.0773196900288129
20
-389.99999837715973
10
7.9999999999999902
20
-390
10
7.9999999999999902
20
-289.99999811932946
10
6.0000000000000036
20
-289.99999789353251
10
6.0000000000000036
20
-320.00000000081286
0
LWPOLYLINE
5
104
100
AcDbEntity
8
0
100
AcDbPolyline
90
4
70
1
43
0.0
10
10.305084745762713
20
-220
10
10.305084745762713
20
-320
10
12.305084745762716
20
-320
10
12.305084745762716
20
-220
0
LWPOLYLINE
5
105
100
AcDbEntity
8
0
100
AcDbPolyline
90
5
70
1
43
0.0
10
14.382404435791525
20
-150.00000162284024
10
16.305084745762702
20
-150
10
16.305084745762702
20
-250.00000188067054
10
14.305084745762715
20
-250.00000210646746
10
14.305084745762715
20
-219.99999999918717
0
LWPOLYLINE
5
106
100
AcDbEntity
8
0
100
AcDbPolyline
90
5
70
1
43
0.0
10
16.305084745762702
20
-289.99999811932946
10
14.305084745762715
20
-289.99999789353251
10
14.305084745762715
20
-320.00000000081286
10
14.382404435791525
20
-389.99999837715973
10
16.305084745762702
20
-390
0
LWPOLYLINE
5
107
100
AcDbEntity
8
0
100
AcDbPolyline
90
4
70
1
43
0.0
10
18.610169491525426
20
-220
10
18.610169491525426
20
-320
10
20.610169491525426
20
-320
10
20.610169491525426
20
-220
0
LWPOLYLINE
5
108
100
AcDbEntity
8
0
100
AcDbPolyline
90
5
70
1
43
0.0
10
22.687489181554238
20
-150.00000162284024
10
24.610169491525411
20
-150
10
24.610169491525411
20
-250.00000188067054
10
22.610169491525429
20
-250.00000210646746
10
22.610169491525429
20
-219.99999999918717
0
LWPOLYLINE
5
109
100
AcDbEntity
8
0
100
AcDbPolyline
90
5
70
1
43
0.0
10
24.610169491525411
20
-289.99999811932946
10
22.610169491525429
20
-289.99999789353251
10
22.610169491525429
20
-320.00000000081286
10
22.687489181554238
20
-389.99999837715973
10
24.610169491525411
20
-390
0
LWPOLYLINE
5
110
100
AcDbEntity
8
0
100
AcDbPolyline
90
4
70
1
43
0.0
10
26.915254237288138
20
-220
10
26.915254237288138
20
-320
10
28.915254237288138
20
-320
10
28.915254237288138
20
-220
0
LWPOLYLINE
5
111
100
AcDbEntity
8
0
100
AcDbPolyline
90
5
70
1
43
0.0
10
30.992573927316947
20
-150.00000162284024
10
32.915254237288124
20
-150
10
32.915254237288124
20
-250.00000188067054
10
30.915254237288138
20
-250.00000210646746
10
30.915254237288138
20
-219.99999999918717
0
LWPOLYLINE
5
112
100
AcDbEntity
8
0
100
AcDbPolyline
90
5
70
1
43
0.0
10
32.915254237288124
20
-289.99999811932946
10
30.915254237288138
20
-289.99999789353251
10
30.915254237288138
20
-320.00000000081286
10
30.992573927316947
20
-389.99999837715973
10
32.915254237288124
20
-390
0
LWPOLYLINE
5
113
100
AcDbEntity
8
0
100
AcDbPolyline
90
4
70
1
43
0.0
10
35.220338983050851
20
-220
10
35.220338983050851
20
-320
10
37.220338983050851
20
-320
10
37.220338983050851
20
-220
0
LWPOLYLINE
5
114
100
AcDbEntity
8
0
100
AcDbPolyline
90
5
70
1
43
0.0
10
39.29765867307966
20
-150.00000162284024
10
41.220338983050837
20
-150
10
41.220338983050837
20
-250.00000188067054
10
39.220338983050851
20
-250.00000210646746
10
39.220338983050851
20
-219.99999999918717
0
LWPOLYLINE
5
115
100
AcDbEntity
8
0
100
AcDbPolyline
90
5
70
1
43
0.0
10
41.220338983050837
20
-289.99999811932946
10
39.220338983050851
20
-289.99999789353251
10
39.220338983050851
20
-320.00000000081286
10
39.29765867307966
20
-389.99999837715973
10
41.220338983050837
20
-390
0
LWPOLYLINE
5
116
100
AcDbEntity
8
0
100
AcDbPolyline
90
4
70
1
43
0.0
10
43.525423728813564
20
-220
10
43.525423728813564
20
-320
10
45.525423728813564
20
-320
10
45.525423728813564
20
-220
0
LWPOLYLINE
5
117
100
AcDbEntity
8
0
100
AcDbPolyline
90
5
70
1
43
0.0
10
47.602743418842373
20
-150.00000162284024
10
49.52542372881355
20
-150
10
49.52542372881355
20
-250.00000188067054
10
47.525423728813571
20
-250.00000210646746
10
47.525423728813571
20
-219.99999999918717
0
LWPOLYLINE
5
118
100
AcDbEntity
8
0
100
AcDbPolyline
90
5
70
1
43
0.0
10
49.52542372881355
20
-289.99999811932946
10
47.525423728813571
20
-289.99999789353251
10
47.525423728813571
20
-320.00000000081286
10
47.602743418842373
20
-389.99999837715973
10
49.52542372881355
20
-390
0
LWPOLYLINE
5
119
100
AcDbEntity
8
0
100
AcDbPolyline
90
4
70
1
43
0.0
10
51.830508474576277
20
-220
10
51.830508474576277
20
-320
10
53.830508474576277
20
-320
10
53.830508474576277
20
-220
0
LWPOLYLINE
5
120
100
AcDbEntity
8
0
100
AcDbPolyline
90
5
70
1
43
0.0
10
55.907828164605093
20
-150.00000162284024
10
57.830508474576263
20
-150
10
57.830508474576263
20
-250.00000188067054
10
55.830508474576277
20
-250.00000210646746
10
55.830508474576277
20
-219.99999999918717
0
LWPOLYLINE
5
121
100
AcDbEntity
8
0
100
AcDbPolyline
90
5
70
1
43
0.0
10
57.830508474576263
20
-289.99999811932946
10
55.830508474576277
20
-289.99999789353251
10
55.830508474576277
20
-320.00000000081286
10
55.907828164605093
20
-389.99999837715973
10
57.830508474576263
20
-390
0
LWPOLYLINE
5
122
100
AcDbEntity
8
0
100
AcDbPolyline
90
4
70
1
43
0.0
10
60.135593220338983
20
-220
10
60.135593220338983
20
-320
10
62.135593220338983
20
-320
10
62.135593220338983
20
-220
0
LWPOLYLINE
5
123
100
AcDbEntity
8
0
100
AcDbPolyline
90
5
70
1
43
0.0
10
64.212912910367791
20
-150.00000162284024
10
66.135593220338961
20
-150
10
66.135593220338961
20
-250.00000188067054
10
64.13559322033899
20
-250.00000210646746
10
64.13559322033899
20
-219.99999999918717
0
LWPOLYLINE
5
124
100
AcDbEntity
8
0
100
AcDbPolyline
90
5
70
1
43
0.0
10
66.135593220338961
20
-289.99999811932946
10
64.13559322033899
20
-289.99999789353251
10
64.13559322033899
20
-320.00000000081286
10
64.212912910367791
20
-389.99999837715973
10
66.135593220338961
20
-390
0
LWPOLYLINE
5
125
100
AcDbEntity
8
0
100
AcDbPolyline
90
4
70
1
43
0.0
10
68.440677966101703
20
-220
10
68.440677966101703
20
-320
10
70.440677966101703
20
-320
10
70.440677966101703
20
-220
0
LWPOLYLINE
5
126
100
AcDbEntity
8
0
100
AcDbPolyline
90
5
70
1
43
0.0
10
72.517997656130504
20
-150.00000162284024
10
74.440677966101688
20
-150
10
74.440677966101688
20
-250.00000188067054
10
72.440677966101703
20
-250.00000210646746
10
72.440677966101703
20
-219.99999999918717
0
LWPOLYLINE
5
127
100
AcDbEntity
8
0
100
AcDbPolyline
90
5
70
1
43
0.0
10
74.440677966101688
20
-289.99999811932946
10
72.440677966101703
20
-289.99999789353251
10
72.440677966101703
20
-320.00000000081286
10
72.517997656130504
20
-389.99999837715973
10
74.440677966101688
20
-390
0
LWPOLYLINE
5
128
100
AcDbEntity
8
0
100
AcDbPolyline
90
4
70
1
43
0.0
10
76.745762711864415
20
-220
10
76.745762711864415
20
-320
10
78.745762711864415
20
-320
10
78.745762711864415
20
-220
0
LWPOLYLINE
5
129
100
AcDbEntity
8
0
100
AcDbPolyline
90
5
70
1
43
0.0
10
80.823082401893217
20
-150.00000162284024
10
82.745762711864401
20
-150
10
82.745762711864401
20
-250.00000188067054
10
80.745762711864415
20
-250.00000210646746
10
80.745762711864415
20
-219.99999999918717
0
LWPOLYLINE
5
130
100
AcDbEntity
8
0
100
AcDbPolyline
90
5
70
1
43
0.0
10
82.745762711864401
20
-289.99999811932946
10
80.745762711864415
20
-289.99999789353251
10
80.745762711864415
20
-320.00000000081286
10
80.823082401893217
20
-389.99999837715973
10
82.745762711864401
20
-390
0
LWPOLYLINE
5
131
100
AcDbEntity
8
0
100
AcDbPolyline
90
4
70
1
43
0.0
10
85.050847457627128
20
-220
10
85.050847457627128
20
-320
10
87.050847457627128
20
-320
10
87.050847457627128
20
-220
0
LWPOLYLINE
5
132
100
AcDbEntity
8
0
100
AcDbPolyline
90
5
70
1
43
0.0
10
89.128167147655944
20
-150.00000162284024
10
91.050847457627114
20
-150
10
91.050847457627114
20
-250.00000188067054
10
89.050847457627128
20
-250.00000210646746
10
89.050847457627128
20
-219.99999999918717
0
LWPOLYLINE
5
133
100
AcDbEntity
8
0
100
AcDbPolyline
90
5
70
1
43
0.0
10
91.050847457627114
20
-289.99999811932946
10
89.050847457627128
20
-289.99999789353251
10
89.050847457627128
20
-320.00000000081286
10
89.128167147655944
20
-389.99999837715973
10
91.050847457627114
20
-390
0
LWPOLYLINE
5
134
100
AcDbEntity
8
0
100
AcDbPolyline
90
4
70
1
43
0.0
10
93.355932203389813
20
-220
10
93.355932203389813
20
-320
10
95.355932203389827
20
-320
10
95.355932203389827
20
-220
0
LWPOLYLINE
5
135
100
AcDbEntity
8
0
100
AcDbPolyline
90
5
70
1
43
0.0
10
97.433251893418628
20
-150.00000162284024
10
99.355932203389813
20
-150
10
99.355932203389813
20
-250.00000188067054
10
97.355932203389827
20
-250.00000210646746
10
97.355932203389827
20
-219.99999999918717
0
LWPOLYLINE
5
136
100
AcDbEntity
8
0
100
AcDbPolyline
90
5
70
1
43
0.0
10
99.355932203389813
20
-289.99999811932946
10
97.355932203389827
20
-289.99999789353251
10
97.355932203389827
20
-320.00000000081286
10
97.433251893418628
20
-389.99999837715973
10
99.355932203389813
20
-390
0
LWPOLYLINE
5
137
100
AcDbEntity
8
0
100
AcDbPolyline
90
4
70
1
43
0.0
10
101.66101694915255
20
-220
10
101.66101694915255
20
-320
10
103.66101694915255
20
-320
10
103.66101694915255
20
-220
0
LWPOLYLINE
5
138
100
AcDbEntity
8
0
100
AcDbPolyline
90
5
70
1
43
0.0
10
105.73833663918136
20
-150.00000162284024
10
107.66101694915253
20
-150
10
107.66101694915253
20
-250.00000188067054
10
105.66101694915254
20
-250.00000210646746
10
105.66101694915254
20
-219.99999999918717
0
LWPOLYLINE
5
139
100
AcDbEntity
8
0
100
AcDbPolyline
90
5
70
1
43
0.0
10
107.66101694915253
20
-289.99999811932946
10
105.66101694915254
20
-289.99999789353251
10
105.66101694915254
20
-320.00000000081286
10
105.73833663918136
20
-389.99999837715973
10
107.66101694915253
20
-390
0
LWPOLYLINE
5
140
100
AcDbEntity
8
0
100
AcDbPolyline
90
4
70
1
43
0.0
10
109.96610169491525
20
-220
10
109.96610169491525
20
-320
10
111.96610169491527
20
-320
10
111.96610169491527
20
-220
0
LWPOLYLINE
5
141
100
AcDbEntity
8
0
100
AcDbPolyline
90
5
70
1
43
0.0
10
114.04342138494407
20
-150.00000162284024
10
115.96610169491525
20
-150
10
115.96610169491525
20
-250.00000188067054
10
113.96610169491525
20
-250.00000210646746
10
113.96610169491525
20
-219.99999999918717
0
LWPOLYLINE
5
142
100
AcDbEntity
8
0
100
AcDbPolyline
90
5
70
1
43
0.0
10
115.96610169491525
20
-289.99999811932946
10
113.96610169491525
20
-289.99999789353251
10
113.96610169491525
20
-320.00000000081286
10
114.04342138494407
20
-389.99999837715973
10
115.96610169491525
20
-390
0
LWPOLYLINE
5
143
100
AcDbEntity
8
0
100
AcDbPolyline
90
4
70
1
43
0.0
10
118.27118644067795
20
-220
10
118.27118644067795
20
-320
10
120.27118644067797
20
-320
10
120.27118644067797
20
-220
0
LWPOLYLINE
5
144
100
AcDbEntity
8
0
100
AcDbPolyline
90
5
70
1
43
0.0
10
122.34850613070677
20
-150.00000162284024
10
124.27118644067795
20
-150
10
124.27118644067795
20
-250.00000188067054
10
122.27118644067795
20
-250.00000210646746
10
122.27118644067795
20
-219.99999999918717
0
LWPOLYLINE
5
145
100
AcDbEntity
8
0
100
AcDbPolyline
90
5
70
1
43
0.0
10
124.27118644067795
20
-289.99999811932946
10
122.27118644067795
20
-289.99999789353251
10
122.27118644067795
20
-320.00000000081286
10
122.34850613070677
20
-389.99999837715973
10
124.27118644067795
20
-390
0
LWPOLYLINE
5
146
100
AcDbEntity
8
0
100
AcDbPolyline
90
4
70
1
43
0.0
10
126.57627118644069
20
-220
10
126.57627118644069
20
-320
10
128.57627118644069
20
-320
10
128.57627118644069
20
-220
0
LWPOLYLINE
5
147
100
AcDbEntity
8
0
100
AcDbPolyline
90
5
70
1
43
0.0
10
130.65359087646948
20
-150.00000162284024
10
132.57627118644066
20
-150
10
132.57627118644066
20
-250.00000188067054
10
130.57627118644066
20
-250.00000210646746
10
130.57627118644066
20
-219.99999999918717
0
LWPOLYLINE
5
148
100
AcDbEntity
8
0
100
AcDbPolyline
90
5
70
1
43
0.0
10
132.57627118644066
20
-289.99999811932946
10
130.57627118644066
20
-289.99999789353251
10
130.57627118644066
20
-320.00000000081286
10
130.65359087646948
20
-389.99999837715973
10
132.57627118644066
20
-390
0
LWPOLYLINE
5
149
100
AcDbEntity
8
0
100
AcDbPolyline
90
4
70
1
43
0.0
10
134.88135593220338
20
-220
10
134.88135593220338
20
-320
10
136.88135593220341
20
-320
10
136.88135593220341
20
-220
0
LWPOLYLINE
5
150
100
AcDbEntity
8
0
100
AcDbPolyline
90
5
70
1
43
0.0
10
138.95867562223219
20
-150.00000162284024
10
140.88135593220338
20
-150
10
140.88135593220338
20
-250.00000188067054
10
138.88135593220338
20
-250.00000210646746
10
138.88135593220338
20
-219.99999999918717
0
LWPOLYLINE
5
151
100
AcDbEntity
8
0
100
AcDbPolyline
90
5
70
1
43
0.0
10
140.88135593220338
20
-289.99999811932946
10
138.88135593220338
20
-289.99999789353251
10
138.88135593220338
20
-320.00000000081286
10
138.95867562223219
20
-389.99999837715973
10
140.88135593220338
20
-390
0
LWPOLYLINE
5
152
100
AcDbEntity
8
0
100
AcDbPolyline
90
4
70
1
43
0.0
10
143.18644067796612
20
-220
10
143.18644067796612
20
-320
10
145.18644067796612
20
-320
10
145.18644067796612
20
-220
0
LWPOLYLINE
5
153
100
AcDbEntity
8
0
100
AcDbPolyline
90
5
70
1
43
0.0
10
147.26376036799491
20
-150.00000162284024
10
149.18644067796609
20
-150
10
149.18644067796609
20
-250.00000188067054
10
147.18644067796612
20
-250.00000210646746
10
147.18644067796612
20
-219.99999999918717
0
LWPOLYLINE
5
154
100
AcDbEntity
8
0
100
AcDbPolyline
90
5
70
1
43
0.0
10
149.18644067796609
20
-289.99999811932946
10
147.18644067796612
20
-289.99999789353251
10
147.18644067796612
20
-320.00000000081286
10
147.26376036799491
20
-389.99999837715973
10
149.18644067796609
20
-390
0
LWPOLYLINE
5
155
100
AcDbEntity
8
0
100
AcDbPolyline
90
4
70
1
43
0.0
10
151.49152542372883
20
-220
10
151.49152542372883
20
-320
10
153.49152542372883
20
-320
10
153.49152542372883
20
-220
0
LWPOLYLINE
5
156
100
AcDbEntity
8
0
100
AcDbPolyline
90
5
70
1
43
0.0
10
155.56884511375762
20
-150.00000162284024
10
157.4915254237288
20
-150
10
157.4915254237288
20
-250.00000188067054
10
155.49152542372883
20
-250.00000210646746
10
155.49152542372883
20
-219.99999999918717
0
LWPOLYLINE
5
157
100
AcDbEntity
8
0
100
AcDbPolyline
90
5
70
1
43
0.0
10
157.4915254237288
20
-289.99999811932946
10
155.49152542372883
20
-289.99999789353251
10
155.49152542372883
20
-320.00000000081286
10
155.56884511375762
20
-389.99999837715973
10
157.4915254237288
20
-390
0
LWPOLYLINE
5
158
100
AcDbEntity
8
0
100
AcDbPolyline
90
4
70
1
43
0.0
10
159.79661016949152
20
-220
10
159.79661016949152
20
-320
10
161.79661016949154
20
-320
10
161.79661016949154
20
-220
0
LWPOLYLINE
5
159
100
AcDbEntity
8
0
100
AcDbPolyline
90
5
70
1
43
0.0
10
163.87392985952033
20
-150.00000162284024
10
165.79661016949154
20
-150
10
165.79661016949154
20
-250.00000188067054
10
163.79661016949154
20
-250.00000210646746
10
163.79661016949154
20
-219.99999999918717
0
LWPOLYLINE
5
160
100
AcDbEntity
8
0
100
AcDbPolyline
90
5
70
1
43
0.0
10
165.79661016949154
20
-289.99999811932946
10
163.79661016949154
20
-289.99999789353251
10
163.79661016949154
20
-320.00000000081286
10
163.87392985952033
20
-389.99999837715973
10
165.79661016949154
20
-390
0
LWPOLYLINE
5
161
100
AcDbEntity
8
0
100
AcDbPolyline
90
4
70
1
43
0.0
10
168.10169491525426
20
-220
10
168.10169491525426
20
-320
10
170.10169491525426
20
-320
10
170.10169491525426
20
-220
0
LWPOLYLINE
5
162
100
AcDbEntity
8
0
100
AcDbPolyline
90
5
70
1
43
0.0
10
172.17901460528307
20
-150.00000162284024
10
174.10169491525426
20
-150
10
174.10169491525426
20
-250.00000188067054
10
172.10169491525426
20
-250.00000210646746
10
172.10169491525426
20
-219.99999999918717
0
LWPOLYLINE
5
163
100
AcDbEntity
8
0
100
AcDbPolyline
90
5
70
1
43
0.0
10
174.10169491525426
20
-289.99999811932946
10
172.10169491525426
20
-289.99999789353251
10
172.10169491525426
20
-320.00000000081286
10
172.17901460528307
20
-389.99999837715973
10
174.10169491525426
20
-390
0
LWPOLYLINE
5
164
100
AcDbEntity
8
0
100
AcDbPolyline
90
4
70
1
43
0.0
10
176.40677966101694
20
-220
10
176.40677966101694
20
-320
10
178.40677966101694
20
-320
10
178.40677966101694
20
-220
0
LWPOLYLINE
5
165
100
AcDbEntity
8
0
100
AcDbPolyline
90
5
70
1
43
0.0
10
180.48409935104576
20
-150.00000162284024
10
182.40677966101697
20
-150
10
182.40677966101697
20
-250.00000188067054
10
180.40677966101697
20
-250.00000210646746
10
180.40677966101697
20
-219.99999999918717
0
LWPOLYLINE
5
166
100
AcDbEntity
8
0
100
AcDbPolyline
90
5
70
1
43
0.0
10
182.40677966101697
20
-289.99999811932946
10
180.40677966101697
20
-289.99999789353251
10
180.40677966101697
20
-320.00000000081286
10
180.48409935104576
20
-389.99999837715973
10
182.40677966101697
20
-390
0
LWPOLYLINE
5
167
100
AcDbEntity
8
0
100
AcDbPolyline
90
4
70
1
43
0.0
10
184.71186440677965
20
-220
10
184.71186440677965
20
-320
10
186.71186440677963
20
-320
10
186.71186440677963
20
-220
0
LWPOLYLINE
5
168
100
AcDbEntity
8
0
100
AcDbPolyline
90
5
70
1
43
0.0
10
188.78918409680847
20
-150.00000162284024
10
190.71186440677965
20
-150
10
190.71186440677965
20
-250.00000188067054
10
188.71186440677968
20
-250.00000210646746
10
188.71186440677968
20
-219.99999999918717
0
LWPOLYLINE
5
169
100
AcDbEntity
8
0
100
AcDbPolyline
90
5
70
1
43
0.0
10
190.71186440677965
20
-289.99999811932946
10
188.71186440677968
20
-289.99999789353251
10
188.71186440677968
20
-320.00000000081286
10
188.78918409680847
20
-389.99999837715973
10
190.71186440677965
20
-390
0
LWPOLYLINE
5
170
100
AcDbEntity
8
0
100
AcDbPolyline
90
4
70
1
43
0.0
10
193.0169491525424
20
-220
10
193.0169491525424
20
-320
10
195.0169491525424
20
-320
10
195.0169491525424
20
-220
0
LWPOLYLINE
5
171
100
AcDbEntity
8
0
100
AcDbPolyline
90
5
70
1
43
0.0
10
197.09426884257118
20
-150.00000162284024
10
199.0169491525424
20
-150
10
199.0169491525424
20
-250.00000188067054
10
197.0169491525424
20
-250.00000210646746
10
197.0169491525424
20
-219.99999999918717
0
LWPOLYLINE
5
172
100
AcDbEntity
8
0
100
AcDbPolyline
90
5
70
1
43
0.0
10
199.0169491525424
20
-289.99999811932946
10
197.0169491525424
20
-289.99999789353251
10
197.0169491525424
20
-320.00000000081286
10
197.09426884257118
20
-389.99999837715973
10
199.0169491525424
20
-390
0
LWPOLYLINE
5
173
100
AcDbEntity
8
0
100
AcDbPolyline
90
4
70
1
43
0.0
10
201.32203389830508
20
-220
10
201.32203389830508
20
-320
10
203.32203389830511
20
-320
10
203.32203389830511
20
-220
0
LWPOLYLINE
5
174
100
AcDbEntity
8
0
100
AcDbPolyline
90
5
70
1
43
0.0
10
205.3993535883339
20
-150.00000162284024
10
207.32203389830511
20
-150
10
207.32203389830511
20
-250.00000188067054
10
205.32203389830511
20
-250.00000210646746
10
205.32203389830511
20
-219.99999999918717
0
LWPOLYLINE
5
175
100
AcDbEntity
8
0
100
AcDbPolyline
90
5
70
1
43
0.0
10
207.32203389830511
20
-289.99999811932946
10
205.32203389830511
20
-289.99999789353251
10
205.32203389830511
20
-320.00000000081286
10
205.3993535883339
20
-389.99999837715973
10
207.32203389830511
20
-390
0
LWPOLYLINE
5
176
100
AcDbEntity
8
0
100
AcDbPolyline
90
4
70
1
43
0.0
10
209.62711864406776
20
-220
10
209.62711864406776
20
-320
10
211.62711864406782
20
-320
10
211.62711864406782
20
-220
0
LWPOLYLINE
5
177
100
AcDbEntity
8
0
100
AcDbPolyline
90
5
70
1
43
0.0
10
213.70443833409661
20
-150.00000162284024
10
215.62711864406779
20
-150
10
215.62711864406779
20
-250.00000188067054
10
213.62711864406779
20
-250.00000210646746
10
213.62711864406779
20
-219.99999999918717
0
LWPOLYLINE
5
178
100
AcDbEntity
8
0
100
AcDbPolyline
90
5
70
1
43
0.0
10
215.62711864406779
20
-289.99999811932946
10
213.62711864406779
20
-289.99999789353251
10
213.62711864406779
20
-320.00000000081286
10
213.70443833409661
20
-389.99999837715973
10
215.62711864406779
20
-390
0
LWPOLYLINE
5
179
100
AcDbEntity
8
0
100
AcDbPolyline
90
4
70
1
43
0.0
10
217.93220338983051
20
-220
10
217.93220338983051
20
-320
10
219.93220338983051
20
-320
10
219.93220338983051
20
-220
0
LWPOLYLINE
5
180
100
AcDbEntity
8
0
100
AcDbPolyline
90
5
70
1
43
0.0
10
222.00952307985932
20
-150.00000162284024
10
223.93220338983053
20
-150
10
223.93220338983053
20
-250.00000188067054
10
221.93220338983053
20
-250.00000210646746
10
221.93220338983053
20
-219.99999999918717
0
LWPOLYLINE
5
181
100
AcDbEntity
8
0
100
AcDbPolyline
90
5
70
1
43
0.0
10
223.93220338983053
20
-289.99999811932946
10
221.93220338983053
20
-289.99999789353251
10
221.93220338983053
20
-320.00000000081286
10
222.00952307985932
20
-389.99999837715973
10
223.93220338983053
20
-390
0
LWPOLYLINE
5
182
100
AcDbEntity
8
0
100
AcDbPolyline
90
4
70
1
43
0.0
10
226.23728813559322
20
-220
10
226.23728813559322
20
-320
10
228.23728813559319
20
-320
10
228.23728813559319
20
-220
0
LWPOLYLINE
5
183
100
AcDbEntity
8
0
100
AcDbPolyline
90
5
70
1
43
0.0
10
230.31460782562203
20
-150.00000162284024
10
232.23728813559322
20
-150
10
232.23728813559322
20
-250.00000188067054
10
230.23728813559325
20
-250.00000210646746
10
230.23728813559325
20
-219.99999999918717
0
LWPOLYLINE
5
184
100
AcDbEntity
8
0
100
AcDbPolyline
90
5
70
1
43
0.0
10
232.23728813559322
20
-289.99999811932946
10
230.23728813559325
20
-289.99999789353251
10
230.23728813559325
20
-320.00000000081286
10
230.31460782562203
20
-389.99999837715973
10
232.23728813559322
20
-390
0
LWPOLYLINE
5
185
100
AcDbEntity
8
0
100
AcDbPolyline
90
4
70
1
43
0.0
10
234.5423728813559
20
-220
10
234.5423728813559
20
-320
10
236.5423728813559
20
-320
10
236.5423728813559
20
-220
0
LWPOLYLINE
5
186
100
AcDbEntity
8
0
100
AcDbPolyline
90
5
70
1
43
0.0
10
238.61969257138472
20
-150.00000162284024
10
240.54237288135593
20
-150
10
240.54237288135593
20
-250.00000188067054
10
238.54237288135593
20
-250.00000210646746
10
238.54237288135593
20
-219.99999999918717
0
LWPOLYLINE
5
187
100
AcDbEntity
8
0
100
AcDbPolyline
90
5
70
1
43
0.0
10
240.54237288135593
20
-289.99999811932946
10
238.54237288135593
20
-289.99999789353251
10
238.54237288135593
20
-320.00000000081286
10
238.61969257138472
20
-389.99999837715973
10
240.54237288135593
20
-390
0
LWPOLYLINE
5
188
100
AcDbEntity
8
0
100
AcDbPolyline
90
4
70
1
43
0.0
10
242.84745762711864
20
-220
10
242.84745762711864
20
-320
10
244.84745762711867
20
-320
10
244.84745762711867
20
-220
0
LWPOLYLINE
5
189
100
AcDbEntity
8
0
100
AcDbPolyline
90
5
70
1
43
0.0
10
246.92477731714746
20
-150.00000162284024
10
248.84745762711867
20
-150
10
248.84745762711867
20
-250.00000188067054
10
246.84745762711867
20
-250.00000210646746
10
246.84745762711867
20
-219.99999999918717
0
LWPOLYLINE
5
190
100
AcDbEntity
8
0
100
AcDbPolyline
90
5
70
1
43
0.0
10
248.84745762711867
20
-289.99999811932946
10
246.84745762711867
20
-289.99999789353251
10
246.84745762711867
20
-320.00000000081286
10
246.92477731714746
20
-389.99999837715973
10
248.84745762711867
20
-390
0
LWPOLYLINE
5
191
100
AcDbEntity
8
0
100
AcDbPolyline
90
4
70
1
43
0.0
10
251.15254237288133
20
-220
10
251.15254237288133
20
-320
10
253.15254237288138
20
-320
10
253.15254237288138
20
-220
0
LWPOLYLINE
5
192
100
AcDbEntity
8
0
100
AcDbPolyline
90
5
70
1
43
0.0
10
255.22986206291017
20
-150.00000162284024
10
257.15254237288138
20
-150
10
257.15254237288138
20
-250.00000188067054
10
255.15254237288136
20
-250.00000210646746
10
255.15254237288136
20
-219.99999999918717
0
LWPOLYLINE
5
193
100
AcDbEntity
8
0
100
AcDbPolyline
90
5
70
1
43
0.0
10
257.15254237288138
20
-289.99999811932946
10
255.15254237288136
20
-289.99999789353251
10
255.15254237288136
20
-320.00000000081286
10
255.22986206291017
20
-389.99999837715973
10
257.15254237288138
20
-390
0
LWPOLYLINE
5
194
100
AcDbEntity
8
0
100
AcDbPolyline
90
4
70
1
43
0.0
10
259.4576271186441
20
-220
10
259.4576271186441
20
-320
10
261.45762711864404
20
-320
10
261.45762711864404
20
-220
0
LWPOLYLINE
5
195
100
AcDbEntity
8
0
100
AcDbPolyline
90
5
70
1
43
0.0
10
263.53494680867288
20
-150.00000162284024
10
265.4576271186441
20
-150
10
265.4576271186441
20
-250.00000188067054
10
263.4576271186441
20
-250.00000210646746
10
263.4576271186441
20
-219.99999999918717
0
LWPOLYLINE
5
196
100
AcDbEntity
8
0
100
AcDbPolyline
90
5
70
1
43
0.0
10
265.4576271186441
20
-289.99999811932946
10
263.4576271186441
20
-289.99999789353251
10
263.4576271186441
20
-320.00000000081286
10
263.53494680867288
20
-389.99999837715973
10
265.4576271186441
20
-390
0
LWPOLYLINE
5
197
100
AcDbEntity
8
0
100
AcDbPolyline
90
4
70
1
43
0.0
10
267.76271186440675
20
-220
10
267.76271186440675
20
-320
10
269.76271186440675
20
-320
10
269.76271186440675
20
-220
0
LWPOLYLINE
5
198
100
AcDbEntity
8
0
100
AcDbPolyline
90
5
70
1
43
0.0
10
271.8400315544356
20
-150.00000162284024
10
273.76271186440681
20
-150
10
273.76271186440681
20
-250.00000188067054
10
271.76271186440681
20
-250.00000210646746
10
271.76271186440681
20
-219.99999999918717
0
LWPOLYLINE
5
199
100
AcDbEntity
8
0
100
AcDbPolyline
90
5
70
1
43
0.0
10
273.76271186440681
20
-289.99999811932946
10
271.76271186440681
20
-289.99999789353251
10
271.76271186440681
20
-320.00000000081286
10
271.8400315544356
20
-389.99999837715973
10
273.76271186440681
20
-390
0
LWPOLYLINE
5
200
100
AcDbEntity
8
0
100
AcDbPolyline
90
4
70
1
43
0.0
10
276.06779661016947
20
-220
10
276.06779661016947
20
-320
10
278.06779661016947
20
-320
10
278.06779661016947
20
-220
0
LWPOLYLINE
5
201
100
AcDbEntity
8
0
100
AcDbPolyline
90
5
70
1
43
0.0
10
280.14511630019831
20
-150.00000162284024
10
282.06779661016947
20
-150
10
282.06779661016947
20
-250.00000188067054
10
280.06779661016947
20
-250.00000210646746
10
280.06779661016947
20
-219.99999999918717
0
LWPOLYLINE
5
202
100
AcDbEntity
8
0
100
AcDbPolyline
90
5
70
1
43
0.0
10
282.06779661016947
20
-289.99999811932946
10
280.06779661016947
20
-289.99999789353251
10
280.06779661016947
20
-320.00000000081286
10
280.14511630019831
20
-389.99999837715973
10
282.06779661016947
20
-390
0
LWPOLYLINE
5
203
100
AcDbEntity
8
0
100
AcDbPolyline
90
4
70
1
43
0.0
10
284.37288135593224
20
-220
10
284.37288135593224
20
-320
10
286.37288135593224
20
-320
10
286.37288135593224
20
-220
0
LWPOLYLINE
5
204
100
AcDbEntity
8
0
100
AcDbPolyline
90
5
70
1
43
0.0
10
288.45020104596102
20
-150.00000162284024
10
290.37288135593224
20
-150
10
290.37288135593224
20
-250.00000188067054
10
288.37288135593224
20
-250.00000210646746
10
288.37288135593224
20
-219.99999999918717
0
LWPOLYLINE
5
205
100
AcDbEntity
8
0
100
AcDbPolyline
90
5
70
1
43
0.0
10
290.37288135593224
20
-289.99999811932946
10
288.37288135593224
20
-289.99999789353251
10
288.37288135593224
20
-320.00000000081286
10
288.45020104596102
20
-389.99999837715973
10
290.37288135593224
20
-390
0
LWPOLYLINE
5
206
100
AcDbEntity
8
0
100
AcDbPolyline
90
4
70
1
43
0.0
10
292.67796610169489
20
-220
10
292.67796610169489
20
-320
10
294.67796610169495
20
-320
10
294.67796610169495
20
-220
0
LWPOLYLINE
5
207
100
AcDbEntity
8
0
100
AcDbPolyline
90
5
70
1
43
0.0
10
296.75528579172374
20
-150.00000162284024
10
298.67796610169489
20
-150
10
298.67796610169489
20
-250.00000188067054
10
296.67796610169495
20
-250.00000210646746
10
296.67796610169495
20
-219.99999999918717
0
LWPOLYLINE
5
208
100
AcDbEntity
8
0
100
AcDbPolyline
90
5
70
1
43
0.0
10
298.67796610169489
20
-289.99999811932946
10
296.67796610169495
20
-289.99999789353251
10
296.67796610169495
20
-320.00000000081286
10
296.75528579172374
20
-389.99999837715973
10
298.67796610169489
20
-390
0
LWPOLYLINE
5
209
100
AcDbEntity
8
0
100
AcDbPolyline
90
4
70
1
43
0.0
10
300.98305084745766
20
-220
10
300.98305084745766
20
-320
10
302.98305084745766
20
-320
10
302.98305084745766
20
-220
0
LWPOLYLINE
5
210
100
AcDbEntity
8
0
100
AcDbPolyline
90
5
70
1
43
0.0
10
305.06037053748645
20
-150.00000162284024
10
306.98305084745766
20
-150
10
306.98305084745766
20
-250.00000188067054
10
304.98305084745766
20
-250.00000210646746
10
304.98305084745766
20
-219.99999999918717
0
LWPOLYLINE
5
211
100
AcDbEntity
8
0
100
AcDbPolyline
90
5
70
1
43
0.0
10
306.98305084745766
20
-289.99999811932946
10
304.98305084745766
20
-289.99999789353251
10
304.98305084745766
20
-320.00000000081286
10
305.06037053748645
20
-389.99999837715973
10
306.98305084745766
20
-390
0
LWPOLYLINE
5
212
100
AcDbEntity
8
0
100
AcDbPolyline
90
4
70
1
43
0.0
10
309.28813559322032
20
-220
10
309.28813559322032
20
-320
10
311.28813559322032
20
-320
10
311.28813559322032
20
-220
0
LWPOLYLINE
5
213
100
AcDbEntity
8
0
100
AcDbPolyline
90
5
70
1
43
0.0
10
313.36545528324916
20
-150.00000162284024
10
315.28813559322037
20
-150
10
315.28813559322037
20
-250.00000188067054
10
313.28813559322037
20
-250.00000210646746
10
313.28813559322037
20
-219.99999999918717
0
LWPOLYLINE
5
214
100
AcDbEntity
8
0
100
AcDbPolyline
90
5
70
1
43
0.0
10
315.28813559322037
20
-289.99999811932946
10
313.28813559322037
20
-289.99999789353251
10
313.28813559322037
20
-320.00000000081286
10
313.36545528324916
20
-389.99999837715973
10
315.28813559322037
20
-390
0
LWPOLYLINE
5
215
100
AcDbEntity
8
0
100
AcDbPolyline
90
4
70
1
43
0.0
10
317.59322033898303
20
-220
10
317.59322033898303
20
-320
10
319.59322033898303
20
-320
10
319.59322033898303
20
-220
0
LWPOLYLINE
5
216
100
AcDbEntity
8
0
100
AcDbPolyline
90
5
70
1
43
0.0
10
321.67054002901187
20
-150.00000162284024
10
323.59322033898303
20
-150
10
323.59322033898303
20
-250.00000188067054
10
321.59322033898309
20
-250.00000210646746
10
321.59322033898309
20
-219.99999999918717
0
LWPOLYLINE
5
217
100
AcDbEntity
8
0
100
AcDbPolyline
90
5
70
1
43
0.0
10
323.59322033898303
20
-289.99999811932946
10
321.59322033898309
20
-289.99999789353251
10
321.59322033898309
20
-320.00000000081286
10
321.67054002901187
20
-389.99999837715973
10
323.59322033898303
20
-390
0
LWPOLYLINE
5
218
100
AcDbEntity
8
0
100
AcDbPolyline
90
4
70
1
43
0.0
10
325.89830508474574
20
-220
10
325.89830508474574
20
-320
10
327.89830508474574
20
-320
10
327.89830508474574
20
-220
0
LWPOLYLINE
5
219
100
AcDbEntity
8
0
100
AcDbPolyline
90
5
70
1
43
0.0
10
329.97562477477459
20
-150.00000162284024
10
331.89830508474574
20
-150
10
331.89830508474574
20
-250.00000188067054
10
329.89830508474574
20
-250.00000210646746
10
329.89830508474574
20
-219.99999999918717
0
LWPOLYLINE
5
220
100
AcDbEntity
8
0
100
AcDbPolyline
90
5
70
1
43
0.0
10
331.89830508474574
20
-289.99999811932946
10
329.89830508474574
20
-289.99999789353251
10
329.89830508474574
20
-320.00000000081286
10
329.97562477477459
20
-389.99999837715973
10
331.89830508474574
20
-390
0
LWPOLYLINE
5
221
100
AcDbEntity
8
0
100
AcDbPolyline
90
4
70
1
43
0.0
10
334.20338983050851
20
-220
10
334.20338983050851
20
-320
10
336.20338983050851
20
-320
10
336.20338983050851
20
-220
0
LWPOLYLINE
5
222
100
AcDbEntity
8
0
100
AcDbPolyline
90
5
70
1
43
0.0
10
338.28070952053736
20
-150.00000162284024
10
340.20338983050851
20
-150
10
340.20338983050851
20
-250.00000188067054
10
338.20338983050851
20
-250.00000210646746
10
338.20338983050851
20
-219.99999999918717
0
LWPOLYLINE
5
223
100
AcDbEntity
8
0
100
AcDbPolyline
90
5
70
1
43
0.0
10
340.20338983050851
20
-289.99999811932946
10
338.20338983050851
20
-289.99999789353251
10
338.20338983050851
20
-320.00000000081286
10
338.28070952053736
20
-389.99999837715973
10
340.20338983050851
20
-390
0
LWPOLYLINE
5
224
100
AcDbEntity
8
0
100
AcDbPolyline
90
4
70
1
43
0.0
10
342.50847457627123
20
-220
10
342.50847457627123
20
-320
10
344.50847457627117
20
-320
10
344.50847457627117
20
-220
0
LWPOLYLINE
5
225
100
AcDbEntity
8
0
100
AcDbPolyline
90
5
70
1
43
0.0
10
346.58579426630007
20
-150.00000162284024
10
348.50847457627117
20
-150
10
348.50847457627117
20
-250.00000188067054
10
346.50847457627123
20
-250.00000210646746
10
346.50847457627123
20
-219.99999999918717
0
LWPOLYLINE
5
226
100
AcDbEntity
8
0
100
AcDbPolyline
90
5
70
1
43
0.0
10
348.50847457627117
20
-289.99999811932946
10
346.50847457627123
20
-289.99999789353251
10
346.50847457627123
20
-320.00000000081286
10
346.58579426630007
20
-389.99999837715973
10
348.50847457627117
20
-390
0
LWPOLYLINE
5
227
100
AcDbEntity
8
0
100
AcDbPolyline
90
4
70
1
43
0.0
10
350.81355932203394
20
-220
10
350.81355932203394
20
-320
10
352.81355932203388
20
-320
10
352.81355932203388
20
-220
0
LWPOLYLINE
5
228
100
AcDbEntity
8
0
100
AcDbPolyline
90
5
70
1
43
0.0
10
354.89087901206278
20
-150.00000162284024
10
356.81355932203388
20
-150
10
356.81355932203388
20
-250.00000188067054
10
354.81355932203394
20
-250.00000210646746
10
354.81355932203394
20
-219.99999999918717
0
LWPOLYLINE
5
229
100
AcDbEntity
8
0
100
AcDbPolyline
90
5
70
1
43
0.0
10
356.81355932203388
20
-289.99999811932946
10
354.81355932203394
20
-289.99999789353251
10
354.81355932203394
20
-320.00000000081286
10
354.89087901206278
20
-389.99999837715973
10
356.81355932203388
20
-390
0
LWPOLYLINE
5
230
100
AcDbEntity
8
0
100
AcDbPolyline
90
4
70
1
43
0.0
10
359.11864406779665
20
-220
10
359.11864406779665
20
-320
10
361.11864406779659
20
-320
10
361.11864406779659
20
-220
0
LWPOLYLINE
5
231
100
AcDbEntity
8
0
100
AcDbPolyline
90
5
70
1
43
0.0
10
363.19596375782544
20
-150.00000162284024
10
365.11864406779659
20
-150
10
365.11864406779659
20
-250.00000188067054
10
363.11864406779659
20
-250.00000210646746
10
363.11864406779659
20
-219.99999999918717
0
LWPOLYLINE
5
232
100
AcDbEntity
8
0
100
AcDbPolyline
90
5
70
1
43
0.0
10
365.11864406779659
20
-289.99999811932946
10
363.11864406779659
20
-289.99999789353251
10
363.11864406779659
20
-320.00000000081286
10
363.19596375782544
20
-389.99999837715973
10
365.11864406779659
20
-390
0
LWPOLYLINE
5
233
100
AcDbEntity
8
0
100
AcDbPolyline
90
4
70
1
43
0.0
10
367.42372881355936
20
-220
10
367.42372881355936
20
-320
10
369.42372881355931
20
-320
10
369.42372881355931
20
-220
0
LWPOLYLINE
5
234
100
AcDbEntity
8
0
100
AcDbPolyline
90
5
70
1
43
0.0
10
371.50104850358815
20
-150.00000162284024
10
373.42372881355925
20
-150
10
373.42372881355925
20
-250.00000188067054
10
371.42372881355931
20
-250.00000210646746
10
371.42372881355931
20
-219.99999999918717
0
LWPOLYLINE
5
235
100
AcDbEntity
8
0
100
AcDbPolyline
90
5
70
1
43
0.0
10
373.42372881355925
20
-289.99999811932946
10
371.42372881355931
20
-289.99999789353251
10
371.42372881355931
20
-320.00000000081286
10
371.50104850358815
20
-389.99999837715973
10
373.42372881355925
20
-390
0
LWPOLYLINE
5
236
100
AcDbEntity
8
0
100
AcDbPolyline
90
4
70
1
43
0.0
10
375.72881355932202
20
-220
10
375.72881355932202
20
-320
10
377.72881355932202
20
-320
10
377.72881355932202
20
-220
0
LWPOLYLINE
5
237
100
AcDbEntity
8
0
100
AcDbPolyline
90
5
70
1
43
0.0
10
379.80613324935086
20
-150.00000162284024
10
381.72881355932196
20
-150
10
381.72881355932196
20
-250.00000188067054
10
379.72881355932202
20
-250.00000210646746
10
379.72881355932202
20
-219.99999999918717
0
LWPOLYLINE
5
238
100
AcDbEntity
8
0
100
AcDbPolyline
90
5
70
1
43
0.0
10
381.72881355932196
20
-289.99999811932946
10
379.72881355932202
20
-289.99999789353251
10
379.72881355932202
20
-320.00000000081286
10
379.80613324935086
20
-389.99999837715973
10
381.72881355932196
20
-390
0
LWPOLYLINE
5
239
100
AcDbEntity
8
0
100
AcDbPolyline
90
4
70
1
43
0.0
10
384.03389830508479
20
-220
10
384.03389830508479
20
-320
10
386.03389830508479
20
-320
10
386.03389830508479
20
-220
0
LWPOLYLINE
5
240
100
AcDbEntity
8
0
100
AcDbPolyline
90
5
70
1
43
0.0
10
388.11121799511363
20
-150.00000162284024
10
390.03389830508473
20
-150
10
390.03389830508473
20
-250.00000188067054
10
388.03389830508479
20
-250.00000210646746
10
388.03389830508479
20
-219.99999999918717
0
LWPOLYLINE
5
241
100
AcDbEntity
8
0
100
AcDbPolyline
90
5
70
1
43
0.0
10
390.03389830508473
20
-289.99999811932946
10
388.03389830508479
20
-289.99999789353251
10
388.03389830508479
20
-320.00000000081286
10
388.11121799511363
20
-389.99999837715973
10
390.03389830508473
20
-390
0
LWPOLYLINE
5
242
100
AcDbEntity
8
0
100
AcDbPolyline
90
4
70
1
43
0.0
10
392.3389830508475
20
-220
10
392.3389830508475
20
-320
10
394.33898305084745
20
-320
10
394.33898305084745
20
-220
0
LWPOLYLINE
5
243
100
AcDbEntity
8
0
100
AcDbPolyline
90
5
70
1
43
0.0
10
396.41630274087629
20
-150.00000162284024
10
398.33898305084745
20
-150
10
398.33898305084745
20
-250.00000188067054
10
396.3389830508475
20
-250.00000210646746
10
396.3389830508475
20
-219.99999999918717
0
LWPOLYLINE
5
244
100
AcDbEntity
8
0
100
AcDbPolyline
90
5
70
1
43
0.0
10
398.33898305084745
20
-289.99999811932946
10
396.3389830508475
20
-289.99999789353251
10
396.3389830508475
20
-320.00000000081286
10
396.41630274087629
20
-389.99999837715973
10
398.33898305084745
20
-390
0
ENDSEC
0
SECTION
2
OBJECTS
0
DICTIONARY
5
C
100
AcDbDictionary
3
ACAD_GROUP
350
D
3
ACAD_MLINESTYLE
350
17
0
DICTIONARY
5
D
100
AcDbDictionary
0
DICTIONARY
5
1A
330
C
100
AcDbDictionary
0
DICTIONARY
5
17
100
AcDbDictionary
0
ENDSEC
0
EOF
