0
SECTION
2
HEADER
9
$INSUNITS
70
4
9
$ACADVER
1
AC1014
9
$HANDSEED
5
FFFF
0
ENDSEC
0
SECTION
2
TABLES
0
TABLE
2
VPORT
5
8
100
AcDbSymbolTable
0
ENDTAB
0
TABLE
2
LTYPE
5
5
100
AcDbSymbolTable
0
LTYPE
5
14
100
AcDbSymbolTableRecord
100
AcDbLinetypeTableRecord
2
BYBLOCK
70
0
0
LTYPE
5
15
100
AcDbSymbolTableRecord
100
AcDbLinetypeTableRecord
2
BYLAYER
70
0
0
ENDTAB
0
TABLE
2
LAYER
5
2
100
AcDbSymbolTable
70
2
0
LAYER
5
50
100
AcDbSymbolTableRecord
100
AcDbLayerTableRecord
2
0
70
0
6
CONTINUOUS
0
ENDTAB
0
TABLE
2
STYLE
5
3
100
AcDbSymbolTable
70
1
0
STYLE
5
11
100
AcDbSymbolTableRecord
100
AcDbTextStyleTableRecord
2
STANDARD
70
0
0
ENDTAB
0
TABLE
2
VIEW
5
6
100
AcDbSymbolTable
70
0
0
ENDTAB
0
TABLE
2
UCS
5
7
100
AcDbSymbolTable
70
0
0
ENDTAB
0
TABLE
2
APPID
5
9
100
AcDbSymbolTable
70
2
0
APPID
5
12
100
AcDbSymbolTableRecord
100
AcDbRegAppTableRecord
2
ACAD
70
0
0
ENDTAB
0
TABLE
2
DIMSTYLE
5
A
100
AcDbSymbolTable
70
1
0
ENDTAB
0
TABLE
2
BLOCK_RECORD
5
1
100
AcDbSymbolTable
70
1
0
BLOCK_RECORD
5
1F
100
AcDbSymbolTableRecord
100
AcDbBlockTableRecord
2
*MODEL_SPACE
0
BLOCK_RECORD
5
1B
100
AcDbSymbolTableRecord
100
AcDbBlockTableRecord
2
*PAPER_SPACE
0
ENDTAB
0
ENDSEC
0
SECTION
2
BLOCKS
0
BLOCK
5
20
100
AcDbEntity
100
AcDbBlockBegin
2
*MODEL_SPACE
0
ENDBLK
5
21
100
AcDbEntity
100
AcDbBlockEnd
0
BLOCK
5
1C
100
AcDbEntity
100
AcDbBlockBegin
2
*PAPER_SPACE
0
ENDBLK
5
1D
100
AcDbEntity
100
AcDbBlockEnd
0
ENDSEC
0
SECTION
2
ENTITIES
0
LWPOLYLINE
5
100
100
AcDbEntity
8
0
100
AcDbPolyline
90
6
70
1
43
0.0
10
-46.188021535170058
20
1.7763568394002505e-14
10
-23.094010767585015
20
40
10
23.094010767585061
20
39.999999999999972
10
46.188021535170058
20
-3.5527136788005009e-14
10
23.094010767585004
20
-40.000000000000007
10
-23.094010767585047
20
-39.999999999999986
0
LINE
5
101
100
AcDbEntity
8
0
100
AcDbLine
10
-17.320508075688767
20
29.999999999999996
30
0
11
-34.641016151377542
21
1.7763568394002505e-14
31
0
0
LINE
5
102
100
AcDbEntity
8
0
100
AcDbLine
10
-34.641016151377542
20
1.7763568394002505e-14
30
0
11
-17.320508075688782
21
-29.999999999999993
31
0
0
LWPOLYLINE
5
103
100
AcDbEntity
8
0
100
AcDbPolyline
90
4
70
1
43
0.0
10
10
20
-30
10
10
20
29.999999999999993
10
20
20
29.999999999999993
10
19.999999999999968
20
-30
0
LINE
5
104
100
AcDbEntity
8
0
100
AcDbLine
10
-17.320508075688767
20
29.999999999999996
30
0
11
1.1102230246251565e-14
21
29.999999999999993
31
0
0
LINE
5
105
100
AcDbEntity
8
0
100
AcDbLine
10
-17.320508075688782
20
-29.999999999999993
30
0
11
1.1102230246251565e-14
21
-30
31
0
0
LWPOLYLINE
5
106
100
AcDbEntity
8
0
100
AcDbPolyline
90
4
70
1
43
0.0
10
-10
20
-25
10
5
20
-25
10
5
20
-15
10
-10
20
-15
0
LINE
5
107
100
AcDbEntity
8
0
100
AcDbLine
10
1.1102230246251565e-14
20
-30
30
0
11
1.1102230246251565e-14
21
-25
31
0
0
LINE
5
108
100
AcDbEntity
8
0
100
AcDbLine
10
1.1102230246251565e-14
20
-15
30
0
11
1.1102230246251565e-14
21
29.999999999999993
31
0
0
LWPOLYLINE
5
109
100
AcDbEntity
8
0
100
AcDbPolyline
90
5
70
1
43
0.0
10
42.641016151377542
20
6.1435935394489576
10
34.641016151377563
20
19.999999999999972
10
26.641016151377571
20
33.856406460551
10
47.961524227066349
20
36.928203230275471
10
55.961524227066342
20
23.07179676972445
0
LINE
5
110
100
AcDbEntity
8
0
100
AcDbLine
10
-42.641016151377542
20
6.1435935394490286
30
0
11
-55.961524227066306
21
23.071796769724557
31
0
0
LINE
5
111
100
AcDbEntity
8
0
100
AcDbLine
10
-47.961524227066278
20
36.928203230275557
30
0
11
-55.961524227066306
21
23.071796769724557
31
0
0
LINE
5
112
100
AcDbEntity
8
0
100
AcDbLine
10
-26.641016151377514
20
33.856406460551028
30
0
11
-47.961524227066278
21
36.928203230275557
31
0
0
LINE
5
113
100
AcDbEntity
8
0
100
AcDbLine
10
-26.641016151377578
20
-33.856406460550993
30
0
11
-47.961524227066363
21
-36.928203230275464
31
0
0
LINE
5
114
100
AcDbEntity
8
0
100
AcDbLine
10
-55.961524227066342
20
-23.07179676972444
30
0
11
-47.961524227066363
21
-36.928203230275464
31
0
0
LINE
5
115
100
AcDbEntity
8
0
100
AcDbLine
10
-42.641016151377542
20
-6.1435935394489514
30
0
11
-55.961524227066342
21
-23.07179676972444
31
0
0
LINE
5
116
100
AcDbEntity
8
0
100
AcDbLine
10
42.641016151377542
20
-6.1435935394490482
30
0
11
55.961524227066292
21
-23.071796769724582
31
0
0
LINE
5
117
100
AcDbEntity
8
0
100
AcDbLine
10
47.961524227066263
20
-36.928203230275585
30
0
11
55.961524227066292
21
-23.071796769724582
31
0
0
LINE
5
118
100
AcDbEntity
8
0
100
AcDbLine
10
26.641016151377499
20
-33.85640646055105
30
0
11
47.961524227066263
21
-36.928203230275585
31
0
0
CIRCLE
5
119
100
AcDbEntity
8
0
100
AcDbCircle
10
0
20
0
30
0
40
150
210
0
220
0
230
1
0
CIRCLE
5
120
100
AcDbEntity
8
0
100
AcDbCircle
10
0
20
0
30
0
40
140
210
0
220
0
230
1
0
LINE
5
121
100
AcDbEntity
8
0
100
AcDbLine
10
0
20
150
30
0
11
0
21
-150
31
0
0
ENDSEC
0
SECTION
2
OBJECTS
0
DICTIONARY
5
C
100
AcDbDictionary
3
ACAD_GROUP
350
D
3
ACAD_MLINESTYLE
350
17
0
DICTIONARY
5
D
100
AcDbDictionary
0
DICTIONARY
5
1A
330
C
100
AcDbDictionary
0
DICTIONARY
5
17
100
AcDbDictionary
0
ENDSEC
0
EOF
