ISO-10303-21;
HEADER;
/* Generated by software containing ST-Developer
 * from STEP Tools, Inc. (www.steptools.com) 
 */

FILE_DESCRIPTION(
/* description */ (''),
/* implementation_level */ '2;1');

FILE_NAME(
/* name */ 
'C:/Users/au514/Documents/s171025-FAB/hokuen-au/docs/downloads/week06/
mini ring-ring.step',
/* time_stamp */ '2022-03-04T00:59:11+08:00',
/* author */ (''),
/* organization */ (''),
/* preprocessor_version */ 'ST-DEVELOPER v18.1',
/* originating_system */ 'Autodesk Translation Framework v10.13.0.1454',

/* authorisation */ '');

FILE_SCHEMA (('AUTOMOTIVE_DESIGN { 1 0 10303 214 3 1 1 }'));
ENDSEC;

DATA;
#10=MECHANICAL_DESIGN_GEOMETRIC_PRESENTATION_REPRESENTATION('',(#41,#42,
#43,#44,#45),#282);
#11=ITEM_DEFINED_TRANSFORMATION($,$,#167,#186);
#12=ITEM_DEFINED_TRANSFORMATION($,$,#167,#187);
#13=ITEM_DEFINED_TRANSFORMATION($,$,#171,#188);
#14=ITEM_DEFINED_TRANSFORMATION($,$,#175,#189);
#15=ITEM_DEFINED_TRANSFORMATION($,$,#179,#190);
#16=(
REPRESENTATION_RELATIONSHIP($,$,#303,#302)
REPRESENTATION_RELATIONSHIP_WITH_TRANSFORMATION(#11)
SHAPE_REPRESENTATION_RELATIONSHIP()
);
#17=(
REPRESENTATION_RELATIONSHIP($,$,#303,#302)
REPRESENTATION_RELATIONSHIP_WITH_TRANSFORMATION(#12)
SHAPE_REPRESENTATION_RELATIONSHIP()
);
#18=(
REPRESENTATION_RELATIONSHIP($,$,#304,#302)
REPRESENTATION_RELATIONSHIP_WITH_TRANSFORMATION(#13)
SHAPE_REPRESENTATION_RELATIONSHIP()
);
#19=(
REPRESENTATION_RELATIONSHIP($,$,#305,#302)
REPRESENTATION_RELATIONSHIP_WITH_TRANSFORMATION(#14)
SHAPE_REPRESENTATION_RELATIONSHIP()
);
#20=(
REPRESENTATION_RELATIONSHIP($,$,#306,#302)
REPRESENTATION_RELATIONSHIP_WITH_TRANSFORMATION(#15)
SHAPE_REPRESENTATION_RELATIONSHIP()
);
#21=CONTEXT_DEPENDENT_SHAPE_REPRESENTATION(#16,#297);
#22=CONTEXT_DEPENDENT_SHAPE_REPRESENTATION(#17,#298);
#23=CONTEXT_DEPENDENT_SHAPE_REPRESENTATION(#18,#299);
#24=CONTEXT_DEPENDENT_SHAPE_REPRESENTATION(#19,#300);
#25=CONTEXT_DEPENDENT_SHAPE_REPRESENTATION(#20,#301);
#26=NEXT_ASSEMBLY_USAGE_OCCURRENCE('Component1:1','Component1:1',
'Component1:1',#308,#309,'Component1:1');
#27=NEXT_ASSEMBLY_USAGE_OCCURRENCE('Component1:2','Component1:2',
'Component1:2',#308,#309,'Component1:2');
#28=NEXT_ASSEMBLY_USAGE_OCCURRENCE('Component2:1','Component2:1',
'Component2:1',#308,#310,'Component2:1');
#29=NEXT_ASSEMBLY_USAGE_OCCURRENCE('Component3:1','Component3:1',
'Component3:1',#308,#311,'Component3:1');
#30=NEXT_ASSEMBLY_USAGE_OCCURRENCE('Component4:1','Component4:1',
'Component4:1',#308,#312,'Component4:1');
#31=SHAPE_REPRESENTATION_RELATIONSHIP('SRR','None',#303,#36);
#32=SHAPE_REPRESENTATION_RELATIONSHIP('SRR','None',#304,#37);
#33=SHAPE_REPRESENTATION_RELATIONSHIP('SRR','None',#305,#38);
#34=SHAPE_REPRESENTATION_RELATIONSHIP('SRR','None',#306,#39);
#35=SHAPE_REPRESENTATION_RELATIONSHIP('SRR','None',#302,#40);
#36=ADVANCED_BREP_SHAPE_REPRESENTATION('',(#46),#278);
#37=ADVANCED_BREP_SHAPE_REPRESENTATION('',(#47),#279);
#38=ADVANCED_BREP_SHAPE_REPRESENTATION('',(#48),#280);
#39=ADVANCED_BREP_SHAPE_REPRESENTATION('',(#49),#281);
#40=ADVANCED_BREP_SHAPE_REPRESENTATION('',(#50),#277);
#41=STYLED_ITEM('',(#331),#46);
#42=STYLED_ITEM('',(#331),#47);
#43=STYLED_ITEM('',(#331),#48);
#44=STYLED_ITEM('',(#331),#49);
#45=STYLED_ITEM('',(#331),#50);
#46=MANIFOLD_SOLID_BREP('Body1',#116);
#47=MANIFOLD_SOLID_BREP('Body1',#117);
#48=MANIFOLD_SOLID_BREP('Body1',#118);
#49=MANIFOLD_SOLID_BREP('Body1',#119);
#50=MANIFOLD_SOLID_BREP('Body1',#120);
#51=FACE_OUTER_BOUND('',#56,.T.);
#52=FACE_OUTER_BOUND('',#57,.T.);
#53=FACE_OUTER_BOUND('',#58,.T.);
#54=FACE_OUTER_BOUND('',#59,.T.);
#55=FACE_OUTER_BOUND('',#60,.T.);
#56=EDGE_LOOP('',(#86,#87,#88,#89));
#57=EDGE_LOOP('',(#90,#91,#92,#93));
#58=EDGE_LOOP('',(#94,#95,#96,#97));
#59=EDGE_LOOP('',(#98,#99,#100,#101));
#60=EDGE_LOOP('',(#102,#103,#104,#105));
#61=CIRCLE('',#169,0.5);
#62=CIRCLE('',#170,2.);
#63=CIRCLE('',#173,0.5);
#64=CIRCLE('',#174,2.);
#65=CIRCLE('',#177,0.5);
#66=CIRCLE('',#178,2.);
#67=CIRCLE('',#181,0.5);
#68=CIRCLE('',#182,2.);
#69=CIRCLE('',#184,0.5);
#70=CIRCLE('',#185,2.);
#71=VERTEX_POINT('',#244);
#72=VERTEX_POINT('',#249);
#73=VERTEX_POINT('',#254);
#74=VERTEX_POINT('',#259);
#75=VERTEX_POINT('',#263);
#76=EDGE_CURVE('',#71,#71,#61,.T.);
#77=EDGE_CURVE('',#71,#71,#62,.T.);
#78=EDGE_CURVE('',#72,#72,#63,.T.);
#79=EDGE_CURVE('',#72,#72,#64,.T.);
#80=EDGE_CURVE('',#73,#73,#65,.T.);
#81=EDGE_CURVE('',#73,#73,#66,.T.);
#82=EDGE_CURVE('',#74,#74,#67,.T.);
#83=EDGE_CURVE('',#74,#74,#68,.T.);
#84=EDGE_CURVE('',#75,#75,#69,.T.);
#85=EDGE_CURVE('',#75,#75,#70,.T.);
#86=ORIENTED_EDGE('',*,*,#76,.F.);
#87=ORIENTED_EDGE('',*,*,#77,.T.);
#88=ORIENTED_EDGE('',*,*,#76,.T.);
#89=ORIENTED_EDGE('',*,*,#77,.F.);
#90=ORIENTED_EDGE('',*,*,#78,.F.);
#91=ORIENTED_EDGE('',*,*,#79,.T.);
#92=ORIENTED_EDGE('',*,*,#78,.T.);
#93=ORIENTED_EDGE('',*,*,#79,.F.);
#94=ORIENTED_EDGE('',*,*,#80,.F.);
#95=ORIENTED_EDGE('',*,*,#81,.T.);
#96=ORIENTED_EDGE('',*,*,#80,.T.);
#97=ORIENTED_EDGE('',*,*,#81,.F.);
#98=ORIENTED_EDGE('',*,*,#82,.F.);
#99=ORIENTED_EDGE('',*,*,#83,.T.);
#100=ORIENTED_EDGE('',*,*,#82,.T.);
#101=ORIENTED_EDGE('',*,*,#83,.F.);
#102=ORIENTED_EDGE('',*,*,#84,.F.);
#103=ORIENTED_EDGE('',*,*,#85,.T.);
#104=ORIENTED_EDGE('',*,*,#84,.T.);
#105=ORIENTED_EDGE('',*,*,#85,.F.);
#106=TOROIDAL_SURFACE('',#168,2.5,0.5);
#107=TOROIDAL_SURFACE('',#172,2.5,0.5);
#108=TOROIDAL_SURFACE('',#176,2.5,0.5);
#109=TOROIDAL_SURFACE('',#180,2.5,0.5);
#110=TOROIDAL_SURFACE('',#183,2.5,0.5);
#111=ADVANCED_FACE('',(#51),#106,.T.);
#112=ADVANCED_FACE('',(#52),#107,.T.);
#113=ADVANCED_FACE('',(#53),#108,.T.);
#114=ADVANCED_FACE('',(#54),#109,.T.);
#115=ADVANCED_FACE('',(#55),#110,.T.);
#116=CLOSED_SHELL('',(#111));
#117=CLOSED_SHELL('',(#112));
#118=CLOSED_SHELL('',(#113));
#119=CLOSED_SHELL('',(#114));
#120=CLOSED_SHELL('',(#115));
#121=DERIVED_UNIT_ELEMENT(#129,1.);
#122=DERIVED_UNIT_ELEMENT(#284,-3.);
#123=DERIVED_UNIT_ELEMENT(#129,1.);
#124=DERIVED_UNIT_ELEMENT(#284,-3.);
#125=DERIVED_UNIT_ELEMENT(#129,1.);
#126=DERIVED_UNIT_ELEMENT(#284,-3.);
#127=DERIVED_UNIT_ELEMENT(#129,1.);
#128=DERIVED_UNIT_ELEMENT(#284,-3.);
#129=(
MASS_UNIT()
NAMED_UNIT(*)
SI_UNIT(.KILO.,.GRAM.)
);
#130=DERIVED_UNIT((#121,#122));
#131=DERIVED_UNIT((#123,#124));
#132=DERIVED_UNIT((#125,#126));
#133=DERIVED_UNIT((#127,#128));
#134=MEASURE_REPRESENTATION_ITEM('density measure',
POSITIVE_RATIO_MEASURE(7850.),#130);
#135=MEASURE_REPRESENTATION_ITEM('density measure',
POSITIVE_RATIO_MEASURE(7850.),#131);
#136=MEASURE_REPRESENTATION_ITEM('density measure',
POSITIVE_RATIO_MEASURE(7850.),#132);
#137=MEASURE_REPRESENTATION_ITEM('density measure',
POSITIVE_RATIO_MEASURE(7850.),#133);
#138=PROPERTY_DEFINITION_REPRESENTATION(#158,#146);
#139=PROPERTY_DEFINITION_REPRESENTATION(#159,#147);
#140=PROPERTY_DEFINITION_REPRESENTATION(#160,#148);
#141=PROPERTY_DEFINITION_REPRESENTATION(#161,#149);
#142=PROPERTY_DEFINITION_REPRESENTATION(#162,#150);
#143=PROPERTY_DEFINITION_REPRESENTATION(#163,#151);
#144=PROPERTY_DEFINITION_REPRESENTATION(#164,#152);
#145=PROPERTY_DEFINITION_REPRESENTATION(#165,#153);
#146=REPRESENTATION('material name',(#154),#278);
#147=REPRESENTATION('density',(#134),#278);
#148=REPRESENTATION('material name',(#155),#279);
#149=REPRESENTATION('density',(#135),#279);
#150=REPRESENTATION('material name',(#156),#280);
#151=REPRESENTATION('density',(#136),#280);
#152=REPRESENTATION('material name',(#157),#281);
#153=REPRESENTATION('density',(#137),#281);
#154=DESCRIPTIVE_REPRESENTATION_ITEM('Steel','Steel');
#155=DESCRIPTIVE_REPRESENTATION_ITEM('Steel','Steel');
#156=DESCRIPTIVE_REPRESENTATION_ITEM('Steel','Steel');
#157=DESCRIPTIVE_REPRESENTATION_ITEM('Steel','Steel');
#158=PROPERTY_DEFINITION('material property','material name',#309);
#159=PROPERTY_DEFINITION('material property','density of part',#309);
#160=PROPERTY_DEFINITION('material property','material name',#310);
#161=PROPERTY_DEFINITION('material property','density of part',#310);
#162=PROPERTY_DEFINITION('material property','material name',#311);
#163=PROPERTY_DEFINITION('material property','density of part',#311);
#164=PROPERTY_DEFINITION('material property','material name',#312);
#165=PROPERTY_DEFINITION('material property','density of part',#312);
#166=AXIS2_PLACEMENT_3D('placement',#241,#191,#192);
#167=AXIS2_PLACEMENT_3D('placement',#242,#193,#194);
#168=AXIS2_PLACEMENT_3D('',#243,#195,#196);
#169=AXIS2_PLACEMENT_3D('',#245,#197,#198);
#170=AXIS2_PLACEMENT_3D('',#246,#199,#200);
#171=AXIS2_PLACEMENT_3D('placement',#247,#201,#202);
#172=AXIS2_PLACEMENT_3D('',#248,#203,#204);
#173=AXIS2_PLACEMENT_3D('',#250,#205,#206);
#174=AXIS2_PLACEMENT_3D('',#251,#207,#208);
#175=AXIS2_PLACEMENT_3D('placement',#252,#209,#210);
#176=AXIS2_PLACEMENT_3D('',#253,#211,#212);
#177=AXIS2_PLACEMENT_3D('',#255,#213,#214);
#178=AXIS2_PLACEMENT_3D('',#256,#215,#216);
#179=AXIS2_PLACEMENT_3D('placement',#257,#217,#218);
#180=AXIS2_PLACEMENT_3D('',#258,#219,#220);
#181=AXIS2_PLACEMENT_3D('',#260,#221,#222);
#182=AXIS2_PLACEMENT_3D('',#261,#223,#224);
#183=AXIS2_PLACEMENT_3D('',#262,#225,#226);
#184=AXIS2_PLACEMENT_3D('',#264,#227,#228);
#185=AXIS2_PLACEMENT_3D('',#265,#229,#230);
#186=AXIS2_PLACEMENT_3D('',#266,#231,#232);
#187=AXIS2_PLACEMENT_3D('',#267,#233,#234);
#188=AXIS2_PLACEMENT_3D('',#268,#235,#236);
#189=AXIS2_PLACEMENT_3D('',#269,#237,#238);
#190=AXIS2_PLACEMENT_3D('',#270,#239,#240);
#191=DIRECTION('axis',(0.,0.,1.));
#192=DIRECTION('refdir',(1.,0.,0.));
#193=DIRECTION('axis',(0.,0.,1.));
#194=DIRECTION('refdir',(1.,0.,0.));
#195=DIRECTION('center_axis',(1.,-1.72789470076932E-16,1.11022302462516E-16));
#196=DIRECTION('ref_axis',(7.40148683083438E-17,2.22044604925031E-16,-1.));
#197=DIRECTION('center_axis',(-1.72789470076932E-16,-1.,-3.46944695195361E-16));
#198=DIRECTION('ref_axis',(-9.25185853854297E-17,-3.46944695195361E-16,
1.));
#199=DIRECTION('center_axis',(-1.,1.72789470076932E-16,-1.11022302462516E-16));
#200=DIRECTION('ref_axis',(1.11022302462516E-16,2.25514051876985E-16,-1.));
#201=DIRECTION('axis',(0.,0.,1.));
#202=DIRECTION('refdir',(1.,0.,0.));
#203=DIRECTION('center_axis',(1.,0.,-2.22044604925031E-16));
#204=DIRECTION('ref_axis',(-2.22044604925031E-16,0.,-1.));
#205=DIRECTION('center_axis',(-2.71926214689378E-32,-1.,-1.22464679914735E-16));
#206=DIRECTION('ref_axis',(2.22044604925031E-16,-1.22464679914735E-16,1.));
#207=DIRECTION('center_axis',(-1.,0.,2.22044604925031E-16));
#208=DIRECTION('ref_axis',(-2.22044604925031E-16,0.,-1.));
#209=DIRECTION('axis',(0.,0.,1.));
#210=DIRECTION('refdir',(1.,0.,0.));
#211=DIRECTION('center_axis',(1.,0.,-2.22044604925031E-16));
#212=DIRECTION('ref_axis',(-2.22044604925031E-16,0.,-1.));
#213=DIRECTION('center_axis',(-2.71926214689378E-32,-1.,-1.22464679914735E-16));
#214=DIRECTION('ref_axis',(2.22044604925031E-16,-1.22464679914735E-16,1.));
#215=DIRECTION('center_axis',(-1.,0.,2.22044604925031E-16));
#216=DIRECTION('ref_axis',(-2.22044604925031E-16,0.,-1.));
#217=DIRECTION('axis',(0.,0.,1.));
#218=DIRECTION('refdir',(1.,0.,0.));
#219=DIRECTION('center_axis',(1.,0.,-2.22044604925031E-16));
#220=DIRECTION('ref_axis',(-2.22044604925031E-16,0.,-1.));
#221=DIRECTION('center_axis',(-2.72840075454858E-32,-1.,-1.22876246215024E-16));
#222=DIRECTION('ref_axis',(2.19731640290396E-16,-1.22876246215024E-16,1.));
#223=DIRECTION('center_axis',(-1.,0.,2.22044604925031E-16));
#224=DIRECTION('ref_axis',(-2.22044604925031E-16,0.,-1.));
#225=DIRECTION('center_axis',(1.,0.,-2.22044604925031E-16));
#226=DIRECTION('ref_axis',(-2.22044604925031E-16,0.,-1.));
#227=DIRECTION('center_axis',(-2.71926214689378E-32,-1.,-1.22464679914735E-16));
#228=DIRECTION('ref_axis',(2.22044604925031E-16,-1.22464679914735E-16,1.));
#229=DIRECTION('center_axis',(-1.,0.,2.22044604925031E-16));
#230=DIRECTION('ref_axis',(-2.22044604925031E-16,0.,-1.));
#231=DIRECTION('',(-0.5,0.5,0.707106781186547));
#232=DIRECTION('',(0.500000000000001,-0.5,0.707106781186548));
#233=DIRECTION('',(-0.5,0.5,0.707106781186547));
#234=DIRECTION('',(0.500000000000001,-0.5,0.707106781186548));
#235=DIRECTION('',(-0.499999999999999,-0.500000000000001,0.707106781186547));
#236=DIRECTION('',(0.5,0.5,0.707106781186548));
#237=DIRECTION('',(0.,0.,1.));
#238=DIRECTION('',(1.,0.,0.));
#239=DIRECTION('',(0.,0.,1.));
#240=DIRECTION('',(1.,0.,0.));
#241=CARTESIAN_POINT('',(0.,0.,0.));
#242=CARTESIAN_POINT('',(0.,0.,0.));
#243=CARTESIAN_POINT('Origin',(1.12998299553201,-0.162013824433121,0.857294337544683));
#244=CARTESIAN_POINT('',(1.12998299553201,-0.162013824433122,2.85729433754468));
#245=CARTESIAN_POINT('Origin',(1.12998299553201,-0.162013824433122,3.35729433754468));
#246=CARTESIAN_POINT('Origin',(1.12998299553201,-0.162013824433121,0.857294337544683));
#247=CARTESIAN_POINT('',(0.,0.,0.));
#248=CARTESIAN_POINT('Origin',(0.,0.,0.));
#249=CARTESIAN_POINT('',(5.0532154980743E-16,-2.44929359829471E-16,2.));
#250=CARTESIAN_POINT('Origin',(5.55111512312578E-16,-3.06161699786838E-16,
2.5));
#251=CARTESIAN_POINT('Origin',(-6.12323399573676E-17,0.,1.35963107344689E-32));
#252=CARTESIAN_POINT('',(0.,0.,0.));
#253=CARTESIAN_POINT('Origin',(0.,0.,0.));
#254=CARTESIAN_POINT('',(5.0532154980743E-16,-2.44929359829471E-16,2.));
#255=CARTESIAN_POINT('Origin',(5.55111512312578E-16,-3.06161699786838E-16,
2.5));
#256=CARTESIAN_POINT('Origin',(-6.12323399573676E-17,0.,1.35963107344689E-32));
#257=CARTESIAN_POINT('',(0.,0.,0.));
#258=CARTESIAN_POINT('Origin',(0.17309416718326,0.0380280152982815,0.00601572569582487));
#259=CARTESIAN_POINT('',(0.17309416718326,0.0380280152982812,2.00601572569582));
#260=CARTESIAN_POINT('Origin',(0.17309416718326,0.0380280152982812,2.50601572569582));
#261=CARTESIAN_POINT('Origin',(0.17309416718326,0.0380280152982815,0.00601572569582487));
#262=CARTESIAN_POINT('Origin',(0.,0.,0.));
#263=CARTESIAN_POINT('',(5.0532154980743E-16,-2.44929359829471E-16,2.));
#264=CARTESIAN_POINT('Origin',(5.55111512312578E-16,-3.06161699786838E-16,
2.5));
#265=CARTESIAN_POINT('Origin',(-6.12323399573676E-17,0.,1.35963107344689E-32));
#266=CARTESIAN_POINT('',(2.23128807097517E-15,3.,2.1163626406917E-15));
#267=CARTESIAN_POINT('',(2.23128807097517E-15,3.,2.1163626406917E-15));
#268=CARTESIAN_POINT('',(-0.103553390593272,-2.39644660940673,0.353553390593273));
#269=CARTESIAN_POINT('',(1.,5.5,1.5));
#270=CARTESIAN_POINT('',(0.570579609555388,-5.69152338990131,0.895156558346869));
#271=UNCERTAINTY_MEASURE_WITH_UNIT(LENGTH_MEASURE(0.01),#283,
'DISTANCE_ACCURACY_VALUE',
'Maximum model space distance between geometric entities at asserted c
onnectivities');
#272=UNCERTAINTY_MEASURE_WITH_UNIT(LENGTH_MEASURE(0.01),#283,
'DISTANCE_ACCURACY_VALUE',
'Maximum model space distance between geometric entities at asserted c
onnectivities');
#273=UNCERTAINTY_MEASURE_WITH_UNIT(LENGTH_MEASURE(0.01),#283,
'DISTANCE_ACCURACY_VALUE',
'Maximum model space distance between geometric entities at asserted c
onnectivities');
#274=UNCERTAINTY_MEASURE_WITH_UNIT(LENGTH_MEASURE(0.01),#283,
'DISTANCE_ACCURACY_VALUE',
'Maximum model space distance between geometric entities at asserted c
onnectivities');
#275=UNCERTAINTY_MEASURE_WITH_UNIT(LENGTH_MEASURE(0.01),#283,
'DISTANCE_ACCURACY_VALUE',
'Maximum model space distance between geometric entities at asserted c
onnectivities');
#276=UNCERTAINTY_MEASURE_WITH_UNIT(LENGTH_MEASURE(0.01),#283,
'DISTANCE_ACCURACY_VALUE',
'Maximum model space distance between geometric entities at asserted c
onnectivities');
#277=(
GEOMETRIC_REPRESENTATION_CONTEXT(3)
GLOBAL_UNCERTAINTY_ASSIGNED_CONTEXT((#271))
GLOBAL_UNIT_ASSIGNED_CONTEXT((#283,#285,#286))
REPRESENTATION_CONTEXT('','3D')
);
#278=(
GEOMETRIC_REPRESENTATION_CONTEXT(3)
GLOBAL_UNCERTAINTY_ASSIGNED_CONTEXT((#272))
GLOBAL_UNIT_ASSIGNED_CONTEXT((#283,#285,#286))
REPRESENTATION_CONTEXT('','3D')
);
#279=(
GEOMETRIC_REPRESENTATION_CONTEXT(3)
GLOBAL_UNCERTAINTY_ASSIGNED_CONTEXT((#273))
GLOBAL_UNIT_ASSIGNED_CONTEXT((#283,#285,#286))
REPRESENTATION_CONTEXT('','3D')
);
#280=(
GEOMETRIC_REPRESENTATION_CONTEXT(3)
GLOBAL_UNCERTAINTY_ASSIGNED_CONTEXT((#274))
GLOBAL_UNIT_ASSIGNED_CONTEXT((#283,#285,#286))
REPRESENTATION_CONTEXT('','3D')
);
#281=(
GEOMETRIC_REPRESENTATION_CONTEXT(3)
GLOBAL_UNCERTAINTY_ASSIGNED_CONTEXT((#275))
GLOBAL_UNIT_ASSIGNED_CONTEXT((#283,#285,#286))
REPRESENTATION_CONTEXT('','3D')
);
#282=(
GEOMETRIC_REPRESENTATION_CONTEXT(3)
GLOBAL_UNCERTAINTY_ASSIGNED_CONTEXT((#276))
GLOBAL_UNIT_ASSIGNED_CONTEXT((#283,#285,#286))
REPRESENTATION_CONTEXT('','3D')
);
#283=(
LENGTH_UNIT()
NAMED_UNIT(*)
SI_UNIT(.MILLI.,.METRE.)
);
#284=(
LENGTH_UNIT()
NAMED_UNIT(*)
SI_UNIT($,.METRE.)
);
#285=(
NAMED_UNIT(*)
PLANE_ANGLE_UNIT()
SI_UNIT($,.RADIAN.)
);
#286=(
NAMED_UNIT(*)
SI_UNIT($,.STERADIAN.)
SOLID_ANGLE_UNIT()
);
#287=SHAPE_DEFINITION_REPRESENTATION(#292,#302);
#288=SHAPE_DEFINITION_REPRESENTATION(#293,#303);
#289=SHAPE_DEFINITION_REPRESENTATION(#294,#304);
#290=SHAPE_DEFINITION_REPRESENTATION(#295,#305);
#291=SHAPE_DEFINITION_REPRESENTATION(#296,#306);
#292=PRODUCT_DEFINITION_SHAPE('',$,#308);
#293=PRODUCT_DEFINITION_SHAPE('',$,#309);
#294=PRODUCT_DEFINITION_SHAPE('',$,#310);
#295=PRODUCT_DEFINITION_SHAPE('',$,#311);
#296=PRODUCT_DEFINITION_SHAPE('',$,#312);
#297=PRODUCT_DEFINITION_SHAPE($,$,#26);
#298=PRODUCT_DEFINITION_SHAPE($,$,#27);
#299=PRODUCT_DEFINITION_SHAPE($,$,#28);
#300=PRODUCT_DEFINITION_SHAPE($,$,#29);
#301=PRODUCT_DEFINITION_SHAPE($,$,#30);
#302=SHAPE_REPRESENTATION('',(#166,#186,#187,#188,#189,#190),#277);
#303=SHAPE_REPRESENTATION('',(#167),#278);
#304=SHAPE_REPRESENTATION('',(#171),#279);
#305=SHAPE_REPRESENTATION('',(#175),#280);
#306=SHAPE_REPRESENTATION('',(#179),#281);
#307=PRODUCT_DEFINITION_CONTEXT('part definition',#324,'design');
#308=PRODUCT_DEFINITION('mini ring-ring','mini ring-ring v1',#313,#307);
#309=PRODUCT_DEFINITION('Component1','Component1',#314,#307);
#310=PRODUCT_DEFINITION('Component2','Component2',#315,#307);
#311=PRODUCT_DEFINITION('Component3','Component3',#316,#307);
#312=PRODUCT_DEFINITION('Component4','Component4',#317,#307);
#313=PRODUCT_DEFINITION_FORMATION('',$,#326);
#314=PRODUCT_DEFINITION_FORMATION('',$,#327);
#315=PRODUCT_DEFINITION_FORMATION('',$,#328);
#316=PRODUCT_DEFINITION_FORMATION('',$,#329);
#317=PRODUCT_DEFINITION_FORMATION('',$,#330);
#318=PRODUCT_RELATED_PRODUCT_CATEGORY('mini ring-ring v1',
'mini ring-ring v1',(#326));
#319=PRODUCT_RELATED_PRODUCT_CATEGORY('Component1','Component1',(#327));
#320=PRODUCT_RELATED_PRODUCT_CATEGORY('Component2','Component2',(#328));
#321=PRODUCT_RELATED_PRODUCT_CATEGORY('Component3','Component3',(#329));
#322=PRODUCT_RELATED_PRODUCT_CATEGORY('Component4','Component4',(#330));
#323=APPLICATION_PROTOCOL_DEFINITION('international standard',
'automotive_design',2009,#324);
#324=APPLICATION_CONTEXT(
'Core Data for Automotive Mechanical Design Process');
#325=PRODUCT_CONTEXT('part definition',#324,'mechanical');
#326=PRODUCT('mini ring-ring','mini ring-ring v1',$,(#325));
#327=PRODUCT('Component1','Component1',$,(#325));
#328=PRODUCT('Component2','Component2',$,(#325));
#329=PRODUCT('Component3','Component3',$,(#325));
#330=PRODUCT('Component4','Component4',$,(#325));
#331=PRESENTATION_STYLE_ASSIGNMENT((#332));
#332=SURFACE_STYLE_USAGE(.BOTH.,#333);
#333=SURFACE_SIDE_STYLE('',(#334));
#334=SURFACE_STYLE_FILL_AREA(#335);
#335=FILL_AREA_STYLE('Steel - Satin',(#336));
#336=FILL_AREA_STYLE_COLOUR('Steel - Satin',#337);
#337=COLOUR_RGB('Steel - Satin',0.627450980392157,0.627450980392157,0.627450980392157);
ENDSEC;
END-ISO-10303-21;
