0
SECTION
2
HEADER
9
$INSUNITS
70
4
9
$ACADVER
1
AC1014
9
$HANDSEED
5
FFFF
0
ENDSEC
0
SECTION
2
TABLES
0
TABLE
2
VPORT
5
8
100
AcDbSymbolTable
0
ENDTAB
0
TABLE
2
LTYPE
5
5
100
AcDbSymbolTable
70
2
0
LTYPE
5
14
100
AcDbSymbolTableRecord
100
AcDbLinetypeTableRecord
2
BYBLOCK
70
0
0
LTYPE
5
15
100
AcDbSymbolTableRecord
100
AcDbLinetypeTableRecord
2
BYLAYER
70
0
0
ENDTAB
0
TABLE
2
LAYER
5
2
100
AcDbSymbolTable
70
3
0
LAYER
5
50
100
AcDbSymbolTableRecord
100
AcDbLayerTableRecord
2
0
70
0
6
CONTINUOUS
0
LAYER
5
51
100
AcDbSymbolTableRecord
100
AcDbLayerTableRecord
2
CUTOUTS
70
0
62
1
6
CONTINUOUS
0
LAYER
5
52
100
AcDbSymbolTableRecord
100
AcDbLayerTableRecord
2
PERIMETER
70
0
62
5
6
CONTINUOUS
0
ENDTAB
0
TABLE
2
STYLE
5
3
100
AcDbSymbolTable
70
1
0
STYLE
5
11
100
AcDbSymbolTableRecord
100
AcDbTextStyleTableRecord
2
STANDARD
70
0
0
ENDTAB
0
TABLE
2
VIEW
5
6
100
AcDbSymbolTable
0
ENDTAB
0
TABLE
2
UCS
5
7
100
AcDbSymbolTable
0
ENDTAB
0
TABLE
2
APPID
5
9
100
AcDbSymbolTable
70
1
0
APPID
5
12
100
AcDbSymbolTableRecord
100
AcDbRegAppTableRecord
2
ACAD
70
0
0
ENDTAB
0
TABLE
2
DIMSTYLE
5
A
100
AcDbSymbolTable
0
ENDTAB
0
TABLE
2
BLOCK_RECORD
5
1
100
AcDbSymbolTable
70
2
0
BLOCK_RECORD
5
1F
100
AcDbSymbolTableRecord
100
AcDbBlockTableRecord
2
*MODEL_SPACE
0
BLOCK_RECORD
5
1B
100
AcDbSymbolTableRecord
100
AcDbBlockTableRecord
2
*PAPER_SPACE
0
ENDTAB
0
ENDSEC
0
SECTION
2
BLOCKS
0
BLOCK
5
20
100
AcDbEntity
100
AcDbBlockBegin
2
*MODEL_SPACE
0
ENDBLK
5
21
100
AcDbEntity
100
AcDbBlockEnd
0
BLOCK
5
1C
100
AcDbEntity
100
AcDbBlockBegin
2
*PAPER_SPACE
0
ENDBLK
5
1D
100
AcDbEntity
100
AcDbBlockEnd
0
ENDSEC
0
SECTION
2
ENTITIES
0
CIRCLE
5
100
100
AcDbEntity
8
CUTOUTS
100
AcDbCircle
10
12.5
20
12.5
30
0
40
2.5
210
0
220
0
230
1
0
LINE
5
101
100
AcDbEntity
8
PERIMETER
100
AcDbLine
10
-23.82500000000001
20
9.7699626167013776e-14
30
0
11
-23.825000000000017
21
-25.000000000000004
31
0
0
LINE
5
102
100
AcDbEntity
8
PERIMETER
100
AcDbLine
10
-23.825000000000017
20
-25.000000000000004
30
0
11
-13.700000000000028
21
-25.000000000000004
31
0
0
LINE
5
103
100
AcDbEntity
8
PERIMETER
100
AcDbLine
10
-13.700000000000028
20
-25.000000000000004
30
0
11
-13.700000000000024
21
2.2071233729548112e-12
31
0
0
LINE
5
104
100
AcDbEntity
8
PERIMETER
100
AcDbLine
10
-13.700000000000024
20
2.2071233729548112e-12
30
0
11
-11.300000000000029
21
2.2026824808563106e-12
31
0
0
LINE
5
105
100
AcDbEntity
8
PERIMETER
100
AcDbLine
10
-11.300000000000029
20
2.2026824808563106e-12
30
0
11
-11.300000000000029
21
-25.000000000000004
31
0
0
LINE
5
106
100
AcDbEntity
8
PERIMETER
100
AcDbLine
10
-11.300000000000029
20
-25.000000000000004
30
0
11
-1.2250000000000272
21
-25.000000000000004
31
0
0
LINE
5
107
100
AcDbEntity
8
PERIMETER
100
AcDbLine
10
-1.2250000000000272
20
-25.000000000000004
30
0
11
-1.225000000000025
21
2.1760371282653068e-12
31
0
0
LINE
5
108
100
AcDbEntity
8
PERIMETER
100
AcDbLine
10
-1.225000000000025
20
2.1760371282653068e-12
30
0
11
1.2249999999999694
21
2.1760371282653068e-12
31
0
0
LINE
5
109
100
AcDbEntity
8
PERIMETER
100
AcDbLine
10
1.2249999999999694
20
2.1760371282653068e-12
30
0
11
1.2249999999999694
21
-25.000000000000004
31
0
0
LINE
5
10A
100
AcDbEntity
8
PERIMETER
100
AcDbLine
10
1.2249999999999694
20
-25.000000000000004
30
0
11
11.249999999999968
21
-25.000000000000004
31
0
0
LINE
5
10B
100
AcDbEntity
8
PERIMETER
100
AcDbLine
10
11.249999999999968
20
-25.000000000000004
30
0
11
11.249999999999972
21
2.1893598045608087e-12
31
0
0
LINE
5
10C
100
AcDbEntity
8
PERIMETER
100
AcDbLine
10
11.249999999999972
20
2.1893598045608087e-12
30
0
11
13.749999999999972
21
2.1849189124623081e-12
31
0
0
LINE
5
10D
100
AcDbEntity
8
PERIMETER
100
AcDbLine
10
13.749999999999972
20
2.1849189124623081e-12
30
0
11
13.749999999999968
21
-25.000000000000004
31
0
0
LINE
5
10E
100
AcDbEntity
8
PERIMETER
100
AcDbLine
10
13.749999999999968
20
-25.000000000000004
30
0
11
23.724999999999991
21
-25.000000000000004
31
0
0
LINE
5
10F
100
AcDbEntity
8
PERIMETER
100
AcDbLine
10
23.724999999999991
20
-25.000000000000004
30
0
11
23.724999999999994
21
2.2204460492503131e-14
31
0
0
LINE
5
110
100
AcDbEntity
8
PERIMETER
100
AcDbLine
10
23.724999999999994
20
2.2204460492503131e-14
30
0
11
26.274999999999984
21
1.7763568394002505e-14
31
0
0
LINE
5
111
100
AcDbEntity
8
PERIMETER
100
AcDbLine
10
26.274999999999984
20
1.7763568394002505e-14
30
0
11
26.274999999999991
21
-25.000000000000004
31
0
0
LINE
5
112
100
AcDbEntity
8
PERIMETER
100
AcDbLine
10
26.274999999999991
20
-25.000000000000004
30
0
11
36.199999999999989
21
-25.000000000000004
31
0
0
LINE
5
113
100
AcDbEntity
8
PERIMETER
100
AcDbLine
10
36.199999999999989
20
-25.000000000000004
30
0
11
36.199999999999989
21
-4.4408920985006262e-15
31
0
0
LINE
5
114
100
AcDbEntity
8
PERIMETER
100
AcDbLine
10
36.199999999999989
20
-4.4408920985006262e-15
30
0
11
38.799999999999983
21
-8.8817841970012523e-15
31
0
0
LINE
5
115
100
AcDbEntity
8
PERIMETER
100
AcDbLine
10
38.799999999999983
20
-8.8817841970012523e-15
30
0
11
38.799999999999983
21
-25.000000000000004
31
0
0
LINE
5
116
100
AcDbEntity
8
PERIMETER
100
AcDbLine
10
38.799999999999983
20
-25.000000000000004
30
0
11
48.675000000000004
21
-25.000000000000004
31
0
0
LINE
5
117
100
AcDbEntity
8
PERIMETER
100
AcDbLine
10
48.675000000000004
20
-25.000000000000004
30
0
11
48.675000000000004
21
1.1990408665951691e-13
31
0
0
LINE
5
118
100
AcDbEntity
8
PERIMETER
100
AcDbLine
10
48.675000000000004
20
1.1990408665951691e-13
30
0
11
51.325000000000003
21
1.1546319456101628e-13
31
0
0
LINE
5
119
100
AcDbEntity
8
PERIMETER
100
AcDbLine
10
51.325000000000003
20
1.1546319456101628e-13
30
0
11
51.325000000000003
21
-25.000000000000004
31
0
0
LINE
5
11A
100
AcDbEntity
8
PERIMETER
100
AcDbLine
10
51.325000000000003
20
-25.000000000000004
30
0
11
61.149999999999984
21
-25.000000000000004
31
0
0
LINE
5
11B
100
AcDbEntity
8
PERIMETER
100
AcDbLine
10
61.149999999999984
20
-25.000000000000004
30
0
11
61.149999999999984
21
-8.8817841970012523e-15
31
0
0
LINE
5
11C
100
AcDbEntity
8
PERIMETER
100
AcDbLine
10
61.149999999999984
20
-8.8817841970012523e-15
30
0
11
63.849999999999994
21
-8.8817841970012523e-15
31
0
0
LINE
5
11D
100
AcDbEntity
8
PERIMETER
100
AcDbLine
10
63.849999999999994
20
-8.8817841970012523e-15
30
0
11
63.849999999999994
21
-25.000000000000004
31
0
0
LINE
5
11E
100
AcDbEntity
8
PERIMETER
100
AcDbLine
10
63.849999999999994
20
-25.000000000000004
30
0
11
74.999999999999986
21
-25.000000000000004
31
0
0
LINE
5
11F
100
AcDbEntity
8
PERIMETER
100
AcDbLine
10
74.999999999999986
20
-25.000000000000004
30
0
11
74.999999999999986
21
24.999999999999996
31
0
0
LINE
5
120
100
AcDbEntity
8
PERIMETER
100
AcDbLine
10
74.999999999999986
20
24.999999999999996
30
0
11
-75.000000000000014
21
25
31
0
0
LINE
5
121
100
AcDbEntity
8
PERIMETER
100
AcDbLine
10
-75.000000000000014
20
25
30
0
11
-75.000000000000014
21
-25
31
0
0
LINE
5
122
100
AcDbEntity
8
PERIMETER
100
AcDbLine
10
-75.000000000000014
20
-25
30
0
11
-63.600000000000009
21
-25.000000000000004
31
0
0
LINE
5
123
100
AcDbEntity
8
PERIMETER
100
AcDbLine
10
-63.600000000000009
20
-25.000000000000004
30
0
11
-63.600000000000009
21
-8.8817841970012523e-15
31
0
0
LINE
5
124
100
AcDbEntity
8
PERIMETER
100
AcDbLine
10
-63.600000000000009
20
-8.8817841970012523e-15
30
0
11
-61.400000000000006
21
-8.8817841970012523e-15
31
0
0
LINE
5
125
100
AcDbEntity
8
PERIMETER
100
AcDbLine
10
-61.400000000000006
20
-8.8817841970012523e-15
30
0
11
-61.400000000000006
21
-25.000000000000004
31
0
0
LINE
5
126
100
AcDbEntity
8
PERIMETER
100
AcDbLine
10
-61.400000000000006
20
-25.000000000000004
30
0
11
-51.125000000000014
21
-25.000000000000004
31
0
0
LINE
5
127
100
AcDbEntity
8
PERIMETER
100
AcDbLine
10
-51.125000000000014
20
-25.000000000000004
30
0
11
-51.125000000000014
21
-1.6431300764452317e-13
31
0
0
LINE
5
128
100
AcDbEntity
8
PERIMETER
100
AcDbLine
10
-51.125000000000014
20
-1.6431300764452317e-13
30
0
11
-48.875000000000014
21
-1.6875389974302379e-13
31
0
0
LINE
5
129
100
AcDbEntity
8
PERIMETER
100
AcDbLine
10
-48.875000000000014
20
-1.6875389974302379e-13
30
0
11
-48.875000000000014
21
-25.000000000000004
31
0
0
LINE
5
12A
100
AcDbEntity
8
PERIMETER
100
AcDbLine
10
-48.875000000000014
20
-25.000000000000004
30
0
11
-38.650000000000013
21
-25.000000000000004
31
0
0
LINE
5
12B
100
AcDbEntity
8
PERIMETER
100
AcDbLine
10
-38.650000000000013
20
-25.000000000000004
30
0
11
-38.650000000000006
21
6.6613381477509392e-14
31
0
0
LINE
5
12C
100
AcDbEntity
8
PERIMETER
100
AcDbLine
10
-38.650000000000006
20
6.6613381477509392e-14
30
0
11
-36.350000000000009
21
6.2172489379008766e-14
31
0
0
LINE
5
12D
100
AcDbEntity
8
PERIMETER
100
AcDbLine
10
-36.350000000000009
20
6.2172489379008766e-14
30
0
11
-36.350000000000009
21
-25.000000000000004
31
0
0
LINE
5
12E
100
AcDbEntity
8
PERIMETER
100
AcDbLine
10
-36.350000000000009
20
-25.000000000000004
30
0
11
-26.175000000000011
21
-25.000000000000004
31
0
0
LINE
5
12F
100
AcDbEntity
8
PERIMETER
100
AcDbLine
10
-26.175000000000011
20
-25.000000000000004
30
0
11
-26.175000000000011
21
9.7699626167013776e-14
31
0
0
LINE
5
130
100
AcDbEntity
8
PERIMETER
100
AcDbLine
10
-26.175000000000011
20
9.7699626167013776e-14
30
0
11
-23.82500000000001
21
9.7699626167013776e-14
31
0
0
ENDSEC
0
SECTION
2
OBJECTS
0
DICTIONARY
5
C
100
AcDbDictionary
3
ACAD_GROUP
350
D
3
ACAD_MLINESTYLE
350
17
0
DICTIONARY
5
D
100
AcDbDictionary
0
DICTIONARY
5
1A
330
C
100
AcDbDictionary
0
DICTIONARY
5
17
100
AcDbDictionary
0
ENDSEC
0
EOF
