  0
SECTION
  2
HEADER
  9
$ACADVER
  1
AC1024
  9
$ACADMAINTVER
 70
     6
  9
$DWGCODEPAGE
  3
ANSI_1252
  9
$INSBASE
 10
0.0
 20
0.0
 30
0.0
  9
$EXTMIN
 10
1.000000000000000E+20
 20
1.000000000000000E+20
 30
1.000000000000000E+20
  9
$EXTMAX
 10
-1.000000000000000E+20
 20
-1.000000000000000E+20
 30
-1.000000000000000E+20
  9
$LIMMIN
 10
0.0
 20
0.0
  9
$LIMMAX
 10
12.0
 20
9.0
  9
$ORTHOMODE
 70
     0
  9
$REGENMODE
 70
     1
  9
$FILLMODE
 70
     1
  9
$QTEXTMODE
 70
     0
  9
$MIRRTEXT
 70
     1
  9
$LTSCALE
 40
1.0
  9
$ATTMODE
 70
     1
  9
$TEXTSIZE
 40
0.2
  9
$TRACEWID
 40
0.05
  9
$TEXTSTYLE
  7
Standard
  9
$CLAYER
  8
0
  9
$CELTYPE
  6
ByLayer
  9
$CECOLOR
 62
   256
  9
$CELTSCALE
 40
1.0
  9
$DISPSILH
 70
     0
  9
$DIMSCALE
 40
1.0
  9
$DIMASZ
 40
0.18
  9
$DIMEXO
 40
0.0625
  9
$DIMDLI
 40
0.38
  9
$DIMRND
 40
0.0
  9
$DIMDLE
 40
0.0
  9
$DIMEXE
 40
0.18
  9
$DIMTP
 40
0.0
  9
$DIMTM
 40
0.0
  9
$DIMTXT
 40
0.18
  9
$DIMCEN
 40
0.09
  9
$DIMTSZ
 40
0.0
  9
$DIMTOL
 70
     0
  9
$DIMLIM
 70
     0
  9
$DIMTIH
 70
     1
  9
$DIMTOH
 70
     1
  9
$DIMSE1
 70
     0
  9
$DIMSE2
 70
     0
  9
$DIMTAD
 70
     0
  9
$DIMZIN
 70
     0
  9
$DIMBLK
  1

  9
$DIMASO
 70
     1
  9
$DIMSHO
 70
     1
  9
$DIMPOST
  1

  9
$DIMAPOST
  1

  9
$DIMALT
 70
     0
  9
$DIMALTD
 70
     2
  9
$DIMALTF
 40
25.4
  9
$DIMLFAC
 40
1.0
  9
$DIMTOFL
 70
     0
  9
$DIMTVP
 40
0.0
  9
$DIMTIX
 70
     0
  9
$DIMSOXD
 70
     0
  9
$DIMSAH
 70
     0
  9
$DIMBLK1
  1

  9
$DIMBLK2
  1

  9
$DIMSTYLE
  2
Standard
  9
$DIMCLRD
 70
     0
  9
$DIMCLRE
 70
     0
  9
$DIMCLRT
 70
     0
  9
$DIMTFAC
 40
1.0
  9
$DIMGAP
 40
0.09
  9
$DIMJUST
 70
     0
  9
$DIMSD1
 70
     0
  9
$DIMSD2
 70
     0
  9
$DIMTOLJ
 70
     1
  9
$DIMTZIN
 70
     0
  9
$DIMALTZ
 70
     0
  9
$DIMALTTZ
 70
     0
  9
$DIMUPT
 70
     0
  9
$DIMDEC
 70
     4
  9
$DIMTDEC
 70
     4
  9
$DIMALTU
 70
     2
  9
$DIMALTTD
 70
     2
  9
$DIMTXSTY
  7
Standard
  9
$DIMAUNIT
 70
     0
  9
$DIMADEC
 70
     0
  9
$DIMALTRND
 40
0.0
  9
$DIMAZIN
 70
     0
  9
$DIMDSEP
 70
    46
  9
$DIMATFIT
 70
     3
  9
$DIMFRAC
 70
     0
  9
$DIMLDRBLK
  1

  9
$DIMLUNIT
 70
     2
  9
$DIMLWD
 70
    -2
  9
$DIMLWE
 70
    -2
  9
$DIMTMOVE
 70
     0
  9
$DIMFXL
 40
1.0
  9
$DIMFXLON
 70
     0
  9
$DIMJOGANG
 40
0.7853981633974483
  9
$DIMTFILL
 70
     0
  9
$DIMTFILLCLR
 70
     0
  9
$DIMARCSYM
 70
     0
  9
$DIMLTYPE
  6

  9
$DIMLTEX1
  6

  9
$DIMLTEX2
  6

  9
$DIMTXTDIRECTION
 70
     0
  9
$LUNITS
 70
     2
  9
$LUPREC
 70
     4
  9
$SKETCHINC
 40
0.1
  9
$FILLETRAD
 40
0.5
  9
$AUNITS
 70
     0
  9
$AUPREC
 70
     0
  9
$MENU
  1
.
  9
$ELEVATION
 40
0.0
  9
$PELEVATION
 40
0.0
  9
$THICKNESS
 40
0.0
  9
$LIMCHECK
 70
     0
  9
$CHAMFERA
 40
0.5
  9
$CHAMFERB
 40
0.5
  9
$CHAMFERC
 40
1.0
  9
$CHAMFERD
 40
0.0
  9
$SKPOLY
 70
     0
  9
$TDCREATE
 40
2459659.472424155
  9
$TDUCREATE
 40
2459659.680757489
  9
$TDUPDATE
 40
2459659.47242419
  9
$TDUUPDATE
 40
2459659.680757523
  9
$TDINDWG
 40
0.0000000116
  9
$TDUSRTIMER
 40
0.0000000116
  9
$USRTIMER
 70
     1
  9
$ANGBASE
 50
0.0
  9
$ANGDIR
 70
     0
  9
$PDMODE
 70
     0
  9
$PDSIZE
 40
0.0
  9
$PLINEWID
 40
0.0
  9
$SPLFRAME
 70
     0
  9
$SPLINETYPE
 70
     6
  9
$SPLINESEGS
 70
     8
  9
$HANDSEED
  5
5A
  9
$SURFTAB1
 70
     6
  9
$SURFTAB2
 70
     6
  9
$SURFTYPE
 70
     6
  9
$SURFU
 70
     6
  9
$SURFV
 70
     6
  9
$UCSBASE
  2

  9
$UCSNAME
  2

  9
$UCSORG
 10
0.0
 20
0.0
 30
0.0
  9
$UCSXDIR
 10
1.0
 20
0.0
 30
0.0
  9
$UCSYDIR
 10
0.0
 20
1.0
 30
0.0
  9
$UCSORTHOREF
  2

  9
$UCSORTHOVIEW
 70
     0
  9
$UCSORGTOP
 10
0.0
 20
0.0
 30
0.0
  9
$UCSORGBOTTOM
 10
0.0
 20
0.0
 30
0.0
  9
$UCSORGLEFT
 10
0.0
 20
0.0
 30
0.0
  9
$UCSORGRIGHT
 10
0.0
 20
0.0
 30
0.0
  9
$UCSORGFRONT
 10
0.0
 20
0.0
 30
0.0
  9
$UCSORGBACK
 10
0.0
 20
0.0
 30
0.0
  9
$PUCSBASE
  2

  9
$PUCSNAME
  2

  9
$PUCSORG
 10
0.0
 20
0.0
 30
0.0
  9
$PUCSXDIR
 10
1.0
 20
0.0
 30
0.0
  9
$PUCSYDIR
 10
0.0
 20
1.0
 30
0.0
  9
$PUCSORTHOREF
  2

  9
$PUCSORTHOVIEW
 70
     0
  9
$PUCSORGTOP
 10
0.0
 20
0.0
 30
0.0
  9
$PUCSORGBOTTOM
 10
0.0
 20
0.0
 30
0.0
  9
$PUCSORGLEFT
 10
0.0
 20
0.0
 30
0.0
  9
$PUCSORGRIGHT
 10
0.0
 20
0.0
 30
0.0
  9
$PUCSORGFRONT
 10
0.0
 20
0.0
 30
0.0
  9
$PUCSORGBACK
 10
0.0
 20
0.0
 30
0.0
  9
$USERI1
 70
     0
  9
$USERI2
 70
     0
  9
$USERI3
 70
     0
  9
$USERI4
 70
     0
  9
$USERI5
 70
     0
  9
$USERR1
 40
0.0
  9
$USERR2
 40
0.0
  9
$USERR3
 40
0.0
  9
$USERR4
 40
0.0
  9
$USERR5
 40
0.0
  9
$WORLDVIEW
 70
     1
  9
$SHADEDGE
 70
     3
  9
$SHADEDIF
 70
    70
  9
$TILEMODE
 70
     1
  9
$MAXACTVP
 70
    64
  9
$PINSBASE
 10
0.0
 20
0.0
 30
0.0
  9
$PLIMCHECK
 70
     0
  9
$PEXTMIN
 10
1.000000000000000E+20
 20
1.000000000000000E+20
 30
1.000000000000000E+20
  9
$PEXTMAX
 10
-1.000000000000000E+20
 20
-1.000000000000000E+20
 30
-1.000000000000000E+20
  9
$PLIMMIN
 10
0.0
 20
0.0
  9
$PLIMMAX
 10
12.0
 20
9.0
  9
$UNITMODE
 70
     0
  9
$VISRETAIN
 70
     1
  9
$PLINEGEN
 70
     0
  9
$PSLTSCALE
 70
     1
  9
$TREEDEPTH
 70
  3020
  9
$CMLSTYLE
  2
Standard
  9
$CMLJUST
 70
     0
  9
$CMLSCALE
 40
1.0
  9
$PROXYGRAPHICS
 70
     1
  9
$MEASUREMENT
 70
     0
  9
$CELWEIGHT
370
    -1
  9
$ENDCAPS
280
     0
  9
$JOINSTYLE
280
     0
  9
$LWDISPLAY
290
     1
  9
$INSUNITS
 70
     1
  9
$HYPERLINKBASE
  1

  9
$STYLESHEET
  1

  9
$XEDIT
290
     1
  9
$CEPSNTYPE
380
     0
  9
$PSTYLEMODE
290
     1
  9
$FINGERPRINTGUID
  2
{2F86B86D-9C13-4A73-9356-E19FA97E5267}
  9
$VERSIONGUID
  2
{FAEB1C32-E019-11D5-929B-00C0DF256EC4}
  9
$EXTNAMES
290
     1
  9
$PSVPSCALE
 40
0.0
  9
$OLESTARTUP
290
     0
  9
$SORTENTS
280
   127
  9
$INDEXCTL
280
     0
  9
$HIDETEXT
280
     1
  9
$XCLIPFRAME
280
     2
  9
$HALOGAP
280
     0
  9
$OBSCOLOR
 70
   257
  9
$OBSLTYPE
280
     0
  9
$INTERSECTIONDISPLAY
280
     0
  9
$INTERSECTIONCOLOR
 70
   257
  9
$DIMASSOC
280
     2
  9
$PROJECTNAME
  1

  9
$CAMERADISPLAY
290
     0
  9
$LENSLENGTH
 40
50.0
  9
$CAMERAHEIGHT
 40
0.0
  9
$STEPSPERSEC
 40
2.0
  9
$STEPSIZE
 40
6.0
  9
$3DDWFPREC
 40
2.0
  9
$PSOLWIDTH
 40
0.25
  9
$PSOLHEIGHT
 40
4.0
  9
$LOFTANG1
 40
1.570796326794897
  9
$LOFTANG2
 40
1.570796326794897
  9
$LOFTMAG1
 40
0.0
  9
$LOFTMAG2
 40
0.0
  9
$LOFTPARAM
 70
     7
  9
$LOFTNORMALS
280
     1
  9
$LATITUDE
 40
37.795
  9
$LONGITUDE
 40
-122.394
  9
$NORTHDIRECTION
 40
0.0
  9
$TIMEZONE
 70
 -8000
  9
$LIGHTGLYPHDISPLAY
280
     1
  9
$TILEMODELIGHTSYNCH
280
     1
  9
$CMATERIAL
347
3C
  9
$SOLIDHIST
280
     1
  9
$SHOWHIST
280
     1
  9
$DWFFRAME
280
     2
  9
$DGNFRAME
280
     2
  9
$REALWORLDSCALE
290
     1
  9
$INTERFERECOLOR
 62
   256
  9
$CSHADOW
280
     0
  9
$SHADOWPLANELOCATION
 40
0.0
  0
ENDSEC
  0
SECTION
  2
CLASSES
  0
CLASS
  1
ACDBDICTIONARYWDFLT
  2
AcDbDictionaryWithDefault
  3
ObjectDBX Classes
 90
        0
 91
        4
280
     0
281
     0
  0
CLASS
  1
VISUALSTYLE
  2
AcDbVisualStyle
  3
ObjectDBX Classes
 90
     4095
 91
        4
280
     0
281
     0
  0
CLASS
  1
MATERIAL
  2
AcDbMaterial
  3
ObjectDBX Classes
 90
     1153
 91
        4
280
     0
281
     0
  0
CLASS
  1
SUN
  2
AcDbSun
  3
SCENEOE
 90
     1024
 91
        4
280
     0
281
     0
  0
ENDSEC
  0
SECTION
  2
TABLES
  0
TABLE
  2
VPORT
  5
8
330
0
100
AcDbSymbolTable
 70
     1
  0
VPORT
  5
29
330
8
100
AcDbSymbolTableRecord
100
AcDbViewportTableRecord
  2
*Active
 70
     0
 10
0.0
 20
0.0
 11
1.0
 21
1.0
 12
0.0
 22
0.0
 13
0.0
 23
0.0
 14
0.5
 24
0.5
 15
0.5
 25
0.5
 16
0.0
 26
0.0
 36
1.0
 17
499.9999998749932
 27
-349.9999999124936
 37
0.0
 40
699.9999998249872
 41
1.428571428571435
 42
50.0
 43
0.0
 44
0.0
 50
0.0
 51
0.0
 71
     0
 72
   100
 73
     1
 74
     3
 75
     0
 76
     0
 77
     0
 78
     0
281
     0
 65
     1
110
0.0
120
0.0
130
0.0
111
1.0
121
0.0
131
0.0
112
0.0
122
1.0
132
0.0
 79
     0
146
0.0
 60
     3
 61
     5
292
     1
282
     1
141
0.0
142
0.0
 63
   250
361
3F
  0
ENDTAB
  0
TABLE
  2
LTYPE
  5
5
330
0
100
AcDbSymbolTable
 70
     1
  0
LTYPE
  5
14
330
5
100
AcDbSymbolTableRecord
100
AcDbLinetypeTableRecord
  2
ByBlock
 70
     0
  3

 72
    65
 73
     0
 40
0.0
  0
LTYPE
  5
15
330
5
100
AcDbSymbolTableRecord
100
AcDbLinetypeTableRecord
  2
ByLayer
 70
     0
  3

 72
    65
 73
     0
 40
0.0
  0
LTYPE
  5
16
330
5
100
AcDbSymbolTableRecord
100
AcDbLinetypeTableRecord
  2
Continuous
 70
     0
  3
Solid line
 72
    65
 73
     0
 40
0.0
  0
ENDTAB
  0
TABLE
  2
LAYER
  5
2
330
0
100
AcDbSymbolTable
 70
     2
  0
LAYER
  5
10
330
2
100
AcDbSymbolTableRecord
100
AcDbLayerTableRecord
  2
0
 70
     0
 62
     7
  6
Continuous
370
    -3
390
F
347
3E
  0
LAYER
  5
40
330
2
100
AcDbSymbolTableRecord
100
AcDbLayerTableRecord
  2
Capa 1
 70
     0
 62
     7
  6
Continuous
370
    -3
390
F
347
3E
  0
ENDTAB
  0
TABLE
  2
STYLE
  5
3
330
0
100
AcDbSymbolTable
 70
     1
  0
STYLE
  5
11
330
3
100
AcDbSymbolTableRecord
100
AcDbTextStyleTableRecord
  2
Standard
 70
     0
 40
0.0
 41
1.0
 50
0.0
 71
     0
 42
0.2
  3
txt
  4

  0
ENDTAB
  0
TABLE
  2
VIEW
  5
6
330
0
100
AcDbSymbolTable
 70
     0
  0
ENDTAB
  0
TABLE
  2
UCS
  5
7
330
0
100
AcDbSymbolTable
 70
     0
  0
ENDTAB
  0
TABLE
  2
APPID
  5
9
330
0
100
AcDbSymbolTable
 70
     1
  0
APPID
  5
12
330
9
100
AcDbSymbolTableRecord
100
AcDbRegAppTableRecord
  2
ACAD
 70
     0
  0
ENDTAB
  0
TABLE
  2
DIMSTYLE
  5
A
330
0
100
AcDbSymbolTable
 70
     1
100
AcDbDimStyleTable
  0
DIMSTYLE
105
27
330
A
100
AcDbSymbolTableRecord
100
AcDbDimStyleTableRecord
  2
Standard
 70
     0
178
     0
340
11
  0
ENDTAB
  0
TABLE
  2
BLOCK_RECORD
  5
1
330
0
100
AcDbSymbolTable
 70
     1
  0
BLOCK_RECORD
  5
1F
330
1
100
AcDbSymbolTableRecord
100
AcDbBlockTableRecord
  2
*Model_Space
340
22
 70
     0
280
     1
281
     0
  0
BLOCK_RECORD
  5
1B
330
1
100
AcDbSymbolTableRecord
100
AcDbBlockTableRecord
  2
*Paper_Space
340
1E
 70
     0
280
     1
281
     0
  0
BLOCK_RECORD
  5
23
330
1
100
AcDbSymbolTableRecord
100
AcDbBlockTableRecord
  2
*Paper_Space0
340
26
 70
     0
280
     1
281
     0
  0
ENDTAB
  0
ENDSEC
  0
SECTION
  2
BLOCKS
  0
BLOCK
  5
20
330
1F
100
AcDbEntity
  8
0
100
AcDbBlockBegin
  2
*Model_Space
 70
     0
 10
0.0
 20
0.0
 30
0.0
  3
*Model_Space
  1

  0
ENDBLK
  5
21
330
1F
100
AcDbEntity
  8
0
100
AcDbBlockEnd
  0
BLOCK
  5
1C
330
1B
100
AcDbEntity
 67
     1
  8
0
100
AcDbBlockBegin
  2
*Paper_Space
 70
     0
 10
0.0
 20
0.0
 30
0.0
  3
*Paper_Space
  1

  0
ENDBLK
  5
1D
330
1B
100
AcDbEntity
 67
     1
  8
0
100
AcDbBlockEnd
  0
BLOCK
  5
24
330
23
100
AcDbEntity
  8
0
100
AcDbBlockBegin
  2
*Paper_Space0
 70
     0
 10
0.0
 20
0.0
 30
0.0
  3
*Paper_Space0
  1

  0
ENDBLK
  5
25
330
23
100
AcDbEntity
  8
0
100
AcDbBlockEnd
  0
ENDSEC
  0
SECTION
  2
ENTITIES
  0
SPLINE
  5
41
330
1F
100
AcDbEntity
  8
Capa 1
 62
     1
420
 16711680
370
    35
100
AcDbSpline
210
0.0
220
0.0
230
1.0
 70
    11
 71
     3
 72
    59
 73
    55
 74
     0
 42
0.0000000001
 43
0.0000000001
 12
1.0
 22
0.0
 32
0.0
 13
1.0
 23
0.0
 33
0.0
 40
0.0
 40
0.0
 40
0.0
 40
0.0
 40
1.0
 40
1.0
 40
1.0
 40
2.0
 40
2.0
 40
2.0
 40
3.0
 40
3.0
 40
3.0
 40
4.0
 40
4.0
 40
4.0
 40
5.0
 40
5.0
 40
5.0
 40
6.0
 40
6.0
 40
6.0
 40
7.0
 40
7.0
 40
7.0
 40
8.0
 40
8.0
 40
8.0
 40
9.0
 40
9.0
 40
9.0
 40
10.0
 40
10.0
 40
10.0
 40
11.0
 40
11.0
 40
11.0
 40
12.0
 40
12.0
 40
12.0
 40
13.0
 40
13.0
 40
13.0
 40
14.0
 40
14.0
 40
14.0
 40
15.0
 40
15.0
 40
15.0
 40
16.0
 40
16.0
 40
16.0
 40
17.0
 40
17.0
 40
17.0
 40
18.0
 40
18.0
 40
18.0
 40
18.0
 10
451.370726069883
 20
-333.083953943693
 30
0.0
 10
442.3552556945327
 20
-371.6866148973147
 30
0.0
 10
451.1722885699326
 20
-405.9105379573351
 30
0.0
 10
451.1722885699326
 20
-405.9105379573351
 30
0.0
 10
451.1722885699326
 20
-405.9105379573351
 30
0.0
 10
475.5801010638307
 20
-405.9105379573351
 30
0.0
 10
475.5801010638307
 20
-405.9105379573351
 30
0.0
 10
474.2946928745914
 20
-402.5740491072558
 30
0.0
 10
473.0333142263597
 20
-399.32523793728
 30
0.0
 10
471.8134059150328
 20
-396.1610038614633
 30
0.0
 10
471.8134059150328
 20
-396.1610038614633
 30
0.0
 10
459.4840981924207
 20
-396.1610038614633
 30
0.0
 10
459.4840981924207
 20
-396.1610038614633
 30
0.0
 10
459.4840981924207
 20
-396.1610038614633
 30
0.0
 10
459.4840981924207
 20
-392.3709681907547
 30
0.0
 10
459.4840981924207
 20
-392.3709681907547
 30
0.0
 10
459.4840981924207
 20
-392.3709681907547
 30
0.0
 10
470.3581114546781
 20
-392.3709681907547
 30
0.0
 10
470.3581114546781
 20
-392.3709681907547
 30
0.0
 10
468.4022446203127
 20
-387.2530204652527
 30
0.0
 10
466.5822868028442
 20
-382.3684779588803
 30
0.0
 10
464.9821260773309
 20
-377.7151013595643
 30
0.0
 10
464.9821260773309
 20
-377.7151013595643
 30
0.0
 10
455.5276213460781
 20
-377.7151013595643
 30
0.0
 10
455.5276213460781
 20
-377.7151013595643
 30
0.0
 10
455.5276213460781
 20
-377.7151013595643
 30
0.0
 10
455.5276213460781
 20
-373.9251518162409
 30
0.0
 10
455.5276213460781
 20
-373.9251518162409
 30
0.0
 10
455.5276213460781
 20
-373.9251518162409
 30
0.0
 10
463.712737582098
 20
-373.9251518162409
 30
0.0
 10
463.712737582098
 20
-373.9251518162409
 30
0.0
 10
462.214853128804
 20
-369.3208678275936
 30
0.0
 10
460.9706999579986
 20
-364.9557165293116
 30
0.0
 10
460.0648551638486
 20
-360.8241427049329
 30
0.0
 10
460.0648551638486
 20
-360.8241427049329
 30
0.0
 10
453.5456148497212
 20
-360.8241427049329
 30
0.0
 10
453.5456148497212
 20
-360.8241427049329
 30
0.0
 10
453.5456148497212
 20
-360.8241427049329
 30
0.0
 10
453.5456148497212
 20
-357.0341285660685
 30
0.0
 10
453.5456148497212
 20
-357.0341285660685
 30
0.0
 10
453.5456148497212
 20
-357.0341285660685
 30
0.0
 10
459.3197240740816
 20
-357.0341285660685
 30
0.0
 10
459.3197240740816
 20
-357.0341285660685
 30
0.0
 10
458.9717263663788
 20
-355.0103287551066
 30
0.0
 10
458.7164017272253
 20
-353.0454185450943
 30
0.0
 10
458.5697698506353
 20
-351.1417664391785
 30
0.0
 10
458.0496465597517
 20
-344.3895300110163
 30
0.0
 10
458.2462753845704
 20
-338.3933628507858
 30
0.0
 10
458.8786657245806
 20
-333.1287401850013
 30
0.0
 10
456.4332077580725
 20
-332.8053103144766
 30
0.0
 10
454.0049322052941
 20
-332.4735906829407
 30
0.0
 10
451.5949156585876
 20
-332.1334951630062
 30
0.0
 10
451.5201570865577
 20
-332.4492812279228
 30
0.0
 10
451.4453554508313
 20
-332.7644644011297
 30
0.0
 10
451.370726069883
 20
-333.083953943693
 30
0.0
  0
SPLINE
  5
42
330
1F
100
AcDbEntity
  8
Capa 1
 62
     1
420
 16711680
370
    35
100
AcDbSpline
210
0.0
220
0.0
230
1.0
 70
    11
 71
     3
 72
    56
 73
    52
 74
     0
 42
0.0000000001
 43
0.0000000001
 12
1.0
 22
0.0
 32
0.0
 13
1.0
 23
0.0
 33
0.0
 40
0.0
 40
0.0
 40
0.0
 40
0.0
 40
1.0
 40
1.0
 40
1.0
 40
2.0
 40
2.0
 40
2.0
 40
3.0
 40
3.0
 40
3.0
 40
4.0
 40
4.0
 40
4.0
 40
5.0
 40
5.0
 40
5.0
 40
6.0
 40
6.0
 40
6.0
 40
7.0
 40
7.0
 40
7.0
 40
8.0
 40
8.0
 40
8.0
 40
9.0
 40
9.0
 40
9.0
 40
10.0
 40
10.0
 40
10.0
 40
11.0
 40
11.0
 40
11.0
 40
12.0
 40
12.0
 40
12.0
 40
13.0
 40
13.0
 40
13.0
 40
14.0
 40
14.0
 40
14.0
 40
15.0
 40
15.0
 40
15.0
 40
16.0
 40
16.0
 40
16.0
 40
17.0
 40
17.0
 40
17.0
 40
17.0
 10
479.4406750646016
 20
-405.9105379573351
 30
0.0
 10
479.4406750646016
 20
-405.9105379573351
 30
0.0
 10
503.8484875584997
 20
-405.9105379573351
 30
0.0
 10
503.8484875584997
 20
-405.9105379573351
 30
0.0
 10
502.5630793692601
 20
-402.5740491072558
 30
0.0
 10
501.3017007210287
 20
-399.32523793728
 30
0.0
 10
500.0817924097018
 20
-396.1610038614633
 30
0.0
 10
500.0817924097018
 20
-396.1610038614633
 30
0.0
 10
487.7524846870897
 20
-396.1610038614633
 30
0.0
 10
487.7524846870897
 20
-396.1610038614633
 30
0.0
 10
487.7524846870897
 20
-396.1610038614633
 30
0.0
 10
487.7524846870897
 20
-392.3709681907547
 30
0.0
 10
487.7524846870897
 20
-392.3709681907547
 30
0.0
 10
487.7524846870897
 20
-392.3709681907547
 30
0.0
 10
498.6264979493471
 20
-392.3709681907547
 30
0.0
 10
498.6264979493471
 20
-392.3709681907547
 30
0.0
 10
496.6706311149817
 20
-387.2530204652527
 30
0.0
 10
494.8506732975133
 20
-382.3684779588803
 30
0.0
 10
493.2505125719999
 20
-377.7151013595643
 30
0.0
 10
493.2505125719999
 20
-377.7151013595643
 30
0.0
 10
483.7960078407471
 20
-377.7151013595643
 30
0.0
 10
483.7960078407471
 20
-377.7151013595643
 30
0.0
 10
483.7960078407471
 20
-377.7151013595643
 30
0.0
 10
483.7960078407471
 20
-373.9251518162409
 30
0.0
 10
483.7960078407471
 20
-373.9251518162409
 30
0.0
 10
483.7960078407471
 20
-373.9251518162409
 30
0.0
 10
491.981124076767
 20
-373.9251518162409
 30
0.0
 10
491.981124076767
 20
-373.9251518162409
 30
0.0
 10
490.483239623473
 20
-369.3208678275936
 30
0.0
 10
489.2390864526676
 20
-364.9557165293116
 30
0.0
 10
488.3332416585176
 20
-360.8241427049329
 30
0.0
 10
488.3332416585176
 20
-360.8241427049329
 30
0.0
 10
481.8140013443902
 20
-360.8241427049329
 30
0.0
 10
481.8140013443902
 20
-360.8241427049329
 30
0.0
 10
481.8140013443902
 20
-360.8241427049329
 30
0.0
 10
481.8140013443902
 20
-357.0341285660685
 30
0.0
 10
481.8140013443902
 20
-357.0341285660685
 30
0.0
 10
481.8140013443902
 20
-357.0341285660685
 30
0.0
 10
487.5881105687507
 20
-357.0341285660685
 30
0.0
 10
487.5881105687507
 20
-357.0341285660685
 30
0.0
 10
487.2401128610478
 20
-355.0103287551066
 30
0.0
 10
486.9847882218943
 20
-353.0454185450943
 30
0.0
 10
486.8381563453044
 20
-351.1417664391785
 30
0.0
 10
486.4221610654604
 20
-345.7409763743395
 30
0.0
 10
486.4650525042518
 20
-340.8242437570249
 30
0.0
 10
486.8218782691385
 20
-336.3775298231322
 30
0.0
 10
484.2266017127108
 20
-336.1157025662532
 30
0.0
 10
481.648464506324
 20
-335.8441429146284
 30
0.0
 10
479.0855718474614
 20
-335.5642504382986
 30
0.0
 10
471.0013107817742
 20
-373.1402298736197
 30
0.0
 10
479.4406750646016
 20
-405.9105379573351
 30
0.0
 10
479.4406750646016
 20
-405.9105379573351
 30
0.0
  0
SPLINE
  5
43
330
1F
100
AcDbEntity
  8
Capa 1
 62
     1
420
 16711680
370
    35
100
AcDbSpline
210
0.0
220
0.0
230
1.0
 70
    11
 71
     3
 72
    56
 73
    52
 74
     0
 42
0.0000000001
 43
0.0000000001
 12
1.0
 22
0.0
 32
0.0
 13
1.0
 23
0.0
 33
0.0
 40
0.0
 40
0.0
 40
0.0
 40
0.0
 40
1.0
 40
1.0
 40
1.0
 40
2.0
 40
2.0
 40
2.0
 40
3.0
 40
3.0
 40
3.0
 40
4.0
 40
4.0
 40
4.0
 40
5.0
 40
5.0
 40
5.0
 40
6.0
 40
6.0
 40
6.0
 40
7.0
 40
7.0
 40
7.0
 40
8.0
 40
8.0
 40
8.0
 40
9.0
 40
9.0
 40
9.0
 40
10.0
 40
10.0
 40
10.0
 40
11.0
 40
11.0
 40
11.0
 40
12.0
 40
12.0
 40
12.0
 40
13.0
 40
13.0
 40
13.0
 40
14.0
 40
14.0
 40
14.0
 40
15.0
 40
15.0
 40
15.0
 40
16.0
 40
16.0
 40
16.0
 40
17.0
 40
17.0
 40
17.0
 40
17.0
 10
507.7090615592707
 20
-406.157809685787
 30
0.0
 10
507.7090615592707
 20
-406.157809685787
 30
0.0
 10
532.1168740531688
 20
-406.157809685787
 30
0.0
 10
532.1168740531688
 20
-406.157809685787
 30
0.0
 10
530.8314228002369
 20
-402.8213208357116
 30
0.0
 10
529.5700441520048
 20
-399.5725096657319
 30
0.0
 10
528.3501789043709
 20
-396.408275589919
 30
0.0
 10
528.3501789043709
 20
-396.408275589919
 30
0.0
 10
516.0208711817587
 20
-396.408275589919
 30
0.0
 10
516.0208711817587
 20
-396.408275589919
 30
0.0
 10
516.0208711817587
 20
-396.408275589919
 30
0.0
 10
516.0208711817587
 20
-392.6182829828995
 30
0.0
 10
516.0208711817587
 20
-392.6182829828995
 30
0.0
 10
516.0208711817587
 20
-392.6182829828995
 30
0.0
 10
526.894884444016
 20
-392.6182829828995
 30
0.0
 10
526.894884444016
 20
-392.6182829828995
 30
0.0
 10
524.9390176096507
 20
-387.5003352574008
 30
0.0
 10
523.1190597921823
 20
-382.6157927510251
 30
0.0
 10
521.518899066669
 20
-377.9624161517123
 30
0.0
 10
521.518899066669
 20
-377.9624161517123
 30
0.0
 10
512.0643512717235
 20
-377.9624161517123
 30
0.0
 10
512.0643512717235
 20
-377.9624161517123
 30
0.0
 10
512.0643512717235
 20
-377.9624161517123
 30
0.0
 10
512.0643512717235
 20
-374.1724235446967
 30
0.0
 10
512.0643512717235
 20
-374.1724235446967
 30
0.0
 10
512.0643512717235
 20
-374.1724235446967
 30
0.0
 10
520.2494675077434
 20
-374.1724235446967
 30
0.0
 10
520.2494675077434
 20
-374.1724235446967
 30
0.0
 10
518.751583054449
 20
-369.5681395560455
 30
0.0
 10
517.507429883644
 20
-365.2030313214597
 30
0.0
 10
516.6016281531867
 20
-361.0714359652328
 30
0.0
 10
516.6016281531867
 20
-361.0714359652328
 30
0.0
 10
510.0823878390593
 20
-361.0714359652328
 30
0.0
 10
510.0823878390593
 20
-361.0714359652328
 30
0.0
 10
510.0823878390593
 20
-361.0714359652328
 30
0.0
 10
510.0823878390593
 20
-357.2814218263691
 30
0.0
 10
510.0823878390593
 20
-357.2814218263691
 30
0.0
 10
510.0823878390593
 20
-357.2814218263691
 30
0.0
 10
515.856453999727
 20
-357.2814218263691
 30
0.0
 10
515.856453999727
 20
-357.2814218263691
 30
0.0
 10
515.5084993557168
 20
-355.2576220154072
 30
0.0
 10
515.2531316528708
 20
-353.2927118053949
 30
0.0
 10
515.1065428399734
 20
-351.3890596994792
 30
0.0
 10
514.7574685399323
 20
-346.857531821109
 30
0.0
 10
514.7305967951474
 20
-342.6654319754231
 30
0.0
 10
514.9416950210042
 20
-338.8066666497818
 30
0.0
 10
512.2341944791464
 20
-338.6105761211308
 30
0.0
 10
509.5409910835523
 20
-338.4049469843549
 30
0.0
 10
506.8624293437705
 20
-338.1897361757607
 30
0.0
 10
499.6227334362923
 20
-374.7593816879942
 30
0.0
 10
507.7090615592707
 20
-406.157809685787
 30
0.0
 10
507.7090615592707
 20
-406.157809685787
 30
0.0
  0
SPLINE
  5
44
330
1F
100
AcDbEntity
  8
Capa 1
 62
     1
420
 16711680
370
    35
100
AcDbSpline
210
0.0
220
0.0
230
1.0
 70
    11
 71
     3
 72
    56
 73
    52
 74
     0
 42
0.0000000001
 43
0.0000000001
 12
1.0
 22
0.0
 32
0.0
 13
1.0
 23
0.0
 33
0.0
 40
0.0
 40
0.0
 40
0.0
 40
0.0
 40
1.0
 40
1.0
 40
1.0
 40
2.0
 40
2.0
 40
2.0
 40
3.0
 40
3.0
 40
3.0
 40
4.0
 40
4.0
 40
4.0
 40
5.0
 40
5.0
 40
5.0
 40
6.0
 40
6.0
 40
6.0
 40
7.0
 40
7.0
 40
7.0
 40
8.0
 40
8.0
 40
8.0
 40
9.0
 40
9.0
 40
9.0
 40
10.0
 40
10.0
 40
10.0
 40
11.0
 40
11.0
 40
11.0
 40
12.0
 40
12.0
 40
12.0
 40
13.0
 40
13.0
 40
13.0
 40
14.0
 40
14.0
 40
14.0
 40
15.0
 40
15.0
 40
15.0
 40
16.0
 40
16.0
 40
16.0
 40
17.0
 40
17.0
 40
17.0
 40
17.0
 10
535.9774480539397
 20
-405.9105379573351
 30
0.0
 10
535.9774480539397
 20
-405.9105379573351
 30
0.0
 10
560.3852605478378
 20
-405.9105379573351
 30
0.0
 10
560.3852605478378
 20
-405.9105379573351
 30
0.0
 10
559.0998092949059
 20
-402.5740491072558
 30
0.0
 10
557.8383875829816
 20
-399.32523793728
 30
0.0
 10
556.6185653990399
 20
-396.1610038614633
 30
0.0
 10
556.6185653990399
 20
-396.1610038614633
 30
0.0
 10
544.2892576764277
 20
-396.1610038614633
 30
0.0
 10
544.2892576764277
 20
-396.1610038614633
 30
0.0
 10
544.2892576764277
 20
-396.1610038614633
 30
0.0
 10
544.2892576764277
 20
-392.3709681907547
 30
0.0
 10
544.2892576764277
 20
-392.3709681907547
 30
0.0
 10
544.2892576764277
 20
-392.3709681907547
 30
0.0
 10
555.1632709386851
 20
-392.3709681907547
 30
0.0
 10
555.1632709386851
 20
-392.3709681907547
 30
0.0
 10
553.2073610406268
 20
-387.2530204652527
 30
0.0
 10
551.3874032231552
 20
-382.3684779588803
 30
0.0
 10
549.787285561338
 20
-377.7151013595643
 30
0.0
 10
549.787285561338
 20
-377.7151013595643
 30
0.0
 10
540.3327377663925
 20
-377.7151013595643
 30
0.0
 10
540.3327377663925
 20
-377.7151013595643
 30
0.0
 10
540.3327377663925
 20
-377.7151013595643
 30
0.0
 10
540.3327377663925
 20
-373.9251518162409
 30
0.0
 10
540.3327377663925
 20
-373.9251518162409
 30
0.0
 10
540.3327377663925
 20
-373.9251518162409
 30
0.0
 10
548.5178540024124
 20
-373.9251518162409
 30
0.0
 10
548.5178540024124
 20
-373.9251518162409
 30
0.0
 10
547.0199264854258
 20
-369.3208678275936
 30
0.0
 10
545.775816378313
 20
-364.9557165293116
 30
0.0
 10
544.8699715841595
 20
-360.8241427049329
 30
0.0
 10
544.8699715841595
 20
-360.8241427049329
 30
0.0
 10
538.3507312700353
 20
-360.8241427049329
 30
0.0
 10
538.3507312700353
 20
-360.8241427049329
 30
0.0
 10
538.3507312700353
 20
-360.8241427049329
 30
0.0
 10
538.3507312700353
 20
-357.0341285660685
 30
0.0
 10
538.3507312700353
 20
-357.0341285660685
 30
0.0
 10
538.3507312700353
 20
-357.0341285660685
 30
0.0
 10
544.124840494396
 20
-357.0341285660685
 30
0.0
 10
544.124840494396
 20
-357.0341285660685
 30
0.0
 10
543.7768427866897
 20
-355.0103287551066
 30
0.0
 10
543.5215181475398
 20
-353.0454185450943
 30
0.0
 10
543.3748862709494
 20
-351.1417664391785
 30
0.0
 10
543.082612982719
 20
-347.3475535901922
 30
0.0
 10
543.018405015612
 20
-343.7941744474716
 30
0.0
 10
543.1284327526728
 20
-340.4722411258194
 30
0.0
 10
540.3149955246435
 20
-340.3428993221951
 30
0.0
 10
537.5151233600881
 20
-340.2026839359455
 30
0.0
 10
534.7274382208097
 20
-340.0530376008049
 30
0.0
 10
528.1987669577941
 20
-375.7120367170548
 30
0.0
 10
535.9774480539397
 20
-405.9105379573351
 30
0.0
 10
535.9774480539397
 20
-405.9105379573351
 30
0.0
  0
SPLINE
  5
45
330
1F
100
AcDbEntity
  8
Capa 1
 62
     1
420
 16711680
370
    35
100
AcDbSpline
210
0.0
220
0.0
230
1.0
 70
    11
 71
     3
 72
    56
 73
    52
 74
     0
 42
0.0000000001
 43
0.0000000001
 12
1.0
 22
0.0
 32
0.0
 13
1.0
 23
0.0
 33
0.0
 40
0.0
 40
0.0
 40
0.0
 40
0.0
 40
1.0
 40
1.0
 40
1.0
 40
2.0
 40
2.0
 40
2.0
 40
3.0
 40
3.0
 40
3.0
 40
4.0
 40
4.0
 40
4.0
 40
5.0
 40
5.0
 40
5.0
 40
6.0
 40
6.0
 40
6.0
 40
7.0
 40
7.0
 40
7.0
 40
8.0
 40
8.0
 40
8.0
 40
9.0
 40
9.0
 40
9.0
 40
10.0
 40
10.0
 40
10.0
 40
11.0
 40
11.0
 40
11.0
 40
12.0
 40
12.0
 40
12.0
 40
13.0
 40
13.0
 40
13.0
 40
14.0
 40
14.0
 40
14.0
 40
15.0
 40
15.0
 40
15.0
 40
16.0
 40
16.0
 40
16.0
 40
17.0
 40
17.0
 40
17.0
 40
17.0
 10
564.2458345486087
 20
-405.9105379573351
 30
0.0
 10
564.2458345486087
 20
-405.9105379573351
 30
0.0
 10
588.6536470425068
 20
-405.9105379573351
 30
0.0
 10
588.6536470425068
 20
-405.9105379573351
 30
0.0
 10
587.3681957895749
 20
-402.5740491072558
 30
0.0
 10
586.1067740776506
 20
-399.32523793728
 30
0.0
 10
584.8869518937089
 20
-396.1610038614633
 30
0.0
 10
584.8869518937089
 20
-396.1610038614633
 30
0.0
 10
572.5576441710967
 20
-396.1610038614633
 30
0.0
 10
572.5576441710967
 20
-396.1610038614633
 30
0.0
 10
572.5576441710967
 20
-396.1610038614633
 30
0.0
 10
572.5576441710967
 20
-392.3709681907547
 30
0.0
 10
572.5576441710967
 20
-392.3709681907547
 30
0.0
 10
572.5576441710967
 20
-392.3709681907547
 30
0.0
 10
583.4316574333541
 20
-392.3709681907547
 30
0.0
 10
583.4316574333541
 20
-392.3709681907547
 30
0.0
 10
581.4757475352958
 20
-387.2530204652527
 30
0.0
 10
579.6557897178242
 20
-382.3684779588803
 30
0.0
 10
578.055672056007
 20
-377.7151013595643
 30
0.0
 10
578.055672056007
 20
-377.7151013595643
 30
0.0
 10
568.6011242610615
 20
-377.7151013595643
 30
0.0
 10
568.6011242610615
 20
-377.7151013595643
 30
0.0
 10
568.6011242610615
 20
-377.7151013595643
 30
0.0
 10
568.6011242610615
 20
-373.9251518162409
 30
0.0
 10
568.6011242610615
 20
-373.9251518162409
 30
0.0
 10
568.6011242610615
 20
-373.9251518162409
 30
0.0
 10
576.7862404970814
 20
-373.9251518162409
 30
0.0
 10
576.7862404970814
 20
-373.9251518162409
 30
0.0
 10
575.2883129800948
 20
-369.3208678275936
 30
0.0
 10
574.044202872982
 20
-364.9557165293116
 30
0.0
 10
573.1383580788286
 20
-360.8241427049329
 30
0.0
 10
573.1383580788286
 20
-360.8241427049329
 30
0.0
 10
566.6191177647044
 20
-360.8241427049329
 30
0.0
 10
566.6191177647044
 20
-360.8241427049329
 30
0.0
 10
566.6191177647044
 20
-360.8241427049329
 30
0.0
 10
566.6191177647044
 20
-357.0341285660685
 30
0.0
 10
566.6191177647044
 20
-357.0341285660685
 30
0.0
 10
566.6191177647044
 20
-357.0341285660685
 30
0.0
 10
572.393226989065
 20
-357.0341285660685
 30
0.0
 10
572.393226989065
 20
-357.0341285660685
 30
0.0
 10
572.0452292813587
 20
-355.0103287551066
 30
0.0
 10
571.7899046422089
 20
-353.0454185450943
 30
0.0
 10
571.6432727656185
 20
-351.1417664391785
 30
0.0
 10
571.3784741138847
 20
-347.7041855684559
 30
0.0
 10
571.3002704463696
 20
-344.4634057773281
 30
0.0
 10
571.369473801927
 20
-341.4137426582446
 30
0.0
 10
568.4990633073129
 20
-341.3539056560352
 30
0.0
 10
565.6400216277964
 20
-341.2829366890391
 30
0.0
 10
562.7915736168995
 20
-341.2021276680632
 30
0.0
 10
556.6354894306105
 20
-376.3580782479244
 30
0.0
 10
564.2458345486087
 20
-405.9105379573351
 30
0.0
 10
564.2458345486087
 20
-405.9105379573351
 30
0.0
  0
SPLINE
  5
46
330
1F
100
AcDbEntity
  8
Capa 1
 62
     1
420
 16711680
370
    35
100
AcDbSpline
210
0.0
220
0.0
230
1.0
 70
    11
 71
     3
 72
    62
 73
    58
 74
     0
 42
0.0000000001
 43
0.0000000001
 12
1.0
 22
0.0
 32
0.0
 13
1.0
 23
0.0
 33
0.0
 40
0.0
 40
0.0
 40
0.0
 40
0.0
 40
1.0
 40
1.0
 40
1.0
 40
2.0
 40
2.0
 40
2.0
 40
3.0
 40
3.0
 40
3.0
 40
4.0
 40
4.0
 40
4.0
 40
5.0
 40
5.0
 40
5.0
 40
6.0
 40
6.0
 40
6.0
 40
7.0
 40
7.0
 40
7.0
 40
8.0
 40
8.0
 40
8.0
 40
9.0
 40
9.0
 40
9.0
 40
10.0
 40
10.0
 40
10.0
 40
11.0
 40
11.0
 40
11.0
 40
12.0
 40
12.0
 40
12.0
 40
13.0
 40
13.0
 40
13.0
 40
14.0
 40
14.0
 40
14.0
 40
15.0
 40
15.0
 40
15.0
 40
16.0
 40
16.0
 40
16.0
 40
17.0
 40
17.0
 40
17.0
 40
18.0
 40
18.0
 40
18.0
 40
19.0
 40
19.0
 40
19.0
 40
19.0
 10
310.0289012557719
 20
-333.2075898079199
 30
0.0
 10
301.013387816728
 20
-371.8102938252351
 30
0.0
 10
309.8304637558215
 20
-406.0341307578665
 30
0.0
 10
309.8304637558215
 20
-406.0341307578665
 30
0.0
 10
309.8304637558215
 20
-406.0341307578665
 30
0.0
 10
334.2382762497195
 20
-406.0341307578665
 30
0.0
 10
334.2382762497195
 20
-406.0341307578665
 30
0.0
 10
332.9528465286324
 20
-402.6976849714833
 30
0.0
 10
331.691446348555
 20
-399.4488738015044
 30
0.0
 10
330.4715811009216
 20
-396.2845966619985
 30
0.0
 10
330.4715811009216
 20
-396.2845966619985
 30
0.0
 10
318.1422733783095
 20
-396.2845966619985
 30
0.0
 10
318.1422733783095
 20
-396.2845966619985
 30
0.0
 10
318.1422733783095
 20
-396.2845966619985
 30
0.0
 10
318.1422733783095
 20
-392.4946471186752
 30
0.0
 10
318.1422733783095
 20
-392.4946471186752
 30
0.0
 10
318.1422733783095
 20
-392.4946471186752
 30
0.0
 10
329.0162866405649
 20
-392.4946471186752
 30
0.0
 10
329.0162866405649
 20
-392.4946471186752
 30
0.0
 10
327.0603982743547
 20
-387.3766993931732
 30
0.0
 10
325.2404404568844
 20
-382.4921568868008
 30
0.0
 10
323.6403012632197
 20
-377.8387802874848
 30
0.0
 10
323.6403012632197
 20
-377.8387802874848
 30
0.0
 10
314.1857750001211
 20
-377.8387802874848
 30
0.0
 10
314.1857750001211
 20
-377.8387802874848
 30
0.0
 10
314.1857750001211
 20
-377.8387802874848
 30
0.0
 10
314.1857750001211
 20
-374.0487446167762
 30
0.0
 10
314.1857750001211
 20
-374.0487446167762
 30
0.0
 10
314.1857750001211
 20
-374.0487446167762
 30
0.0
 10
322.3708912361391
 20
-374.0487446167762
 30
0.0
 10
322.3708912361391
 20
-374.0487446167762
 30
0.0
 10
320.8729852509992
 20
-369.4445036918179
 30
0.0
 10
319.6288536120416
 20
-365.0793523935392
 30
0.0
 10
318.7230088178887
 20
-360.9477785691604
 30
0.0
 10
318.7230088178887
 20
-360.9477785691604
 30
0.0
 10
312.2037685037633
 20
-360.9477785691604
 30
0.0
 10
312.2037685037633
 20
-360.9477785691604
 30
0.0
 10
312.2037685037633
 20
-360.9477785691604
 30
0.0
 10
312.2037685037633
 20
-357.1577644302967
 30
0.0
 10
312.2037685037633
 20
-357.1577644302967
 30
0.0
 10
312.2037685037633
 20
-357.1577644302967
 30
0.0
 10
317.9778777281227
 20
-357.1577644302967
 30
0.0
 10
317.9778777281227
 20
-357.1577644302967
 30
0.0
 10
317.6298800204189
 20
-355.1339646193348
 30
0.0
 10
317.3745553812684
 20
-353.1690544093225
 30
0.0
 10
317.2279235046774
 20
-351.2654023034054
 30
0.0
 10
314.7514166151055
 20
-319.1151683433441
 30
0.0
 10
328.4835887511582
 20
-304.0372773152125
 30
0.0
 10
328.4835887511582
 20
-304.0372773152125
 30
0.0
 10
328.4835887511582
 20
-304.0372773152125
 30
0.0
 10
328.2564277675995
 20
-301.084270656337
 30
0.0
 10
328.2564277675995
 20
-301.084270656337
 30
0.0
 10
326.7525574609008
 20
-300.4288843039618
 30
0.0
 10
325.2780996569075
 20
-299.767899671423
 30
0.0
 10
323.8366932377257
 20
-299.1008430580916
 30
0.0
 10
316.0549330874902
 20
-310.6961085920308
 30
0.0
 10
313.0099639110053
 20
-320.4431880573675
 30
0.0
 10
310.0289012557719
 20
-333.2075898079199
 30
0.0
  0
SPLINE
  5
47
330
1F
100
AcDbEntity
  8
Capa 1
 62
     1
420
 16711680
370
    35
100
AcDbSpline
210
0.0
220
0.0
230
1.0
 70
    11
 71
     3
 72
    59
 73
    55
 74
     0
 42
0.0000000001
 43
0.0000000001
 12
1.0
 22
0.0
 32
0.0
 13
1.0
 23
0.0
 33
0.0
 40
0.0
 40
0.0
 40
0.0
 40
0.0
 40
1.0
 40
1.0
 40
1.0
 40
2.0
 40
2.0
 40
2.0
 40
3.0
 40
3.0
 40
3.0
 40
4.0
 40
4.0
 40
4.0
 40
5.0
 40
5.0
 40
5.0
 40
6.0
 40
6.0
 40
6.0
 40
7.0
 40
7.0
 40
7.0
 40
8.0
 40
8.0
 40
8.0
 40
9.0
 40
9.0
 40
9.0
 40
10.0
 40
10.0
 40
10.0
 40
11.0
 40
11.0
 40
11.0
 40
12.0
 40
12.0
 40
12.0
 40
13.0
 40
13.0
 40
13.0
 40
14.0
 40
14.0
 40
14.0
 40
15.0
 40
15.0
 40
15.0
 40
16.0
 40
16.0
 40
16.0
 40
17.0
 40
17.0
 40
17.0
 40
18.0
 40
18.0
 40
18.0
 40
18.0
 10
338.2972662185941
 20
-333.2075898079199
 30
0.0
 10
329.2817527795502
 20
-371.8102938252351
 30
0.0
 10
338.0988287186437
 20
-406.0341307578665
 30
0.0
 10
338.0988287186437
 20
-406.0341307578665
 30
0.0
 10
338.0988287186437
 20
-406.0341307578665
 30
0.0
 10
362.5066412125437
 20
-406.0341307578665
 30
0.0
 10
362.5066412125437
 20
-406.0341307578665
 30
0.0
 10
361.221211491456
 20
-402.6976849714833
 30
0.0
 10
359.9598113113763
 20
-399.4488738015044
 30
0.0
 10
358.7399460637458
 20
-396.2845966619985
 30
0.0
 10
358.7399460637458
 20
-396.2845966619985
 30
0.0
 10
346.4106383411317
 20
-396.2845966619985
 30
0.0
 10
346.4106383411317
 20
-396.2845966619985
 30
0.0
 10
346.4106383411317
 20
-396.2845966619985
 30
0.0
 10
346.4106383411317
 20
-392.4946471186752
 30
0.0
 10
346.4106383411317
 20
-392.4946471186752
 30
0.0
 10
346.4106383411317
 20
-392.4946471186752
 30
0.0
 10
357.2846516033872
 20
-392.4946471186752
 30
0.0
 10
357.2846516033872
 20
-392.4946471186752
 30
0.0
 10
355.3287632371773
 20
-387.3766993931732
 30
0.0
 10
353.5088054197053
 20
-382.4921568868008
 30
0.0
 10
351.9086662260419
 20
-377.8387802874848
 30
0.0
 10
351.9086662260419
 20
-377.8387802874848
 30
0.0
 10
342.4541399629433
 20
-377.8387802874848
 30
0.0
 10
342.4541399629433
 20
-377.8387802874848
 30
0.0
 10
342.4541399629433
 20
-377.8387802874848
 30
0.0
 10
342.4541399629433
 20
-374.0487446167762
 30
0.0
 10
342.4541399629433
 20
-374.0487446167762
 30
0.0
 10
342.4541399629433
 20
-374.0487446167762
 30
0.0
 10
350.6392561989613
 20
-374.0487446167762
 30
0.0
 10
350.6392561989613
 20
-374.0487446167762
 30
0.0
 10
349.1413502138215
 20
-369.4445036918179
 30
0.0
 10
347.8972185748638
 20
-365.0793523935392
 30
0.0
 10
346.9913737807109
 20
-360.9477785691604
 30
0.0
 10
346.9913737807109
 20
-360.9477785691604
 30
0.0
 10
340.4721334665855
 20
-360.9477785691604
 30
0.0
 10
340.4721334665855
 20
-360.9477785691604
 30
0.0
 10
340.4721334665855
 20
-360.9477785691604
 30
0.0
 10
340.4721334665855
 20
-357.1577644302967
 30
0.0
 10
340.4721334665855
 20
-357.1577644302967
 30
0.0
 10
340.4721334665855
 20
-357.1577644302967
 30
0.0
 10
346.2462426909449
 20
-357.1577644302967
 30
0.0
 10
346.2462426909449
 20
-357.1577644302967
 30
0.0
 10
345.8982449832412
 20
-355.1339646193348
 30
0.0
 10
345.6429203440906
 20
-353.1690544093225
 30
0.0
 10
345.4962884674997
 20
-351.2654023034054
 30
0.0
 10
343.9344974929552
 20
-330.9901540988388
 30
0.0
 10
348.8185878305471
 20
-317.5073638122248
 30
0.0
 10
352.6399523383266
 20
-310.3115067447962
 30
0.0
 10
350.622827399866
 20
-309.6446439180858
 30
0.0
 10
348.6396581837819
 20
-308.9697497125254
 30
0.0
 10
346.6945142091163
 20
-308.2862427682518
 30
0.0
 10
342.6658626123588
 20
-316.2447578487274
 30
0.0
 10
340.4642743425098
 20
-323.928871073803
 30
0.0
 10
338.2972662185941
 20
-333.2075898079199
 30
0.0
  0
SPLINE
  5
48
330
1F
100
AcDbEntity
  8
Capa 1
 62
     1
420
 16711680
370
    35
100
AcDbSpline
210
0.0
220
0.0
230
1.0
 70
    11
 71
     3
 72
    59
 73
    55
 74
     0
 42
0.0000000001
 43
0.0000000001
 12
1.0
 22
0.0
 32
0.0
 13
1.0
 23
0.0
 33
0.0
 40
0.0
 40
0.0
 40
0.0
 40
0.0
 40
1.0
 40
1.0
 40
1.0
 40
2.0
 40
2.0
 40
2.0
 40
3.0
 40
3.0
 40
3.0
 40
4.0
 40
4.0
 40
4.0
 40
5.0
 40
5.0
 40
5.0
 40
6.0
 40
6.0
 40
6.0
 40
7.0
 40
7.0
 40
7.0
 40
8.0
 40
8.0
 40
8.0
 40
9.0
 40
9.0
 40
9.0
 40
10.0
 40
10.0
 40
10.0
 40
11.0
 40
11.0
 40
11.0
 40
12.0
 40
12.0
 40
12.0
 40
13.0
 40
13.0
 40
13.0
 40
14.0
 40
14.0
 40
14.0
 40
15.0
 40
15.0
 40
15.0
 40
16.0
 40
16.0
 40
16.0
 40
17.0
 40
17.0
 40
17.0
 40
18.0
 40
18.0
 40
18.0
 40
18.0
 10
366.565652713265
 20
-333.4549046000673
 30
0.0
 10
357.5501392742183
 20
-372.057565553687
 30
0.0
 10
366.3672152133146
 20
-406.2814886137074
 30
0.0
 10
366.3672152133146
 20
-406.2814886137074
 30
0.0
 10
366.3672152133146
 20
-406.2814886137074
 30
0.0
 10
390.7750277072127
 20
-406.2814886137074
 30
0.0
 10
390.7750277072127
 20
-406.2814886137074
 30
0.0
 10
389.4895764542769
 20
-402.944999763632
 30
0.0
 10
388.2281978060453
 20
-399.6961885936524
 30
0.0
 10
387.0083325584148
 20
-396.5319545178394
 30
0.0
 10
387.0083325584148
 20
-396.5319545178394
 30
0.0
 10
374.6790248358027
 20
-396.5319545178394
 30
0.0
 10
374.6790248358027
 20
-396.5319545178394
 30
0.0
 10
374.6790248358027
 20
-396.5319545178394
 30
0.0
 10
374.6790248358027
 20
-392.741918847127
 30
0.0
 10
374.6790248358027
 20
-392.741918847127
 30
0.0
 10
374.6790248358027
 20
-392.741918847127
 30
0.0
 10
385.5530380980562
 20
-392.741918847127
 30
0.0
 10
385.5530380980562
 20
-392.741918847127
 30
0.0
 10
383.5971712636947
 20
-387.6239711216289
 30
0.0
 10
381.7772134462224
 20
-382.7394286152527
 30
0.0
 10
380.1770527207129
 20
-378.0860520159405
 30
0.0
 10
380.1770527207129
 20
-378.0860520159405
 30
0.0
 10
370.7225049257675
 20
-378.0860520159405
 30
0.0
 10
370.7225049257675
 20
-378.0860520159405
 30
0.0
 10
370.7225049257675
 20
-378.0860520159405
 30
0.0
 10
370.7225049257675
 20
-374.2961024726172
 30
0.0
 10
370.7225049257675
 20
-374.2961024726172
 30
0.0
 10
370.7225049257675
 20
-374.2961024726172
 30
0.0
 10
378.9076211617835
 20
-374.2961024726172
 30
0.0
 10
378.9076211617835
 20
-374.2961024726172
 30
0.0
 10
377.4097367084895
 20
-369.691818483966
 30
0.0
 10
376.165583537688
 20
-365.3266671856872
 30
0.0
 10
375.2597818072267
 20
-361.1950933613091
 30
0.0
 10
375.2597818072267
 20
-361.1950933613091
 30
0.0
 10
368.7405414931033
 20
-361.1950933613091
 30
0.0
 10
368.7405414931033
 20
-361.1950933613091
 30
0.0
 10
368.7405414931033
 20
-361.1950933613091
 30
0.0
 10
368.7405414931033
 20
-357.4050792224447
 30
0.0
 10
368.7405414931033
 20
-357.4050792224447
 30
0.0
 10
368.7405414931033
 20
-357.4050792224447
 30
0.0
 10
374.5146076537672
 20
-357.4050792224447
 30
0.0
 10
374.5146076537672
 20
-357.4050792224447
 30
0.0
 10
374.1666530097569
 20
-355.3812794114796
 30
0.0
 10
373.9112853069147
 20
-353.4163692014673
 30
0.0
 10
373.7646964940174
 20
-351.5127170955528
 30
0.0
 10
372.6210539839922
 20
-336.6659919744815
 30
0.0
 10
374.9343925386449
 20
-325.4629074978444
 30
0.0
 10
377.7553228493565
 20
-317.7011934969636
 30
0.0
 10
375.6877487938838
 20
-317.1595168274484
 30
0.0
 10
373.6487690309387
 20
-316.6096580561558
 30
0.0
 10
371.6351107198102
 20
-316.0528875620458
 30
0.0
 10
369.5469952825038
 20
-321.506301460422
 30
0.0
 10
368.0481203642606
 20
-327.1072085092605
 30
0.0
 10
366.565652713265
 20
-333.4549046000673
 30
0.0
  0
SPLINE
  5
49
330
1F
100
AcDbEntity
  8
Capa 1
 62
     1
420
 16711680
370
    35
100
AcDbSpline
210
0.0
220
0.0
230
1.0
 70
    11
 71
     3
 72
    59
 73
    55
 74
     0
 42
0.0000000001
 43
0.0000000001
 12
1.0
 22
0.0
 32
0.0
 13
1.0
 23
0.0
 33
0.0
 40
0.0
 40
0.0
 40
0.0
 40
0.0
 40
1.0
 40
1.0
 40
1.0
 40
2.0
 40
2.0
 40
2.0
 40
3.0
 40
3.0
 40
3.0
 40
4.0
 40
4.0
 40
4.0
 40
5.0
 40
5.0
 40
5.0
 40
6.0
 40
6.0
 40
6.0
 40
7.0
 40
7.0
 40
7.0
 40
8.0
 40
8.0
 40
8.0
 40
9.0
 40
9.0
 40
9.0
 40
10.0
 40
10.0
 40
10.0
 40
11.0
 40
11.0
 40
11.0
 40
12.0
 40
12.0
 40
12.0
 40
13.0
 40
13.0
 40
13.0
 40
14.0
 40
14.0
 40
14.0
 40
15.0
 40
15.0
 40
15.0
 40
16.0
 40
16.0
 40
16.0
 40
17.0
 40
17.0
 40
17.0
 40
18.0
 40
18.0
 40
18.0
 40
18.0
 10
394.834039207934
 20
-333.2075898079199
 30
0.0
 10
385.8184827051947
 20
-371.8102938252351
 30
0.0
 10
394.6356017079837
 20
-406.0341307578665
 30
0.0
 10
394.6356017079837
 20
-406.0341307578665
 30
0.0
 10
394.6356017079837
 20
-406.0341307578665
 30
0.0
 10
419.0434142018817
 20
-406.0341307578665
 30
0.0
 10
419.0434142018817
 20
-406.0341307578665
 30
0.0
 10
417.7579629489459
 20
-402.6976849714833
 30
0.0
 10
416.4965412370217
 20
-399.4488738015044
 30
0.0
 10
415.2767190530838
 20
-396.2845966619985
 30
0.0
 10
415.2767190530838
 20
-396.2845966619985
 30
0.0
 10
402.9474113304717
 20
-396.2845966619985
 30
0.0
 10
402.9474113304717
 20
-396.2845966619985
 30
0.0
 10
402.9474113304717
 20
-396.2845966619985
 30
0.0
 10
402.9474113304717
 20
-392.4946471186752
 30
0.0
 10
402.9474113304717
 20
-392.4946471186752
 30
0.0
 10
402.9474113304717
 20
-392.4946471186752
 30
0.0
 10
413.8214245927252
 20
-392.4946471186752
 30
0.0
 10
413.8214245927252
 20
-392.4946471186752
 30
0.0
 10
411.8655146946672
 20
-387.3766993931732
 30
0.0
 10
410.0455568771988
 20
-382.4921568868008
 30
0.0
 10
408.4454392153819
 20
-377.8387802874848
 30
0.0
 10
408.4454392153819
 20
-377.8387802874848
 30
0.0
 10
398.9908914204365
 20
-377.8387802874848
 30
0.0
 10
398.9908914204365
 20
-377.8387802874848
 30
0.0
 10
398.9908914204365
 20
-377.8387802874848
 30
0.0
 10
398.9908914204365
 20
-374.0487446167762
 30
0.0
 10
398.9908914204365
 20
-374.0487446167762
 30
0.0
 10
398.9908914204365
 20
-374.0487446167762
 30
0.0
 10
407.1760076564526
 20
-374.0487446167762
 30
0.0
 10
407.1760076564526
 20
-374.0487446167762
 30
0.0
 10
405.6780801394659
 20
-369.4445036918179
 30
0.0
 10
404.433970032357
 20
-365.0793523935392
 30
0.0
 10
403.5281252382031
 20
-360.9477785691604
 30
0.0
 10
403.5281252382031
 20
-360.9477785691604
 30
0.0
 10
397.0088849240758
 20
-360.9477785691604
 30
0.0
 10
397.0088849240758
 20
-360.9477785691604
 30
0.0
 10
397.0088849240758
 20
-360.9477785691604
 30
0.0
 10
397.0088849240758
 20
-357.1577644302967
 30
0.0
 10
397.0088849240758
 20
-357.1577644302967
 30
0.0
 10
397.0088849240758
 20
-357.1577644302967
 30
0.0
 10
402.7829941484362
 20
-357.1577644302967
 30
0.0
 10
402.7829941484362
 20
-357.1577644302967
 30
0.0
 10
402.4349964407334
 20
-355.1339646193348
 30
0.0
 10
402.1796718015838
 20
-353.1690544093225
 30
0.0
 10
402.0330399249899
 20
-351.2654023034054
 30
0.0
 10
401.1734455377275
 20
-340.1064581126731
 30
0.0
 10
402.2672633542943
 20
-331.0062168565388
 30
0.0
 10
404.0610815097713
 20
-323.8772807689114
 30
0.0
 10
401.8973031628711
 20
-323.4228296107133
 30
0.0
 10
399.7538078156451
 20
-322.961466729698
 30
0.0
 10
397.6344712005046
 20
-322.4921155335263
 30
0.0
 10
396.6138616629993
 20
-325.882692382722
 30
0.0
 10
395.7206775947557
 20
-329.4110299876343
 30
0.0
 10
394.834039207934
 20
-333.2075898079199
 30
0.0
  0
SPLINE
  5
4A
330
1F
100
AcDbEntity
  8
Capa 1
 62
     1
420
 16711680
370
    35
100
AcDbSpline
210
0.0
220
0.0
230
1.0
 70
    11
 71
     3
 72
    59
 73
    55
 74
     0
 42
0.0000000001
 43
0.0000000001
 12
1.0
 22
0.0
 32
0.0
 13
1.0
 23
0.0
 33
0.0
 40
0.0
 40
0.0
 40
0.0
 40
0.0
 40
1.0
 40
1.0
 40
1.0
 40
2.0
 40
2.0
 40
2.0
 40
3.0
 40
3.0
 40
3.0
 40
4.0
 40
4.0
 40
4.0
 40
5.0
 40
5.0
 40
5.0
 40
6.0
 40
6.0
 40
6.0
 40
7.0
 40
7.0
 40
7.0
 40
8.0
 40
8.0
 40
8.0
 40
9.0
 40
9.0
 40
9.0
 40
10.0
 40
10.0
 40
10.0
 40
11.0
 40
11.0
 40
11.0
 40
12.0
 40
12.0
 40
12.0
 40
13.0
 40
13.0
 40
13.0
 40
14.0
 40
14.0
 40
14.0
 40
15.0
 40
15.0
 40
15.0
 40
16.0
 40
16.0
 40
16.0
 40
17.0
 40
17.0
 40
17.0
 40
18.0
 40
18.0
 40
18.0
 40
18.0
 10
423.1023826389066
 20
-333.2075898079199
 30
0.0
 10
414.0868691998637
 20
-371.8102938252351
 30
0.0
 10
422.9039451389562
 20
-406.0341307578665
 30
0.0
 10
422.9039451389562
 20
-406.0341307578665
 30
0.0
 10
422.9039451389562
 20
-406.0341307578665
 30
0.0
 10
447.3117576328543
 20
-406.0341307578665
 30
0.0
 10
447.3117576328543
 20
-406.0341307578665
 30
0.0
 10
446.0263494436149
 20
-402.6976849714833
 30
0.0
 10
444.7649277316907
 20
-399.4488738015044
 30
0.0
 10
443.5450624840564
 20
-396.2845966619985
 30
0.0
 10
443.5450624840564
 20
-396.2845966619985
 30
0.0
 10
431.2157547614443
 20
-396.2845966619985
 30
0.0
 10
431.2157547614443
 20
-396.2845966619985
 30
0.0
 10
431.2157547614443
 20
-396.2845966619985
 30
0.0
 10
431.2157547614443
 20
-392.4946471186752
 30
0.0
 10
431.2157547614443
 20
-392.4946471186752
 30
0.0
 10
431.2157547614443
 20
-392.4946471186752
 30
0.0
 10
442.0897680237017
 20
-392.4946471186752
 30
0.0
 10
442.0897680237017
 20
-392.4946471186752
 30
0.0
 10
440.1338581256437
 20
-387.3766993931732
 30
0.0
 10
438.3139003081752
 20
-382.4921568868008
 30
0.0
 10
436.7137826463544
 20
-377.8387802874848
 30
0.0
 10
436.7137826463544
 20
-377.8387802874848
 30
0.0
 10
427.2592779151055
 20
-377.8387802874848
 30
0.0
 10
427.2592779151055
 20
-377.8387802874848
 30
0.0
 10
427.2592779151055
 20
-377.8387802874848
 30
0.0
 10
427.2592779151055
 20
-374.0487446167762
 30
0.0
 10
427.2592779151055
 20
-374.0487446167762
 30
0.0
 10
427.2592779151055
 20
-374.0487446167762
 30
0.0
 10
435.4443941511216
 20
-374.0487446167762
 30
0.0
 10
435.4443941511216
 20
-374.0487446167762
 30
0.0
 10
433.9464666341349
 20
-369.4445036918179
 30
0.0
 10
432.702356527026
 20
-365.0793523935392
 30
0.0
 10
431.7964686691795
 20
-360.9477785691604
 30
0.0
 10
431.7964686691795
 20
-360.9477785691604
 30
0.0
 10
425.2772283550522
 20
-360.9477785691604
 30
0.0
 10
425.2772283550522
 20
-360.9477785691604
 30
0.0
 10
425.2772283550522
 20
-360.9477785691604
 30
0.0
 10
425.2772283550522
 20
-357.1577644302967
 30
0.0
 10
425.2772283550522
 20
-357.1577644302967
 30
0.0
 10
425.2772283550522
 20
-357.1577644302967
 30
0.0
 10
431.0513806431052
 20
-357.1577644302967
 30
0.0
 10
431.0513806431052
 20
-357.1577644302967
 30
0.0
 10
430.7033398717098
 20
-355.1339646193348
 30
0.0
 10
430.4480582962528
 20
-353.1690544093225
 30
0.0
 10
430.3013833559663
 20
-351.2654023034054
 30
0.0
 10
429.6353602712824
 20
-342.6186648042108
 30
0.0
 10
430.1427367088706
 20
-335.2088457753015
 30
0.0
 10
431.2390522196661
 20
-328.9930968415799
 30
0.0
 10
428.9468579385552
 20
-328.6082150803371
 30
0.0
 10
426.6748174660329
 20
-328.215237344704
 30
0.0
 10
424.4215527639053
 20
-327.8148741856244
 30
0.0
 10
423.9710204018198
 20
-329.5587169247175
 30
0.0
 10
423.5359909694218
 20
-331.3510278509188
 30
0.0
 10
423.1023826389066
 20
-333.2075898079199
 30
0.0
  0
SPLINE
  5
4B
330
1F
100
AcDbEntity
  8
Capa 1
 62
     1
420
 16711680
370
    35
100
AcDbSpline
210
0.0
220
0.0
230
1.0
 70
    11
 71
     3
 72
    59
 73
    55
 74
     0
 42
0.0000000001
 43
0.0000000001
 12
1.0
 22
0.0
 32
0.0
 13
1.0
 23
0.0
 33
0.0
 40
0.0
 40
0.0
 40
0.0
 40
0.0
 40
1.0
 40
1.0
 40
1.0
 40
2.0
 40
2.0
 40
2.0
 40
3.0
 40
3.0
 40
3.0
 40
4.0
 40
4.0
 40
4.0
 40
5.0
 40
5.0
 40
5.0
 40
6.0
 40
6.0
 40
6.0
 40
7.0
 40
7.0
 40
7.0
 40
8.0
 40
8.0
 40
8.0
 40
9.0
 40
9.0
 40
9.0
 40
10.0
 40
10.0
 40
10.0
 40
11.0
 40
11.0
 40
11.0
 40
12.0
 40
12.0
 40
12.0
 40
13.0
 40
13.0
 40
13.0
 40
14.0
 40
14.0
 40
14.0
 40
15.0
 40
15.0
 40
15.0
 40
16.0
 40
16.0
 40
16.0
 40
17.0
 40
17.0
 40
17.0
 40
18.0
 40
18.0
 40
18.0
 40
18.0
 10
737.267400938732
 20
-332.8984786155058
 30
0.0
 10
728.2519305633817
 20
-371.5011826328192
 30
0.0
 10
737.0689634387816
 20
-405.7250195654544
 30
0.0
 10
737.0689634387816
 20
-405.7250195654544
 30
0.0
 10
737.0689634387816
 20
-405.7250195654544
 30
0.0
 10
761.4767759326796
 20
-405.7250195654544
 30
0.0
 10
761.4767759326796
 20
-405.7250195654544
 30
0.0
 10
760.1913246797438
 20
-402.3885737790681
 30
0.0
 10
758.9299890952087
 20
-399.1397626090916
 30
0.0
 10
757.7100807838817
 20
-395.9754854695825
 30
0.0
 10
757.7100807838817
 20
-395.9754854695825
 30
0.0
 10
745.3807730612696
 20
-395.9754854695825
 30
0.0
 10
745.3807730612696
 20
-395.9754854695825
 30
0.0
 10
745.3807730612696
 20
-395.9754854695825
 30
0.0
 10
745.3807730612696
 20
-392.1855359262592
 30
0.0
 10
745.3807730612696
 20
-392.1855359262592
 30
0.0
 10
745.3807730612696
 20
-392.1855359262592
 30
0.0
 10
756.2547863235231
 20
-392.1855359262592
 30
0.0
 10
756.2547863235231
 20
-392.1855359262592
 30
0.0
 10
754.2989194891616
 20
-387.0675882007611
 30
0.0
 10
752.4789616716894
 20
-382.1830456943848
 30
0.0
 10
750.8788009461798
 20
-377.5296690950727
 30
0.0
 10
750.8788009461798
 20
-377.5296690950727
 30
0.0
 10
741.4243392786196
 20
-377.5296690950727
 30
0.0
 10
741.4243392786196
 20
-377.5296690950727
 30
0.0
 10
741.4243392786196
 20
-377.5296690950727
 30
0.0
 10
741.4243392786196
 20
-373.7396334243602
 30
0.0
 10
741.4243392786196
 20
-373.7396334243602
 30
0.0
 10
741.4243392786196
 20
-373.7396334243602
 30
0.0
 10
749.6093693872505
 20
-373.7396334243602
 30
0.0
 10
749.6093693872505
 20
-373.7396334243602
 30
0.0
 10
748.1115279976528
 20
-369.1353924994052
 30
0.0
 10
746.8674178905401
 20
-364.7702412011271
 30
0.0
 10
745.9615300326936
 20
-360.6386673767451
 30
0.0
 10
745.9615300326936
 20
-360.6386673767451
 30
0.0
 10
739.4422897185702
 20
-360.6386673767451
 30
0.0
 10
739.4422897185702
 20
-360.6386673767451
 30
0.0
 10
739.4422897185702
 20
-360.6386673767451
 30
0.0
 10
739.4422897185702
 20
-356.8486532378807
 30
0.0
 10
739.4422897185702
 20
-356.8486532378807
 30
0.0
 10
739.4422897185702
 20
-356.8486532378807
 30
0.0
 10
745.2163558792341
 20
-356.8486532378807
 30
0.0
 10
745.2163558792341
 20
-356.8486532378807
 30
0.0
 10
744.8684012352239
 20
-354.8248534269188
 30
0.0
 10
744.6131196597669
 20
-352.8599432169066
 30
0.0
 10
744.4664447194843
 20
-350.9562911109914
 30
0.0
 10
743.8930947033497
 20
-343.5129039329477
 30
0.0
 10
744.1895451698555
 20
-336.9864289183033
 30
0.0
 10
744.9822616410114
 20
-331.3484655611516
 30
0.0
 10
742.4671696820047
 20
-331.7205789372522
 30
0.0
 10
739.9315794048609
 20
-332.0834982147765
 30
0.0
 10
737.3761798286769
 20
-332.4372449255712
 30
0.0
 10
737.3400063260817
 20
-332.5914129485362
 30
0.0
 10
737.3036605687123
 20
-332.7434493186696
 30
0.0
 10
737.267400938732
 20
-332.8984786155058
 30
0.0
  0
SPLINE
  5
4C
330
1F
100
AcDbEntity
  8
Capa 1
 62
     1
420
 16711680
370
    35
100
AcDbSpline
210
0.0
220
0.0
230
1.0
 70
    11
 71
     3
 72
    59
 73
    55
 74
     0
 42
0.0000000001
 43
0.0000000001
 12
1.0
 22
0.0
 32
0.0
 13
1.0
 23
0.0
 33
0.0
 40
0.0
 40
0.0
 40
0.0
 40
0.0
 40
1.0
 40
1.0
 40
1.0
 40
2.0
 40
2.0
 40
2.0
 40
3.0
 40
3.0
 40
3.0
 40
4.0
 40
4.0
 40
4.0
 40
5.0
 40
5.0
 40
5.0
 40
6.0
 40
6.0
 40
6.0
 40
7.0
 40
7.0
 40
7.0
 40
8.0
 40
8.0
 40
8.0
 40
9.0
 40
9.0
 40
9.0
 40
10.0
 40
10.0
 40
10.0
 40
11.0
 40
11.0
 40
11.0
 40
12.0
 40
12.0
 40
12.0
 40
13.0
 40
13.0
 40
13.0
 40
14.0
 40
14.0
 40
14.0
 40
15.0
 40
15.0
 40
15.0
 40
16.0
 40
16.0
 40
16.0
 40
17.0
 40
17.0
 40
17.0
 40
18.0
 40
18.0
 40
18.0
 40
18.0
 10
765.535787433401
 20
-332.8984786155058
 30
0.0
 10
756.5202309306617
 20
-371.5011826328192
 30
0.0
 10
765.3373499334506
 20
-405.7250195654544
 30
0.0
 10
765.3373499334506
 20
-405.7250195654544
 30
0.0
 10
765.3373499334506
 20
-405.7250195654544
 30
0.0
 10
789.7451624273486
 20
-405.7250195654544
 30
0.0
 10
789.7451624273486
 20
-405.7250195654544
 30
0.0
 10
788.4597111744129
 20
-402.3885737790681
 30
0.0
 10
787.1982894624887
 20
-399.1397626090916
 30
0.0
 10
785.9784672785507
 20
-395.9754854695825
 30
0.0
 10
785.9784672785507
 20
-395.9754854695825
 30
0.0
 10
773.6491595559386
 20
-395.9754854695825
 30
0.0
 10
773.6491595559386
 20
-395.9754854695825
 30
0.0
 10
773.6491595559386
 20
-395.9754854695825
 30
0.0
 10
773.6491595559386
 20
-392.1855359262592
 30
0.0
 10
773.6491595559386
 20
-392.1855359262592
 30
0.0
 10
773.6491595559386
 20
-392.1855359262592
 30
0.0
 10
784.5231728181922
 20
-392.1855359262592
 30
0.0
 10
784.5231728181922
 20
-392.1855359262592
 30
0.0
 10
782.5673059838306
 20
-387.0675882007611
 30
0.0
 10
780.7473481663584
 20
-382.1830456943848
 30
0.0
 10
779.1471874408488
 20
-377.5296690950727
 30
0.0
 10
779.1471874408488
 20
-377.5296690950727
 30
0.0
 10
769.6926396459035
 20
-377.5296690950727
 30
0.0
 10
769.6926396459035
 20
-377.5296690950727
 30
0.0
 10
769.6926396459035
 20
-377.5296690950727
 30
0.0
 10
769.6926396459035
 20
-373.7396334243602
 30
0.0
 10
769.6926396459035
 20
-373.7396334243602
 30
0.0
 10
769.6926396459035
 20
-373.7396334243602
 30
0.0
 10
777.8777558819195
 20
-373.7396334243602
 30
0.0
 10
777.8777558819195
 20
-373.7396334243602
 30
0.0
 10
776.3798283649329
 20
-369.1353924994052
 30
0.0
 10
775.1357182578239
 20
-364.7702412011271
 30
0.0
 10
774.2299165273627
 20
-360.6386673767451
 30
0.0
 10
774.2299165273627
 20
-360.6386673767451
 30
0.0
 10
767.7106762132393
 20
-360.6386673767451
 30
0.0
 10
767.7106762132393
 20
-360.6386673767451
 30
0.0
 10
767.7106762132393
 20
-360.6386673767451
 30
0.0
 10
767.7106762132393
 20
-356.8486532378807
 30
0.0
 10
767.7106762132393
 20
-356.8486532378807
 30
0.0
 10
767.7106762132393
 20
-356.8486532378807
 30
0.0
 10
773.4847423739031
 20
-356.8486532378807
 30
0.0
 10
773.4847423739031
 20
-356.8486532378807
 30
0.0
 10
773.136787729893
 20
-354.8248534269188
 30
0.0
 10
772.8814200270507
 20
-352.8599432169066
 30
0.0
 10
772.7348312141534
 20
-350.9562911109914
 30
0.0
 10
771.9875900034026
 20
-341.255785030246
 30
0.0
 10
772.7170889724043
 20
-333.1120745355914
 30
0.0
 10
774.0986583893747
 20
-326.465236497431
 30
0.0
 10
771.6822684160204
 20
-326.9214317352184
 30
0.0
 10
769.242193411207
 20
-327.3687558521314
 30
0.0
 10
766.778002737993
 20
-327.8067566793873
 30
0.0
 10
766.3548588850191
 20
-329.4560746111039
 30
0.0
 10
765.9445480127259
 20
-331.1481978542247
 30
0.0
 10
765.535787433401
 20
-332.8984786155058
 30
0.0
  0
SPLINE
  5
4D
330
1F
100
AcDbEntity
  8
Capa 1
 62
     1
420
 16711680
370
    35
100
AcDbSpline
210
0.0
220
0.0
230
1.0
 70
    11
 71
     3
 72
    59
 73
    55
 74
     0
 42
0.0000000001
 43
0.0000000001
 12
1.0
 22
0.0
 32
0.0
 13
1.0
 23
0.0
 33
0.0
 40
0.0
 40
0.0
 40
0.0
 40
0.0
 40
1.0
 40
1.0
 40
1.0
 40
2.0
 40
2.0
 40
2.0
 40
3.0
 40
3.0
 40
3.0
 40
4.0
 40
4.0
 40
4.0
 40
5.0
 40
5.0
 40
5.0
 40
6.0
 40
6.0
 40
6.0
 40
7.0
 40
7.0
 40
7.0
 40
8.0
 40
8.0
 40
8.0
 40
9.0
 40
9.0
 40
9.0
 40
10.0
 40
10.0
 40
10.0
 40
11.0
 40
11.0
 40
11.0
 40
12.0
 40
12.0
 40
12.0
 40
13.0
 40
13.0
 40
13.0
 40
14.0
 40
14.0
 40
14.0
 40
15.0
 40
15.0
 40
15.0
 40
16.0
 40
16.0
 40
16.0
 40
17.0
 40
17.0
 40
17.0
 40
18.0
 40
18.0
 40
18.0
 40
18.0
 10
793.80417392807
 20
-333.1457718758065
 30
0.0
 10
784.7886174253307
 20
-371.7484543612749
 30
0.0
 10
793.6057364281196
 20
-405.9723343575992
 30
0.0
 10
793.6057364281196
 20
-405.9723343575992
 30
0.0
 10
793.6057364281196
 20
-405.9723343575992
 30
0.0
 10
818.0135489220177
 20
-405.9723343575992
 30
0.0
 10
818.0135489220177
 20
-405.9723343575992
 30
0.0
 10
816.7280976690819
 20
-402.6358885712161
 30
0.0
 10
815.4666759571577
 20
-399.3870774012402
 30
0.0
 10
814.2468537732198
 20
-396.2228002617305
 30
0.0
 10
814.2468537732198
 20
-396.2228002617305
 30
0.0
 10
801.9175460506076
 20
-396.2228002617305
 30
0.0
 10
801.9175460506076
 20
-396.2228002617305
 30
0.0
 10
801.9175460506076
 20
-396.2228002617305
 30
0.0
 10
801.9175460506076
 20
-392.4328076547149
 30
0.0
 10
801.9175460506076
 20
-392.4328076547149
 30
0.0
 10
801.9175460506076
 20
-392.4328076547149
 30
0.0
 10
812.7915593128612
 20
-392.4328076547149
 30
0.0
 10
812.7915593128612
 20
-392.4328076547149
 30
0.0
 10
810.8356063511105
 20
-387.314859929213
 30
0.0
 10
809.0157346610274
 20
-382.4303174228405
 30
0.0
 10
807.4155739355178
 20
-377.7769408235245
 30
0.0
 10
807.4155739355178
 20
-377.7769408235245
 30
0.0
 10
797.9610261405725
 20
-377.7769408235245
 30
0.0
 10
797.9610261405725
 20
-377.7769408235245
 30
0.0
 10
797.9610261405725
 20
-377.7769408235245
 30
0.0
 10
797.9610261405725
 20
-373.9869482165083
 30
0.0
 10
797.9610261405725
 20
-373.9869482165083
 30
0.0
 10
797.9610261405725
 20
-373.9869482165083
 30
0.0
 10
806.1461423765885
 20
-373.9869482165083
 30
0.0
 10
806.1461423765885
 20
-373.9869482165083
 30
0.0
 10
804.6482148596019
 20
-369.3827072915539
 30
0.0
 10
803.4041047524929
 20
-365.017512929579
 30
0.0
 10
802.4983030220317
 20
-360.8859606370451
 30
0.0
 10
802.4983030220317
 20
-360.8859606370451
 30
0.0
 10
795.9789765805192
 20
-360.8859606370451
 30
0.0
 10
795.9789765805192
 20
-360.8859606370451
 30
0.0
 10
795.9789765805192
 20
-360.8859606370451
 30
0.0
 10
795.9789765805192
 20
-357.0959464981846
 30
0.0
 10
795.9789765805192
 20
-357.0959464981846
 30
0.0
 10
795.9789765805192
 20
-357.0959464981846
 30
0.0
 10
801.7531288685722
 20
-357.0959464981846
 30
0.0
 10
801.7531288685722
 20
-357.0959464981846
 30
0.0
 10
801.405174224562
 20
-355.0721466872188
 30
0.0
 10
801.1498065217197
 20
-353.1072364772065
 30
0.0
 10
801.0031315814333
 20
-351.203584371292
 30
0.0
 10
799.9837278273478
 20
-337.9685825774545
 30
0.0
 10
801.7116154679749
 20
-327.6294419211309
 30
0.0
 10
804.0969995819619
 20
-320.0416406467149
 30
0.0
 10
801.6993853790023
 20
-320.6217301308906
 30
0.0
 10
799.2717127179358
 20
-321.1926255164901
 30
0.0
 10
796.8104503758842
 20
-321.7527765105449
 30
0.0
 10
795.7028521773764
 20
-325.3505112576381
 30
0.0
 10
794.7500248935454
 20
-329.0957822188871
 30
0.0
 10
793.80417392807
 20
-333.1457718758065
 30
0.0
  0
SPLINE
  5
4E
330
1F
100
AcDbEntity
  8
Capa 1
 62
     1
420
 16711680
370
    35
100
AcDbSpline
210
0.0
220
0.0
230
1.0
 70
    11
 71
     3
 72
    59
 73
    55
 74
     0
 42
0.0000000001
 43
0.0000000001
 12
1.0
 22
0.0
 32
0.0
 13
1.0
 23
0.0
 33
0.0
 40
0.0
 40
0.0
 40
0.0
 40
0.0
 40
1.0
 40
1.0
 40
1.0
 40
2.0
 40
2.0
 40
2.0
 40
3.0
 40
3.0
 40
3.0
 40
4.0
 40
4.0
 40
4.0
 40
5.0
 40
5.0
 40
5.0
 40
6.0
 40
6.0
 40
6.0
 40
7.0
 40
7.0
 40
7.0
 40
8.0
 40
8.0
 40
8.0
 40
9.0
 40
9.0
 40
9.0
 40
10.0
 40
10.0
 40
10.0
 40
11.0
 40
11.0
 40
11.0
 40
12.0
 40
12.0
 40
12.0
 40
13.0
 40
13.0
 40
13.0
 40
14.0
 40
14.0
 40
14.0
 40
15.0
 40
15.0
 40
15.0
 40
16.0
 40
16.0
 40
16.0
 40
17.0
 40
17.0
 40
17.0
 40
18.0
 40
18.0
 40
18.0
 40
18.0
 10
822.072560422739
 20
-332.8984786155058
 30
0.0
 10
813.0570039199997
 20
-371.5011826328192
 30
0.0
 10
821.8741229227886
 20
-405.7250195654544
 30
0.0
 10
821.8741229227886
 20
-405.7250195654544
 30
0.0
 10
821.8741229227886
 20
-405.7250195654544
 30
0.0
 10
846.2819354166867
 20
-405.7250195654544
 30
0.0
 10
846.2819354166867
 20
-405.7250195654544
 30
0.0
 10
844.9964841637509
 20
-402.3885737790681
 30
0.0
 10
843.7350624518267
 20
-399.1397626090916
 30
0.0
 10
842.5152402678888
 20
-395.9754854695825
 30
0.0
 10
842.5152402678888
 20
-395.9754854695825
 30
0.0
 10
830.1859325452766
 20
-395.9754854695825
 30
0.0
 10
830.1859325452766
 20
-395.9754854695825
 30
0.0
 10
830.1859325452766
 20
-395.9754854695825
 30
0.0
 10
830.1859325452766
 20
-392.1855359262592
 30
0.0
 10
830.1859325452766
 20
-392.1855359262592
 30
0.0
 10
830.1859325452766
 20
-392.1855359262592
 30
0.0
 10
841.0599458075302
 20
-392.1855359262592
 30
0.0
 10
841.0599458075302
 20
-392.1855359262592
 30
0.0
 10
839.1039928457795
 20
-387.0675882007611
 30
0.0
 10
837.2841211556964
 20
-382.1830456943848
 30
0.0
 10
835.6839604301869
 20
-377.5296690950727
 30
0.0
 10
835.6839604301869
 20
-377.5296690950727
 30
0.0
 10
826.2294126352415
 20
-377.5296690950727
 30
0.0
 10
826.2294126352415
 20
-377.5296690950727
 30
0.0
 10
826.2294126352415
 20
-377.5296690950727
 30
0.0
 10
826.2294126352415
 20
-373.7396334243602
 30
0.0
 10
826.2294126352415
 20
-373.7396334243602
 30
0.0
 10
826.2294126352415
 20
-373.7396334243602
 30
0.0
 10
834.4145288712575
 20
-373.7396334243602
 30
0.0
 10
834.4145288712575
 20
-373.7396334243602
 30
0.0
 10
832.9166013542709
 20
-369.1353924994052
 30
0.0
 10
831.6724912471619
 20
-364.7702412011271
 30
0.0
 10
830.7666895167007
 20
-360.6386673767451
 30
0.0
 10
830.7666895167007
 20
-360.6386673767451
 30
0.0
 10
824.2473630751882
 20
-360.6386673767451
 30
0.0
 10
824.2473630751882
 20
-360.6386673767451
 30
0.0
 10
824.2473630751882
 20
-360.6386673767451
 30
0.0
 10
824.2473630751882
 20
-356.8486532378807
 30
0.0
 10
824.2473630751882
 20
-356.8486532378807
 30
0.0
 10
824.2473630751882
 20
-356.8486532378807
 30
0.0
 10
830.0215153632412
 20
-356.8486532378807
 30
0.0
 10
830.0215153632412
 20
-356.8486532378807
 30
0.0
 10
829.673560719231
 20
-354.8248534269188
 30
0.0
 10
829.4181930163887
 20
-352.8599432169066
 30
0.0
 10
829.2715180761023
 20
-350.9562911109914
 30
0.0
 10
827.7923663295103
 20
-331.7531996851281
 30
0.0
 10
832.0955489727506
 20
-318.6428457523163
 30
0.0
 10
835.8014381862339
 20
-311.1961642017149
 30
0.0
 10
833.214688241134
 20
-312.0286715257255
 30
0.0
 10
830.5719554943989
 20
-312.8475491907226
 30
0.0
 10
827.8745318568335
 20
-313.6523880916173
 30
0.0
 10
825.393718597905
 20
-319.6934060886965
 30
0.0
 10
823.7225027780104
 20
-325.8334490491297
 30
0.0
 10
822.072560422739
 20
-332.8984786155058
 30
0.0
  0
SPLINE
  5
4F
330
1F
100
AcDbEntity
  8
Capa 1
 62
     1
420
 16711680
370
    35
100
AcDbSpline
210
0.0
220
0.0
230
1.0
 70
    11
 71
     3
 72
    62
 73
    58
 74
     0
 42
0.0000000001
 43
0.0000000001
 12
1.0
 22
0.0
 32
0.0
 13
1.0
 23
0.0
 33
0.0
 40
0.0
 40
0.0
 40
0.0
 40
0.0
 40
1.0
 40
1.0
 40
1.0
 40
2.0
 40
2.0
 40
2.0
 40
3.0
 40
3.0
 40
3.0
 40
4.0
 40
4.0
 40
4.0
 40
5.0
 40
5.0
 40
5.0
 40
6.0
 40
6.0
 40
6.0
 40
7.0
 40
7.0
 40
7.0
 40
8.0
 40
8.0
 40
8.0
 40
9.0
 40
9.0
 40
9.0
 40
10.0
 40
10.0
 40
10.0
 40
11.0
 40
11.0
 40
11.0
 40
12.0
 40
12.0
 40
12.0
 40
13.0
 40
13.0
 40
13.0
 40
14.0
 40
14.0
 40
14.0
 40
15.0
 40
15.0
 40
15.0
 40
16.0
 40
16.0
 40
16.0
 40
17.0
 40
17.0
 40
17.0
 40
18.0
 40
18.0
 40
18.0
 40
19.0
 40
19.0
 40
19.0
 40
19.0
 10
850.340860790019
 20
-332.8984786155058
 30
0.0
 10
841.3253904146687
 20
-371.5011826328192
 30
0.0
 10
850.1424232900686
 20
-405.7250195654544
 30
0.0
 10
850.1424232900686
 20
-405.7250195654544
 30
0.0
 10
850.1424232900686
 20
-405.7250195654544
 30
0.0
 10
874.5502357839666
 20
-405.7250195654544
 30
0.0
 10
874.5502357839666
 20
-405.7250195654544
 30
0.0
 10
873.2648706584199
 20
-402.3885737790681
 30
0.0
 10
872.0034489464957
 20
-399.1397626090916
 30
0.0
 10
870.7835406351687
 20
-395.9754854695825
 30
0.0
 10
870.7835406351687
 20
-395.9754854695825
 30
0.0
 10
858.4542329125567
 20
-395.9754854695825
 30
0.0
 10
858.4542329125567
 20
-395.9754854695825
 30
0.0
 10
858.4542329125567
 20
-395.9754854695825
 30
0.0
 10
858.4542329125567
 20
-392.1855359262592
 30
0.0
 10
858.4542329125567
 20
-392.1855359262592
 30
0.0
 10
858.4542329125567
 20
-392.1855359262592
 30
0.0
 10
869.3283323021992
 20
-392.1855359262592
 30
0.0
 10
869.3283323021992
 20
-392.1855359262592
 30
0.0
 10
867.3723793404486
 20
-387.0675882007611
 30
0.0
 10
865.5524215229801
 20
-382.1830456943848
 30
0.0
 10
863.9522607974668
 20
-377.5296690950727
 30
0.0
 10
863.9522607974668
 20
-377.5296690950727
 30
0.0
 10
854.4977991299105
 20
-377.5296690950727
 30
0.0
 10
854.4977991299105
 20
-377.5296690950727
 30
0.0
 10
854.4977991299105
 20
-377.5296690950727
 30
0.0
 10
854.4977991299105
 20
-373.7396334243602
 30
0.0
 10
854.4977991299105
 20
-373.7396334243602
 30
0.0
 10
854.4977991299105
 20
-373.7396334243602
 30
0.0
 10
862.6829153659265
 20
-373.7396334243602
 30
0.0
 10
862.6829153659265
 20
-373.7396334243602
 30
0.0
 10
861.18498784894
 20
-369.1353924994052
 30
0.0
 10
859.940877741831
 20
-364.7702412011271
 30
0.0
 10
859.0349898839845
 20
-360.6386673767451
 30
0.0
 10
859.0349898839845
 20
-360.6386673767451
 30
0.0
 10
852.5157495698572
 20
-360.6386673767451
 30
0.0
 10
852.5157495698572
 20
-360.6386673767451
 30
0.0
 10
852.5157495698572
 20
-360.6386673767451
 30
0.0
 10
852.5157495698572
 20
-356.8486532378807
 30
0.0
 10
852.5157495698572
 20
-356.8486532378807
 30
0.0
 10
852.5157495698572
 20
-356.8486532378807
 30
0.0
 10
858.2899018579102
 20
-356.8486532378807
 30
0.0
 10
858.2899018579102
 20
-356.8486532378807
 30
0.0
 10
857.9418610865148
 20
-354.8248534269188
 30
0.0
 10
857.6865795110577
 20
-352.8599432169066
 30
0.0
 10
857.5399045707713
 20
-350.9562911109914
 30
0.0
 10
855.0633976811995
 20
-318.80605715093
 30
0.0
 10
868.7955482854053
 20
-303.7281661227984
 30
0.0
 10
868.7955482854053
 20
-303.7281661227984
 30
0.0
 10
868.7955482854053
 20
-303.7281661227984
 30
0.0
 10
868.4007403427956
 20
-298.5948015950019
 30
0.0
 10
868.4007403427956
 20
-298.5948015950019
 30
0.0
 10
866.5106748322024
 20
-299.4830979340268
 30
0.0
 10
864.5647987747443
 20
-300.361252773217
 30
0.0
 10
862.5647485907824
 20
-301.2290723259514
 30
0.0
 10
855.935868112839
 20
-311.7826486443851
 30
0.0
 10
853.1108898149341
 20
-321.0378976655088
 30
0.0
 10
850.340860790019
 20
-332.8984786155058
 30
0.0
  0
SPLINE
  5
50
330
1F
100
AcDbEntity
  8
Capa 1
 62
     1
420
 16711680
370
    35
100
AcDbSpline
210
0.0
220
0.0
230
1.0
 70
    11
 71
     3
 72
    59
 73
    55
 74
     0
 42
0.0000000001
 43
0.0000000001
 12
1.0
 22
0.0
 32
0.0
 13
1.0
 23
0.0
 33
0.0
 40
0.0
 40
0.0
 40
0.0
 40
0.0
 40
1.0
 40
1.0
 40
1.0
 40
2.0
 40
2.0
 40
2.0
 40
3.0
 40
3.0
 40
3.0
 40
4.0
 40
4.0
 40
4.0
 40
5.0
 40
5.0
 40
5.0
 40
6.0
 40
6.0
 40
6.0
 40
7.0
 40
7.0
 40
7.0
 40
8.0
 40
8.0
 40
8.0
 40
9.0
 40
9.0
 40
9.0
 40
10.0
 40
10.0
 40
10.0
 40
11.0
 40
11.0
 40
11.0
 40
12.0
 40
12.0
 40
12.0
 40
13.0
 40
13.0
 40
13.0
 40
14.0
 40
14.0
 40
14.0
 40
15.0
 40
15.0
 40
15.0
 40
16.0
 40
16.0
 40
16.0
 40
17.0
 40
17.0
 40
17.0
 40
18.0
 40
18.0
 40
18.0
 40
18.0
 10
594.1811735575088
 20
-341.662844593675
 30
0.0
 10
588.1907984640634
 20
-376.5888135180509
 30
0.0
 10
595.7271170928217
 20
-405.8486984933749
 30
0.0
 10
595.7271170928217
 20
-405.8486984933749
 30
0.0
 10
595.7271170928217
 20
-405.8486984933749
 30
0.0
 10
620.1349295867197
 20
-405.8486984933749
 30
0.0
 10
620.1349295867197
 20
-405.8486984933749
 30
0.0
 10
618.8494783337878
 20
-402.5122096432956
 30
0.0
 10
617.5880996855559
 20
-399.2633984733198
 30
0.0
 10
616.3682344379218
 20
-396.099164397503
 30
0.0
 10
616.3682344379218
 20
-396.099164397503
 30
0.0
 10
604.0389267153097
 20
-396.099164397503
 30
0.0
 10
604.0389267153097
 20
-396.099164397503
 30
0.0
 10
604.0389267153097
 20
-396.099164397503
 30
0.0
 10
604.0389267153097
 20
-392.3091287267944
 30
0.0
 10
604.0389267153097
 20
-392.3091287267944
 30
0.0
 10
604.0389267153097
 20
-392.3091287267944
 30
0.0
 10
614.9129399775671
 20
-392.3091287267944
 30
0.0
 10
614.9129399775671
 20
-392.3091287267944
 30
0.0
 10
612.9570731432017
 20
-387.1911810012925
 30
0.0
 10
611.1371153257332
 20
-382.3066384949201
 30
0.0
 10
609.5369546002199
 20
-377.6532618956041
 30
0.0
 10
609.5369546002199
 20
-377.6532618956041
 30
0.0
 10
600.0824068052746
 20
-377.6532618956041
 30
0.0
 10
600.0824068052746
 20
-377.6532618956041
 30
0.0
 10
600.0824068052746
 20
-377.6532618956041
 30
0.0
 10
600.0824068052746
 20
-373.8633123522807
 30
0.0
 10
600.0824068052746
 20
-373.8633123522807
 30
0.0
 10
600.0824068052746
 20
-373.8633123522807
 30
0.0
 10
608.2675230412945
 20
-373.8633123522807
 30
0.0
 10
608.2675230412945
 20
-373.8633123522807
 30
0.0
 10
606.7696385880001
 20
-369.2590283636334
 30
0.0
 10
605.525485417195
 20
-364.8938770653514
 30
0.0
 10
604.6196836867376
 20
-360.7623032409726
 30
0.0
 10
604.6196836867376
 20
-360.7623032409726
 30
0.0
 10
598.1004433726104
 20
-360.7623032409726
 30
0.0
 10
598.1004433726104
 20
-360.7623032409726
 30
0.0
 10
598.1004433726104
 20
-360.7623032409726
 30
0.0
 10
598.1004433726104
 20
-356.9722891021083
 30
0.0
 10
598.1004433726104
 20
-356.9722891021083
 30
0.0
 10
598.1004433726104
 20
-356.9722891021083
 30
0.0
 10
603.8745095332781
 20
-356.9722891021083
 30
0.0
 10
603.8745095332781
 20
-356.9722891021083
 30
0.0
 10
603.5265548892679
 20
-354.9484892911464
 30
0.0
 10
603.2711871864218
 20
-352.9835790811341
 30
0.0
 10
603.1245983735245
 20
-351.0799269752183
 30
0.0
 10
602.8681110146476
 20
-347.750479039039
 30
0.0
 10
602.787754162456
 20
-344.6070016635227
 30
0.0
 10
602.8456748303005
 20
-341.64152806536
 30
0.0
 10
600.4290695384798
 20
-341.6565357625677
 30
0.0
 10
598.0068229028006
 20
-341.6652776923615
 30
0.0
 10
595.5770831844391
 20
-341.6652776923615
 30
0.0
 10
595.1110909563661
 20
-341.6652776923615
 30
0.0
 10
594.6466920849545
 20
-341.6634044216914
 30
0.0
 10
594.1811735575088
 20
-341.662844593675
 30
0.0
  0
SPLINE
  5
51
330
1F
100
AcDbEntity
  8
Capa 1
 62
     1
420
 16711680
370
    35
100
AcDbSpline
210
0.0
220
0.0
230
1.0
 70
    11
 71
     3
 72
    56
 73
    52
 74
     0
 42
0.0000000001
 43
0.0000000001
 12
1.0
 22
0.0
 32
0.0
 13
1.0
 23
0.0
 33
0.0
 40
0.0
 40
0.0
 40
0.0
 40
0.0
 40
1.0
 40
1.0
 40
1.0
 40
2.0
 40
2.0
 40
2.0
 40
3.0
 40
3.0
 40
3.0
 40
4.0
 40
4.0
 40
4.0
 40
5.0
 40
5.0
 40
5.0
 40
6.0
 40
6.0
 40
6.0
 40
7.0
 40
7.0
 40
7.0
 40
8.0
 40
8.0
 40
8.0
 40
9.0
 40
9.0
 40
9.0
 40
10.0
 40
10.0
 40
10.0
 40
11.0
 40
11.0
 40
11.0
 40
12.0
 40
12.0
 40
12.0
 40
13.0
 40
13.0
 40
13.0
 40
14.0
 40
14.0
 40
14.0
 40
15.0
 40
15.0
 40
15.0
 40
16.0
 40
16.0
 40
16.0
 40
17.0
 40
17.0
 40
17.0
 40
17.0
 10
623.9955035874907
 20
-405.8486984933749
 30
0.0
 10
623.9955035874907
 20
-405.8486984933749
 30
0.0
 10
648.4033160813888
 20
-405.8486984933749
 30
0.0
 10
648.4033160813888
 20
-405.8486984933749
 30
0.0
 10
647.1178648284568
 20
-402.5122096432956
 30
0.0
 10
645.8564431165327
 20
-399.2633984733198
 30
0.0
 10
644.6366209325909
 20
-396.099164397503
 30
0.0
 10
644.6366209325909
 20
-396.099164397503
 30
0.0
 10
632.3073132099787
 20
-396.099164397503
 30
0.0
 10
632.3073132099787
 20
-396.099164397503
 30
0.0
 10
632.3073132099787
 20
-396.099164397503
 30
0.0
 10
632.3073132099787
 20
-392.3091287267944
 30
0.0
 10
632.3073132099787
 20
-392.3091287267944
 30
0.0
 10
632.3073132099787
 20
-392.3091287267944
 30
0.0
 10
643.1813264722362
 20
-392.3091287267944
 30
0.0
 10
643.1813264722362
 20
-392.3091287267944
 30
0.0
 10
641.2254165741779
 20
-387.1911810012925
 30
0.0
 10
639.4054587567061
 20
-382.3066384949201
 30
0.0
 10
637.805341094889
 20
-377.6532618956041
 30
0.0
 10
637.805341094889
 20
-377.6532618956041
 30
0.0
 10
628.3507932999436
 20
-377.6532618956041
 30
0.0
 10
628.3507932999436
 20
-377.6532618956041
 30
0.0
 10
628.3507932999436
 20
-377.6532618956041
 30
0.0
 10
628.3507932999436
 20
-373.8633123522807
 30
0.0
 10
628.3507932999436
 20
-373.8633123522807
 30
0.0
 10
628.3507932999436
 20
-373.8633123522807
 30
0.0
 10
636.5359095359635
 20
-373.8633123522807
 30
0.0
 10
636.5359095359635
 20
-373.8633123522807
 30
0.0
 10
635.0379820189768
 20
-369.2590283636334
 30
0.0
 10
633.793871911864
 20
-364.8938770653514
 30
0.0
 10
632.8880271177105
 20
-360.7623032409726
 30
0.0
 10
632.8880271177105
 20
-360.7623032409726
 30
0.0
 10
626.3687868035864
 20
-360.7623032409726
 30
0.0
 10
626.3687868035864
 20
-360.7623032409726
 30
0.0
 10
626.3687868035864
 20
-360.7623032409726
 30
0.0
 10
626.3687868035864
 20
-356.9722891021083
 30
0.0
 10
626.3687868035864
 20
-356.9722891021083
 30
0.0
 10
626.3687868035864
 20
-356.9722891021083
 30
0.0
 10
632.1428960279471
 20
-356.9722891021083
 30
0.0
 10
632.1428960279471
 20
-356.9722891021083
 30
0.0
 10
631.7948983202408
 20
-354.9484892911464
 30
0.0
 10
631.5395736810908
 20
-352.9835790811341
 30
0.0
 10
631.3929418045005
 20
-351.0799269752183
 30
0.0
 10
631.1214682802629
 20
-347.5556588893481
 30
0.0
 10
631.0449010331018
 20
-344.2367184943988
 30
0.0
 10
631.123535337554
 20
-341.1201343955142
 30
0.0
 10
628.2619098364241
 20
-341.2082857762431
 30
0.0
 10
625.3882265010959
 20
-341.2854128514191
 30
0.0
 10
622.5040356245408
 20
-341.3523984267604
 30
0.0
 10
616.4154322460698
 20
-376.4150945782053
 30
0.0
 10
623.9955035874907
 20
-405.8486984933749
 30
0.0
 10
623.9955035874907
 20
-405.8486984933749
 30
0.0
  0
SPLINE
  5
52
330
1F
100
AcDbEntity
  8
Capa 1
 62
     1
420
 16711680
370
    35
100
AcDbSpline
210
0.0
220
0.0
230
1.0
 70
    11
 71
     3
 72
    56
 73
    52
 74
     0
 42
0.0000000001
 43
0.0000000001
 12
1.0
 22
0.0
 32
0.0
 13
1.0
 23
0.0
 33
0.0
 40
0.0
 40
0.0
 40
0.0
 40
0.0
 40
1.0
 40
1.0
 40
1.0
 40
2.0
 40
2.0
 40
2.0
 40
3.0
 40
3.0
 40
3.0
 40
4.0
 40
4.0
 40
4.0
 40
5.0
 40
5.0
 40
5.0
 40
6.0
 40
6.0
 40
6.0
 40
7.0
 40
7.0
 40
7.0
 40
8.0
 40
8.0
 40
8.0
 40
9.0
 40
9.0
 40
9.0
 40
10.0
 40
10.0
 40
10.0
 40
11.0
 40
11.0
 40
11.0
 40
12.0
 40
12.0
 40
12.0
 40
13.0
 40
13.0
 40
13.0
 40
14.0
 40
14.0
 40
14.0
 40
15.0
 40
15.0
 40
15.0
 40
16.0
 40
16.0
 40
16.0
 40
17.0
 40
17.0
 40
17.0
 40
17.0
 10
652.2638900821597
 20
-406.0959702218267
 30
0.0
 10
652.2638900821597
 20
-406.0959702218267
 30
0.0
 10
676.6717025760578
 20
-406.0959702218267
 30
0.0
 10
676.6717025760578
 20
-406.0959702218267
 30
0.0
 10
675.3862513231259
 20
-402.7595244354436
 30
0.0
 10
674.1248296112017
 20
-399.5107132654646
 30
0.0
 10
672.9050074272599
 20
-396.3464361259587
 30
0.0
 10
672.9050074272599
 20
-396.3464361259587
 30
0.0
 10
660.5756997046477
 20
-396.3464361259587
 30
0.0
 10
660.5756997046477
 20
-396.3464361259587
 30
0.0
 10
660.5756997046477
 20
-396.3464361259587
 30
0.0
 10
660.5756997046477
 20
-392.5564865826354
 30
0.0
 10
660.5756997046477
 20
-392.5564865826354
 30
0.0
 10
660.5756997046477
 20
-392.5564865826354
 30
0.0
 10
671.4497129669052
 20
-392.5564865826354
 30
0.0
 10
671.4497129669052
 20
-392.5564865826354
 30
0.0
 10
669.4938030688469
 20
-387.4385388571334
 30
0.0
 10
667.6738452513752
 20
-382.553996350761
 30
0.0
 10
666.073727589558
 20
-377.900619751445
 30
0.0
 10
666.073727589558
 20
-377.900619751445
 30
0.0
 10
656.6191797946126
 20
-377.900619751445
 30
0.0
 10
656.6191797946126
 20
-377.900619751445
 30
0.0
 10
656.6191797946126
 20
-377.900619751445
 30
0.0
 10
656.6191797946126
 20
-374.1105840807364
 30
0.0
 10
656.6191797946126
 20
-374.1105840807364
 30
0.0
 10
656.6191797946126
 20
-374.1105840807364
 30
0.0
 10
664.8042960306325
 20
-374.1105840807364
 30
0.0
 10
664.8042960306325
 20
-374.1105840807364
 30
0.0
 10
663.3063685136458
 20
-369.5063431557782
 30
0.0
 10
662.062258406533
 20
-365.1411918574995
 30
0.0
 10
661.1564136123795
 20
-361.0096180331207
 30
0.0
 10
661.1564136123795
 20
-361.0096180331207
 30
0.0
 10
654.6371732982554
 20
-361.0096180331207
 30
0.0
 10
654.6371732982554
 20
-361.0096180331207
 30
0.0
 10
654.6371732982554
 20
-361.0096180331207
 30
0.0
 10
654.6371732982554
 20
-357.219603894257
 30
0.0
 10
654.6371732982554
 20
-357.219603894257
 30
0.0
 10
654.6371732982554
 20
-357.219603894257
 30
0.0
 10
660.4112825226161
 20
-357.219603894257
 30
0.0
 10
660.4112825226161
 20
-357.219603894257
 30
0.0
 10
660.0632848149098
 20
-355.195804083295
 30
0.0
 10
659.8079601757598
 20
-353.2308938732828
 30
0.0
 10
659.6613282991696
 20
-351.3272417673657
 30
0.0
 10
659.3464035081254
 20
-347.2389684868665
 30
0.0
 10
659.2946840121506
 20
-343.4282191795509
 30
0.0
 10
659.4423924810819
 20
-339.8879529315211
 30
0.0
 10
656.640582450314
 20
-340.0462120053747
 30
0.0
 10
653.8247336554451
 20
-340.1938343469177
 30
0.0
 10
650.9963963894434
 20
-340.3315520389406
 30
0.0
 10
644.4982142214728
 20
-375.9501789424708
 30
0.0
 10
652.2638900821597
 20
-406.0959702218267
 30
0.0
 10
652.2638900821597
 20
-406.0959702218267
 30
0.0
  0
SPLINE
  5
53
330
1F
100
AcDbEntity
  8
Capa 1
 62
     1
420
 16711680
370
    35
100
AcDbSpline
210
0.0
220
0.0
230
1.0
 70
    11
 71
     3
 72
    56
 73
    52
 74
     0
 42
0.0000000001
 43
0.0000000001
 12
1.0
 22
0.0
 32
0.0
 13
1.0
 23
0.0
 33
0.0
 40
0.0
 40
0.0
 40
0.0
 40
0.0
 40
1.0
 40
1.0
 40
1.0
 40
2.0
 40
2.0
 40
2.0
 40
3.0
 40
3.0
 40
3.0
 40
4.0
 40
4.0
 40
4.0
 40
5.0
 40
5.0
 40
5.0
 40
6.0
 40
6.0
 40
6.0
 40
7.0
 40
7.0
 40
7.0
 40
8.0
 40
8.0
 40
8.0
 40
9.0
 40
9.0
 40
9.0
 40
10.0
 40
10.0
 40
10.0
 40
11.0
 40
11.0
 40
11.0
 40
12.0
 40
12.0
 40
12.0
 40
13.0
 40
13.0
 40
13.0
 40
14.0
 40
14.0
 40
14.0
 40
15.0
 40
15.0
 40
15.0
 40
16.0
 40
16.0
 40
16.0
 40
17.0
 40
17.0
 40
17.0
 40
17.0
 10
680.5322335131358
 20
-405.8486984933749
 30
0.0
 10
680.5322335131358
 20
-405.8486984933749
 30
0.0
 10
704.9400460070339
 20
-405.8486984933749
 30
0.0
 10
704.9400460070339
 20
-405.8486984933749
 30
0.0
 10
703.6546378177949
 20
-402.5122096432956
 30
0.0
 10
702.3932161058707
 20
-399.2633984733198
 30
0.0
 10
701.173350858236
 20
-396.099164397503
 30
0.0
 10
701.173350858236
 20
-396.099164397503
 30
0.0
 10
688.8440431356239
 20
-396.099164397503
 30
0.0
 10
688.8440431356239
 20
-396.099164397503
 30
0.0
 10
688.8440431356239
 20
-396.099164397503
 30
0.0
 10
688.8440431356239
 20
-392.3091287267944
 30
0.0
 10
688.8440431356239
 20
-392.3091287267944
 30
0.0
 10
688.8440431356239
 20
-392.3091287267944
 30
0.0
 10
699.7180563978781
 20
-392.3091287267944
 30
0.0
 10
699.7180563978781
 20
-392.3091287267944
 30
0.0
 10
697.7621464998235
 20
-387.1911810012925
 30
0.0
 10
695.9421886823513
 20
-382.3066384949201
 30
0.0
 10
694.342071020534
 20
-377.6532618956041
 30
0.0
 10
694.342071020534
 20
-377.6532618956041
 30
0.0
 10
684.8875662892816
 20
-377.6532618956041
 30
0.0
 10
684.8875662892816
 20
-377.6532618956041
 30
0.0
 10
684.8875662892816
 20
-377.6532618956041
 30
0.0
 10
684.8875662892816
 20
-373.8633123522807
 30
0.0
 10
684.8875662892816
 20
-373.8633123522807
 30
0.0
 10
684.8875662892816
 20
-373.8633123522807
 30
0.0
 10
693.0726825253015
 20
-373.8633123522807
 30
0.0
 10
693.0726825253015
 20
-373.8633123522807
 30
0.0
 10
691.5747550083148
 20
-369.2590283636334
 30
0.0
 10
690.330644901202
 20
-364.8938770653514
 30
0.0
 10
689.4247570433556
 20
-360.7623032409726
 30
0.0
 10
689.4247570433556
 20
-360.7623032409726
 30
0.0
 10
682.9055167292322
 20
-360.7623032409726
 30
0.0
 10
682.9055167292322
 20
-360.7623032409726
 30
0.0
 10
682.9055167292322
 20
-360.7623032409726
 30
0.0
 10
682.9055167292322
 20
-356.9722891021083
 30
0.0
 10
682.9055167292322
 20
-356.9722891021083
 30
0.0
 10
682.9055167292322
 20
-356.9722891021083
 30
0.0
 10
688.6796690172852
 20
-356.9722891021083
 30
0.0
 10
688.6796690172852
 20
-356.9722891021083
 30
0.0
 10
688.3316282458859
 20
-354.9484892911464
 30
0.0
 10
688.0763466704288
 20
-352.9835790811341
 30
0.0
 10
687.9296717301463
 20
-351.0799269752183
 30
0.0
 10
687.5625106788038
 20
-346.3129483522781
 30
0.0
 10
687.5538118127055
 20
-341.9243488728522
 30
0.0
 10
687.8016864328692
 20
-337.9015324065728
 30
0.0
 10
685.0669696366779
 20
-338.130825042963
 30
0.0
 10
682.3168360381882
 20
-338.3503422209137
 30
0.0
 10
679.5511995100187
 20
-338.5596317716427
 30
0.0
 10
672.5440044840987
 20
-374.8383174382993
 30
0.0
 10
680.5322335131358
 20
-405.8486984933749
 30
0.0
 10
680.5322335131358
 20
-405.8486984933749
 30
0.0
  0
SPLINE
  5
54
330
1F
100
AcDbEntity
  8
Capa 1
 62
     1
420
 16711680
370
    35
100
AcDbSpline
210
0.0
220
0.0
230
1.0
 70
    11
 71
     3
 72
    56
 73
    52
 74
     0
 42
0.0000000001
 43
0.0000000001
 12
1.0
 22
0.0
 32
0.0
 13
1.0
 23
0.0
 33
0.0
 40
0.0
 40
0.0
 40
0.0
 40
0.0
 40
1.0
 40
1.0
 40
1.0
 40
2.0
 40
2.0
 40
2.0
 40
3.0
 40
3.0
 40
3.0
 40
4.0
 40
4.0
 40
4.0
 40
5.0
 40
5.0
 40
5.0
 40
6.0
 40
6.0
 40
6.0
 40
7.0
 40
7.0
 40
7.0
 40
8.0
 40
8.0
 40
8.0
 40
9.0
 40
9.0
 40
9.0
 40
10.0
 40
10.0
 40
10.0
 40
11.0
 40
11.0
 40
11.0
 40
12.0
 40
12.0
 40
12.0
 40
13.0
 40
13.0
 40
13.0
 40
14.0
 40
14.0
 40
14.0
 40
15.0
 40
15.0
 40
15.0
 40
16.0
 40
16.0
 40
16.0
 40
17.0
 40
17.0
 40
17.0
 40
17.0
 10
708.8005769441125
 20
-405.8486984933749
 30
0.0
 10
708.8005769441125
 20
-405.8486984933749
 30
0.0
 10
733.2083894380106
 20
-405.8486984933749
 30
0.0
 10
733.2083894380106
 20
-405.8486984933749
 30
0.0
 10
731.9229381850748
 20
-402.5122096432956
 30
0.0
 10
730.6616026005397
 20
-399.2633984733198
 30
0.0
 10
729.4416942892127
 20
-396.099164397503
 30
0.0
 10
729.4416942892127
 20
-396.099164397503
 30
0.0
 10
717.1123865666005
 20
-396.099164397503
 30
0.0
 10
717.1123865666005
 20
-396.099164397503
 30
0.0
 10
717.1123865666005
 20
-396.099164397503
 30
0.0
 10
717.1123865666005
 20
-392.3091287267944
 30
0.0
 10
717.1123865666005
 20
-392.3091287267944
 30
0.0
 10
717.1123865666005
 20
-392.3091287267944
 30
0.0
 10
727.9863998288541
 20
-392.3091287267944
 30
0.0
 10
727.9863998288541
 20
-392.3091287267944
 30
0.0
 10
726.0305329944925
 20
-387.1911810012925
 30
0.0
 10
724.2105751770204
 20
-382.3066384949201
 30
0.0
 10
722.6104144515108
 20
-377.6532618956041
 30
0.0
 10
722.6104144515108
 20
-377.6532618956041
 30
0.0
 10
713.1559097202577
 20
-377.6532618956041
 30
0.0
 10
713.1559097202577
 20
-377.6532618956041
 30
0.0
 10
713.1559097202577
 20
-377.6532618956041
 30
0.0
 10
713.1559097202577
 20
-373.8633123522807
 30
0.0
 10
713.1559097202577
 20
-373.8633123522807
 30
0.0
 10
713.1559097202577
 20
-373.8633123522807
 30
0.0
 10
721.3410259562744
 20
-373.8633123522807
 30
0.0
 10
721.3410259562744
 20
-373.8633123522807
 30
0.0
 10
719.8431415029838
 20
-369.2590283636334
 30
0.0
 10
718.5989883321782
 20
-364.8938770653514
 30
0.0
 10
717.6931435380246
 20
-360.7623032409726
 30
0.0
 10
717.6931435380246
 20
-360.7623032409726
 30
0.0
 10
711.1739032239012
 20
-360.7623032409726
 30
0.0
 10
711.1739032239012
 20
-360.7623032409726
 30
0.0
 10
711.1739032239012
 20
-360.7623032409726
 30
0.0
 10
711.1739032239012
 20
-356.9722891021083
 30
0.0
 10
711.1739032239012
 20
-356.9722891021083
 30
0.0
 10
711.1739032239012
 20
-356.9722891021083
 30
0.0
 10
716.948012448258
 20
-356.9722891021083
 30
0.0
 10
716.948012448258
 20
-356.9722891021083
 30
0.0
 10
716.6000147405549
 20
-354.9484892911464
 30
0.0
 10
716.3446901014049
 20
-352.9835790811341
 30
0.0
 10
716.1980582248153
 20
-351.0799269752183
 30
0.0
 10
715.7435209392288
 20
-345.179210491776
 30
0.0
 10
715.8364954536383
 20
-339.8558920116615
 30
0.0
 10
716.2888364908516
 20
-335.0930259714568
 30
0.0
 10
713.6588936611042
 20
-335.3924478328186
 30
0.0
 10
711.0122421182539
 20
-335.6830201051526
 30
0.0
 10
708.3470301234794
 20
-335.9633001547245
 30
0.0
 10
700.4301145709862
 20
-373.3459451377852
 30
0.0
 10
708.8005769441125
 20
-405.8486984933749
 30
0.0
 10
708.8005769441125
 20
-405.8486984933749
 30
0.0
  0
SPLINE
  5
55
330
1F
100
AcDbEntity
  8
Capa 1
 62
     1
420
 16711680
370
    35
100
AcDbSpline
210
0.0
220
0.0
230
1.0
 70
    11
 71
     3
 72
   245
 73
   241
 74
     0
 42
0.0000000001
 43
0.0000000001
 12
1.0
 22
0.0
 32
0.0
 13
1.0
 23
0.0
 33
0.0
 40
0.0
 40
0.0
 40
0.0
 40
0.0
 40
1.0
 40
1.0
 40
1.0
 40
2.0
 40
2.0
 40
2.0
 40
3.0
 40
3.0
 40
3.0
 40
4.0
 40
4.0
 40
4.0
 40
5.0
 40
5.0
 40
5.0
 40
6.0
 40
6.0
 40
6.0
 40
7.0
 40
7.0
 40
7.0
 40
8.0
 40
8.0
 40
8.0
 40
9.0
 40
9.0
 40
9.0
 40
10.0
 40
10.0
 40
10.0
 40
11.0
 40
11.0
 40
11.0
 40
12.0
 40
12.0
 40
12.0
 40
13.0
 40
13.0
 40
13.0
 40
14.0
 40
14.0
 40
14.0
 40
15.0
 40
15.0
 40
15.0
 40
16.0
 40
16.0
 40
16.0
 40
17.0
 40
17.0
 40
17.0
 40
18.0
 40
18.0
 40
18.0
 40
19.0
 40
19.0
 40
19.0
 40
20.0
 40
20.0
 40
20.0
 40
21.0
 40
21.0
 40
21.0
 40
22.0
 40
22.0
 40
22.0
 40
23.0
 40
23.0
 40
23.0
 40
24.0
 40
24.0
 40
24.0
 40
25.0
 40
25.0
 40
25.0
 40
26.0
 40
26.0
 40
26.0
 40
27.0
 40
27.0
 40
27.0
 40
28.0
 40
28.0
 40
28.0
 40
29.0
 40
29.0
 40
29.0
 40
30.0
 40
30.0
 40
30.0
 40
31.0
 40
31.0
 40
31.0
 40
32.0
 40
32.0
 40
32.0
 40
33.0
 40
33.0
 40
33.0
 40
34.0
 40
34.0
 40
34.0
 40
35.0
 40
35.0
 40
35.0
 40
36.0
 40
36.0
 40
36.0
 40
37.0
 40
37.0
 40
37.0
 40
38.0
 40
38.0
 40
38.0
 40
39.0
 40
39.0
 40
39.0
 40
40.0
 40
40.0
 40
40.0
 40
41.0
 40
41.0
 40
41.0
 40
42.0
 40
42.0
 40
42.0
 40
43.0
 40
43.0
 40
43.0
 40
44.0
 40
44.0
 40
44.0
 40
45.0
 40
45.0
 40
45.0
 40
46.0
 40
46.0
 40
46.0
 40
47.0
 40
47.0
 40
47.0
 40
48.0
 40
48.0
 40
48.0
 40
49.0
 40
49.0
 40
49.0
 40
50.0
 40
50.0
 40
50.0
 40
51.0
 40
51.0
 40
51.0
 40
52.0
 40
52.0
 40
52.0
 40
53.0
 40
53.0
 40
53.0
 40
54.0
 40
54.0
 40
54.0
 40
55.0
 40
55.0
 40
55.0
 40
56.0
 40
56.0
 40
56.0
 40
57.0
 40
57.0
 40
57.0
 40
58.0
 40
58.0
 40
58.0
 40
59.0
 40
59.0
 40
59.0
 40
60.0
 40
60.0
 40
60.0
 40
61.0
 40
61.0
 40
61.0
 40
62.0
 40
62.0
 40
62.0
 40
63.0
 40
63.0
 40
63.0
 40
64.0
 40
64.0
 40
64.0
 40
65.0
 40
65.0
 40
65.0
 40
66.0
 40
66.0
 40
66.0
 40
67.0
 40
67.0
 40
67.0
 40
68.0
 40
68.0
 40
68.0
 40
69.0
 40
69.0
 40
69.0
 40
70.0
 40
70.0
 40
70.0
 40
71.0
 40
71.0
 40
71.0
 40
72.0
 40
72.0
 40
72.0
 40
73.0
 40
73.0
 40
73.0
 40
74.0
 40
74.0
 40
74.0
 40
75.0
 40
75.0
 40
75.0
 40
76.0
 40
76.0
 40
76.0
 40
77.0
 40
77.0
 40
77.0
 40
78.0
 40
78.0
 40
78.0
 40
79.0
 40
79.0
 40
79.0
 40
80.0
 40
80.0
 40
80.0
 40
80.0
 10
456.2100568819561
 20
-265.136242655065
 30
0.0
 10
456.2100568819561
 20
-265.136242655065
 30
0.0
 10
456.2100568819561
 20
-261.3262469623868
 30
0.0
 10
456.2100568819561
 20
-261.3262469623868
 30
0.0
 10
456.2100568819561
 20
-261.3262469623868
 30
0.0
 10
466.9586040730094
 20
-261.3262469623868
 30
0.0
 10
466.9586040730094
 20
-261.3262469623868
 30
0.0
 10
466.8377242851697
 20
-259.150130867282
 30
0.0
 10
466.5109785102418
 20
-257.0292008954815
 30
0.0
 10
465.9977454103251
 20
-254.9820174989121
 30
0.0
 10
465.9977454103251
 20
-254.9820174989121
 30
0.0
 10
455.7314469916693
 20
-258.1885185899616
 30
0.0
 10
455.7314469916693
 20
-258.1885185899616
 30
0.0
 10
455.7314469916693
 20
-258.1885185899616
 30
0.0
 10
454.5955774783344
 20
-254.551768136498
 30
0.0
 10
454.5955774783344
 20
-254.551768136498
 30
0.0
 10
454.5955774783344
 20
-254.551768136498
 30
0.0
 10
464.862651043476
 20
-251.3450301951339
 30
0.0
 10
464.862651043476
 20
-251.3450301951339
 30
0.0
 10
464.0471323465767
 20
-249.1734357878534
 30
0.0
 10
463.0151970576662
 20
-247.108014917059
 30
0.0
 10
461.7921450967064
 20
-245.1751225632128
 30
0.0
 10
461.7921450967064
 20
-245.1751225632128
 30
0.0
 10
453.0387172967054
 20
-251.4184968563569
 30
0.0
 10
453.0387172967054
 20
-251.4184968563569
 30
0.0
 10
453.0387172967054
 20
-251.4184968563569
 30
0.0
 10
450.8263200397706
 20
-248.3166405406718
 30
0.0
 10
450.8263200397706
 20
-248.3166405406718
 30
0.0
 10
450.8263200397706
 20
-248.3166405406718
 30
0.0
 10
459.576711849379
 20
-242.0754194322061
 30
0.0
 10
459.576711849379
 20
-242.0754194322061
 30
0.0
 10
458.1489135573618
 20
-240.2972979930347
 30
0.0
 10
456.5461259465422
 20
-238.665937621535
 30
0.0
 10
454.7926584719388
 20
-237.2090713363632
 30
0.0
 10
454.7926584719388
 20
-237.2090713363632
 30
0.0
 10
448.4048270187292
 20
-245.8541293515088
 30
0.0
 10
448.4048270187292
 20
-245.8541293515088
 30
0.0
 10
448.4048270187292
 20
-245.8541293515088
 30
0.0
 10
445.3405653075257
 20
-243.5899480030623
 30
0.0
 10
445.3405653075257
 20
-243.5899480030623
 30
0.0
 10
445.3405653075257
 20
-243.5899480030623
 30
0.0
 10
451.7294087575362
 20
-234.9435334815693
 30
0.0
 10
451.7294087575362
 20
-234.9435334815693
 30
0.0
 10
449.8495708741616
 20
-233.7094141513657
 30
0.0
 10
447.8400682094635
 20
-232.6569159487751
 30
0.0
 10
445.7245427312048
 20
-231.8125876408807
 30
0.0
 10
445.7245427312048
 20
-231.8125876408807
 30
0.0
 10
442.3093334492879
 20
-242.0129124809956
 30
0.0
 10
442.3093334492879
 20
-242.0129124809956
 30
0.0
 10
442.3093334492879
 20
-242.0129124809956
 30
0.0
 10
438.6964402820619
 20
-240.803274860584
 30
0.0
 10
438.6964402820619
 20
-240.803274860584
 30
0.0
 10
438.6964402820619
 20
-240.803274860584
 30
0.0
 10
442.1111327996525
 20
-230.6045003134375
 30
0.0
 10
442.1111327996525
 20
-230.6045003134375
 30
0.0
 10
439.9833987642696
 20
-230.0244538929554
 30
0.0
 10
437.7724441410698
 20
-229.647065214393
 30
0.0
 10
435.4996500539095
 20
-229.4941245066947
 30
0.0
 10
435.4996500539095
 20
-229.4941245066947
 30
0.0
 10
435.372762880819
 20
-240.2414874461737
 30
0.0
 10
435.372762880819
 20
-240.2414874461737
 30
0.0
 10
435.372762880819
 20
-240.2414874461737
 30
0.0
 10
431.5630255703036
 20
-240.1965074182444
 30
0.0
 10
431.5630255703036
 20
-240.1965074182444
 30
0.0
 10
431.5630255703036
 20
-240.1965074182444
 30
0.0
 10
431.689912743394
 20
-229.4495320520075
 30
0.0
 10
431.689912743394
 20
-229.4495320520075
 30
0.0
 10
429.1596193005597
 20
-229.5604856584793
 30
0.0
 10
426.7020173724605
 20
-229.9497599164658
 30
0.0
 10
424.3459381019463
 20
-230.5870164538499
 30
0.0
 10
424.3459381019463
 20
-230.5870164538499
 30
0.0
 10
427.7403906835629
 20
-240.7924443416522
 30
0.0
 10
427.7403906835629
 20
-240.7924443416522
 30
0.0
 10
427.7403906835629
 20
-240.7924443416522
 30
0.0
 10
424.1251290131898
 20
-241.9949118570851
 30
0.0
 10
424.1251290131898
 20
-241.9949118570851
 30
0.0
 10
424.1251290131898
 20
-241.9949118570851
 30
0.0
 10
420.7299228169354
 20
-231.7872446572173
 30
0.0
 10
420.7299228169354
 20
-231.7872446572173
 30
0.0
 10
418.5152862479352
 20
-232.6660239199642
 30
0.0
 10
416.4162111006205
 20
-233.772739312754
 30
0.0
 10
414.4600858840957
 20
-235.0771170590099
 30
0.0
 10
414.4600858840957
 20
-235.0771170590099
 30
0.0
 10
420.9110702439186
 20
-243.6776902787022
 30
0.0
 10
420.9110702439186
 20
-243.6776902787022
 30
0.0
 10
420.9110702439186
 20
-243.6776902787022
 30
0.0
 10
417.86317273627
 20
-245.9638125790204
 30
0.0
 10
417.86317273627
 20
-245.9638125790204
 30
0.0
 10
417.86317273627
 20
-245.9638125790204
 30
0.0
 10
411.4142123700456
 20
-237.3659739038695
 30
0.0
 10
411.4142123700456
 20
-237.3659739038695
 30
0.0
 10
409.813211902509
 20
-238.7156331239097
 30
0.0
 10
408.3387756303631
 20
-240.2102662683386
 30
0.0
 10
407.0123708048458
 20
-241.831248289689
 30
0.0
 10
407.0123708048458
 20
-241.831248289689
 30
0.0
 10
415.7051433924649
 20
-248.1538167153002
 30
0.0
 10
415.7051433924649
 20
-248.1538167153002
 30
0.0
 10
415.7051433924649
 20
-248.1538167153002
 30
0.0
 10
413.4640872474619
 20
-251.2350024580737
 30
0.0
 10
413.4640872474619
 20
-251.2350024580737
 30
0.0
 10
413.4640872474619
 20
-251.2350024580737
 30
0.0
 10
404.7686447108432
 20
-244.9105176980989
 30
0.0
 10
404.7686447108432
 20
-244.9105176980989
 30
0.0
 10
403.561913889749
 20
-246.779072893758
 30
0.0
 10
402.5338973969504
 20
-248.7737401160241
 30
0.0
 10
401.7099166842642
 20
-250.8711573111378
 30
0.0
 10
401.7099166842642
 20
-250.8711573111378
 30
0.0
 10
411.9293402724757
 20
-254.2319771480797
 30
0.0
 10
411.9293402724757
 20
-254.2319771480797
 30
0.0
 10
411.9293402724757
 20
-254.2319771480797
 30
0.0
 10
410.7390813141699
 20
-257.8512652738025
 30
0.0
 10
410.7390813141699
 20
-257.8512652738025
 30
0.0
 10
410.7390813141699
 20
-257.8512652738025
 30
0.0
 10
400.5221123564907
 20
-254.4912636470383
 30
0.0
 10
400.5221123564907
 20
-254.4912636470383
 30
0.0
 10
399.9355417864343
 20
-256.6896221398698
 30
0.0
 10
399.5643758115912
 20
-258.9756798446477
 30
0.0
 10
399.4338066927003
 20
-261.3262469623868
 30
0.0
 10
399.4338066927003
 20
-261.3262469623868
 30
0.0
 10
410.1823538837535
 20
-261.3262469623868
 30
0.0
 10
410.1823538837535
 20
-261.3262469623868
 30
0.0
 10
410.1823538837535
 20
-261.3262469623868
 30
0.0
 10
410.1823538837535
 20
-265.136242655065
 30
0.0
 10
410.1823538837535
 20
-265.136242655065
 30
0.0
 10
410.1823538837535
 20
-265.136242655065
 30
0.0
 10
399.4338066927003
 20
-265.136242655065
 30
0.0
 10
399.4338066927003
 20
-265.136242655065
 30
0.0
 10
399.5546649486918
 20
-267.3123372183231
 30
0.0
 10
399.8814322554678
 20
-269.4332887219703
 30
0.0
 10
400.3946653553845
 20
-271.4804721185397
 30
0.0
 10
400.3946653553845
 20
-271.4804721185397
 30
0.0
 10
410.6609637740403
 20
-268.2739710274902
 30
0.0
 10
410.6609637740403
 20
-268.2739710274902
 30
0.0
 10
410.6609637740403
 20
-268.2739710274902
 30
0.0
 10
411.7968332873752
 20
-271.9107214809538
 30
0.0
 10
411.7968332873752
 20
-271.9107214809538
 30
0.0
 10
411.7968332873752
 20
-271.9107214809538
 30
0.0
 10
401.5297597222336
 20
-275.1174594223179
 30
0.0
 10
401.5297597222336
 20
-275.1174594223179
 30
0.0
 10
402.345278419133
 20
-277.2890538295984
 30
0.0
 10
403.3772352398915
 20
-279.3544747003928
 30
0.0
 10
404.6002872008481
 20
-281.287367054239
 30
0.0
 10
404.6002872008481
 20
-281.287367054239
 30
0.0
 10
413.3536934690077
 20
-275.043992761095
 30
0.0
 10
413.3536934690077
 20
-275.043992761095
 30
0.0
 10
413.3536934690077
 20
-275.043992761095
 30
0.0
 10
415.566090725939
 20
-278.1458490767801
 30
0.0
 10
415.566090725939
 20
-278.1458490767801
 30
0.0
 10
415.566090725939
 20
-278.1458490767801
 30
0.0
 10
406.8157204481787
 20
-284.387048653399
 30
0.0
 10
406.8157204481787
 20
-284.387048653399
 30
0.0
 10
408.2435402720405
 20
-286.1651700925703
 30
0.0
 10
409.8463063510123
 20
-287.7965519959168
 30
0.0
 10
411.5997738256189
 20
-289.2534182810887
 30
0.0
 10
411.5997738256189
 20
-289.2534182810887
 30
0.0
 10
417.9876052788285
 20
-280.6083817977898
 30
0.0
 10
417.9876052788285
 20
-280.6083817977898
 30
0.0
 10
417.9876052788285
 20
-280.6083817977898
 30
0.0
 10
421.0518454581839
 20
-282.8725416143896
 30
0.0
 10
421.0518454581839
 20
-282.8725416143896
 30
0.0
 10
421.0518454581839
 20
-282.8725416143896
 30
0.0
 10
414.6630020081769
 20
-291.5189346040357
 30
0.0
 10
414.6630020081769
 20
-291.5189346040357
 30
0.0
 10
416.5428614233961
 20
-292.7530539342393
 30
0.0
 10
418.5523640880942
 20
-293.8055736686767
 30
0.0
 10
420.6678895663529
 20
-294.6499019765711
 30
0.0
 10
420.6678895663529
 20
-294.6499019765711
 30
0.0
 10
424.0830988482698
 20
-284.4495771364563
 30
0.0
 10
424.0830988482698
 20
-284.4495771364563
 30
0.0
 10
424.0830988482698
 20
-284.4495771364563
 30
0.0
 10
427.6959704836513
 20
-285.6592147568679
 30
0.0
 10
427.6959704836513
 20
-285.6592147568679
 30
0.0
 10
427.6959704836513
 20
-285.6592147568679
 30
0.0
 10
424.2812779660572
 20
-295.8579893040143
 30
0.0
 10
424.2812779660572
 20
-295.8579893040143
 30
0.0
 10
426.4089904695956
 20
-296.4380357244965
 30
0.0
 10
428.6199666246398
 20
-296.8154244030588
 30
0.0
 10
430.8927607118001
 20
-296.9683651107571
 30
0.0
 10
430.8927607118001
 20
-296.9683651107571
 30
0.0
 10
431.0196478848906
 20
-286.2210021712782
 30
0.0
 10
431.0196478848906
 20
-286.2210021712782
 30
0.0
 10
431.0196478848906
 20
-286.2210021712782
 30
0.0
 10
434.8293851954096
 20
-286.2659821992075
 30
0.0
 10
434.8293851954096
 20
-286.2659821992075
 30
0.0
 10
434.8293851954096
 20
-286.2659821992075
 30
0.0
 10
434.7024980223156
 20
-297.0129575654444
 30
0.0
 10
434.7024980223156
 20
-297.0129575654444
 30
0.0
 10
437.2327699333054
 20
-296.9020039589725
 30
0.0
 10
439.6904149250971
 20
-296.5127297009861
 30
0.0
 10
442.0464726637633
 20
-295.8754946954488
 30
0.0
 10
442.0464726637633
 20
-295.8754946954488
 30
0.0
 10
438.6520200821467
 20
-285.6700668076464
 30
0.0
 10
438.6520200821467
 20
-285.6700668076464
 30
0.0
 10
438.6520200821467
 20
-285.6700668076464
 30
0.0
 10
442.2672817525233
 20
-284.4675777603667
 30
0.0
 10
442.2672817525233
 20
-284.4675777603667
 30
0.0
 10
442.2672817525233
 20
-284.4675777603667
 30
0.0
 10
445.6624879487777
 20
-294.6752449602345
 30
0.0
 10
445.6624879487777
 20
-294.6752449602345
 30
0.0
 10
447.8771245177744
 20
-293.7964872293344
 30
0.0
 10
449.9761996650926
 20
-292.6897933683915
 30
0.0
 10
451.932346413462
 20
-291.3853940902887
 30
0.0
 10
451.932346413462
 20
-291.3853940902887
 30
0.0
 10
445.481340521791
 20
-282.7847993387496
 30
0.0
 10
445.481340521791
 20
-282.7847993387496
 30
0.0
 10
445.481340521791
 20
-282.7847993387496
 30
0.0
 10
448.5292380294396
 20
-280.4986770384314
 30
0.0
 10
448.5292380294396
 20
-280.4986770384314
 30
0.0
 10
448.5292380294396
 20
-280.4986770384314
 30
0.0
 10
454.9781983956675
 20
-289.0965372454291
 30
0.0
 10
454.9781983956675
 20
-289.0965372454291
 30
0.0
 10
456.5791988632006
 20
-287.7468995572357
 30
0.0
 10
458.0536351353501
 20
-286.2522448809601
 30
0.0
 10
459.3800399608638
 20
-284.6312628596096
 30
0.0
 10
459.3800399608638
 20
-284.6312628596096
 30
0.0
 10
450.6872673732482
 20
-278.3086944339984
 30
0.0
 10
450.6872673732482
 20
-278.3086944339984
 30
0.0
 10
450.6872673732482
 20
-278.3086944339984
 30
0.0
 10
452.9283235182477
 20
-275.2274871593781
 30
0.0
 10
452.9283235182477
 20
-275.2274871593781
 30
0.0
 10
452.9283235182477
 20
-275.2274871593781
 30
0.0
 10
461.6237660548664
 20
-281.5519934511998
 30
0.0
 10
461.6237660548664
 20
-281.5519934511998
 30
0.0
 10
462.8304968759607
 20
-279.6834382555406
 30
0.0
 10
463.8585133687592
 20
-277.6887495014278
 30
0.0
 10
464.6824940814454
 20
-275.5913323063141
 30
0.0
 10
464.6824940814454
 20
-275.5913323063141
 30
0.0
 10
454.4630704932339
 20
-272.2305340012189
 30
0.0
 10
454.4630704932339
 20
-272.2305340012189
 30
0.0
 10
454.4630704932339
 20
-272.2305340012189
 30
0.0
 10
455.6533294515397
 20
-268.6112243436494
 30
0.0
 10
455.6533294515397
 20
-268.6112243436494
 30
0.0
 10
455.6533294515397
 20
-268.6112243436494
 30
0.0
 10
465.870319941067
 20
-271.9712259704136
 30
0.0
 10
465.870319941067
 20
-271.9712259704136
 30
0.0
 10
466.4568905111234
 20
-269.7728674775821
 30
0.0
 10
466.8280564859664
 20
-267.4868097728042
 30
0.0
 10
466.9586040730094
 20
-265.136242655065
 30
0.0
 10
466.9586040730094
 20
-265.136242655065
 30
0.0
 10
456.2100568819561
 20
-265.136242655065
 30
0.0
 10
456.2100568819561
 20
-265.136242655065
 30
0.0
  0
SPLINE
  5
56
330
1F
100
AcDbEntity
  8
Capa 1
 62
     1
420
 16711680
370
    35
100
AcDbSpline
210
0.0
220
0.0
230
1.0
 70
    11
 71
     3
 72
   245
 73
   241
 74
     0
 42
0.0000000001
 43
0.0000000001
 12
1.0
 22
0.0
 32
0.0
 13
1.0
 23
0.0
 33
0.0
 40
0.0
 40
0.0
 40
0.0
 40
0.0
 40
1.0
 40
1.0
 40
1.0
 40
2.0
 40
2.0
 40
2.0
 40
3.0
 40
3.0
 40
3.0
 40
4.0
 40
4.0
 40
4.0
 40
5.0
 40
5.0
 40
5.0
 40
6.0
 40
6.0
 40
6.0
 40
7.0
 40
7.0
 40
7.0
 40
8.0
 40
8.0
 40
8.0
 40
9.0
 40
9.0
 40
9.0
 40
10.0
 40
10.0
 40
10.0
 40
11.0
 40
11.0
 40
11.0
 40
12.0
 40
12.0
 40
12.0
 40
13.0
 40
13.0
 40
13.0
 40
14.0
 40
14.0
 40
14.0
 40
15.0
 40
15.0
 40
15.0
 40
16.0
 40
16.0
 40
16.0
 40
17.0
 40
17.0
 40
17.0
 40
18.0
 40
18.0
 40
18.0
 40
19.0
 40
19.0
 40
19.0
 40
20.0
 40
20.0
 40
20.0
 40
21.0
 40
21.0
 40
21.0
 40
22.0
 40
22.0
 40
22.0
 40
23.0
 40
23.0
 40
23.0
 40
24.0
 40
24.0
 40
24.0
 40
25.0
 40
25.0
 40
25.0
 40
26.0
 40
26.0
 40
26.0
 40
27.0
 40
27.0
 40
27.0
 40
28.0
 40
28.0
 40
28.0
 40
29.0
 40
29.0
 40
29.0
 40
30.0
 40
30.0
 40
30.0
 40
31.0
 40
31.0
 40
31.0
 40
32.0
 40
32.0
 40
32.0
 40
33.0
 40
33.0
 40
33.0
 40
34.0
 40
34.0
 40
34.0
 40
35.0
 40
35.0
 40
35.0
 40
36.0
 40
36.0
 40
36.0
 40
37.0
 40
37.0
 40
37.0
 40
38.0
 40
38.0
 40
38.0
 40
39.0
 40
39.0
 40
39.0
 40
40.0
 40
40.0
 40
40.0
 40
41.0
 40
41.0
 40
41.0
 40
42.0
 40
42.0
 40
42.0
 40
43.0
 40
43.0
 40
43.0
 40
44.0
 40
44.0
 40
44.0
 40
45.0
 40
45.0
 40
45.0
 40
46.0
 40
46.0
 40
46.0
 40
47.0
 40
47.0
 40
47.0
 40
48.0
 40
48.0
 40
48.0
 40
49.0
 40
49.0
 40
49.0
 40
50.0
 40
50.0
 40
50.0
 40
51.0
 40
51.0
 40
51.0
 40
52.0
 40
52.0
 40
52.0
 40
53.0
 40
53.0
 40
53.0
 40
54.0
 40
54.0
 40
54.0
 40
55.0
 40
55.0
 40
55.0
 40
56.0
 40
56.0
 40
56.0
 40
57.0
 40
57.0
 40
57.0
 40
58.0
 40
58.0
 40
58.0
 40
59.0
 40
59.0
 40
59.0
 40
60.0
 40
60.0
 40
60.0
 40
61.0
 40
61.0
 40
61.0
 40
62.0
 40
62.0
 40
62.0
 40
63.0
 40
63.0
 40
63.0
 40
64.0
 40
64.0
 40
64.0
 40
65.0
 40
65.0
 40
65.0
 40
66.0
 40
66.0
 40
66.0
 40
67.0
 40
67.0
 40
67.0
 40
68.0
 40
68.0
 40
68.0
 40
69.0
 40
69.0
 40
69.0
 40
70.0
 40
70.0
 40
70.0
 40
71.0
 40
71.0
 40
71.0
 40
72.0
 40
72.0
 40
72.0
 40
73.0
 40
73.0
 40
73.0
 40
74.0
 40
74.0
 40
74.0
 40
75.0
 40
75.0
 40
75.0
 40
76.0
 40
76.0
 40
76.0
 40
77.0
 40
77.0
 40
77.0
 40
78.0
 40
78.0
 40
78.0
 40
79.0
 40
79.0
 40
79.0
 40
80.0
 40
80.0
 40
80.0
 40
80.0
 10
535.3569915409888
 20
-267.3519558164034
 30
0.0
 10
535.3569915409888
 20
-267.3519558164034
 30
0.0
 10
535.4664379181858
 20
-263.5435319485404
 30
0.0
 10
535.4664379181858
 20
-263.5435319485404
 30
0.0
 10
535.4664379181858
 20
-263.5435319485404
 30
0.0
 10
543.8634705902415
 20
-263.7848393554354
 30
0.0
 10
543.8634705902415
 20
-263.7848393554354
 30
0.0
 10
543.7856975596638
 20
-261.1828233309665
 30
0.0
 10
543.4104405339311
 20
-258.6554151556001
 30
0.0
 10
542.7705140475459
 20
-256.2345250262683
 30
0.0
 10
542.7705140475459
 20
-256.2345250262683
 30
0.0
 10
534.6334353617004
 20
-258.8245262802324
 30
0.0
 10
534.6334353617004
 20
-258.8245262802324
 30
0.0
 10
534.6334353617004
 20
-258.8245262802324
 30
0.0
 10
533.4778642085593
 20
-255.1939985304889
 30
0.0
 10
533.4778642085593
 20
-255.1939985304889
 30
0.0
 10
533.4778642085593
 20
-255.1939985304889
 30
0.0
 10
541.5874251942182
 20
-252.6127607381655
 30
0.0
 10
541.5874251942182
 20
-252.6127607381655
 30
0.0
 10
540.7426447175427
 20
-250.4552266268342
 30
0.0
 10
539.6797466329541
 20
-248.4065360009901
 30
0.0
 10
538.4264854909605
 20
-246.492268694611
 30
0.0
 10
538.4264854909605
 20
-246.492268694611
 30
0.0
 10
531.5573311347696
 20
-251.4328801300078
 30
0.0
 10
531.5573311347696
 20
-251.4328801300078
 30
0.0
 10
531.5573311347696
 20
-251.4328801300078
 30
0.0
 10
529.3326607251695
 20
-248.3398303396569
 30
0.0
 10
529.3326607251695
 20
-248.3398303396569
 30
0.0
 10
529.3326607251695
 20
-248.3398303396569
 30
0.0
 10
536.1640051584086
 20
-243.4264136267468
 30
0.0
 10
536.1640051584086
 20
-243.4264136267468
 30
0.0
 10
534.5295442009722
 20
-241.4571109199909
 30
0.0
 10
532.6724008841079
 20
-239.6781066751014
 30
0.0
 10
530.6333134619288
 20
-238.1234858055356
 30
0.0
 10
530.6333134619288
 20
-238.1234858055356
 30
0.0
 10
525.8693062338479
 20
-244.9700963181469
 30
0.0
 10
525.8693062338479
 20
-244.9700963181469
 30
0.0
 10
525.8693062338479
 20
-244.9700963181469
 30
0.0
 10
522.7419131478752
 20
-242.7940017548888
 30
0.0
 10
522.7419131478752
 20
-242.7940017548888
 30
0.0
 10
522.7419131478752
 20
-242.7940017548888
 30
0.0
 10
527.478445739467
 20
-235.9868591174305
 30
0.0
 10
527.478445739467
 20
-235.9868591174305
 30
0.0
 10
525.8229266358745
 20
-234.9973415666796
 30
0.0
 10
524.0750574414329
 20
-234.1457139627258
 30
0.0
 10
522.2508578501489
 20
-233.446467238454
 30
0.0
 10
522.2508578501489
 20
-233.446467238454
 30
0.0
 10
519.6990540923763
 20
-241.3086919001169
 30
0.0
 10
519.6990540923763
 20
-241.3086919001169
 30
0.0
 10
519.6990540923763
 20
-241.3086919001169
 30
0.0
 10
516.075158151442
 20
-240.1325147696058
 30
0.0
 10
516.075158151442
 20
-240.1325147696058
 30
0.0
 10
516.075158151442
 20
-240.1325147696058
 30
0.0
 10
518.6220957118392
 20
-232.2852332096102
 30
0.0
 10
518.6220957118392
 20
-232.2852332096102
 30
0.0
 10
516.4964933292881
 20
-231.7364510306567
 30
0.0
 10
514.2893713748147
 20
-231.3894868515985
 30
0.0
 10
512.022735395835
 20
-231.264020780395
 30
0.0
 10
512.022735395835
 20
-231.264020780395
 30
0.0
 10
512.022735395835
 20
-239.3747444857784
 30
0.0
 10
512.022735395835
 20
-239.3747444857784
 30
0.0
 10
512.022735395835
 20
-239.3747444857784
 30
0.0
 10
508.2127181713119
 20
-239.3747444857784
 30
0.0
 10
508.2127181713119
 20
-239.3747444857784
 30
0.0
 10
508.2127181713119
 20
-239.3747444857784
 30
0.0
 10
508.2127181713119
 20
-231.264020780395
 30
0.0
 10
508.2127181713119
 20
-231.264020780395
 30
0.0
 10
505.8366358151351
 20
-231.3955588323912
 30
0.0
 10
503.5266346967341
 20
-231.772215428163
 30
0.0
 10
501.3066797615801
 20
-232.3677863101755
 30
0.0
 10
501.3066797615801
 20
-232.3677863101755
 30
0.0
 10
503.8863241972429
 20
-240.1043941777075
 30
0.0
 10
503.8863241972429
 20
-240.1043941777075
 30
0.0
 10
503.8863241972429
 20
-240.1043941777075
 30
0.0
 10
500.2719668644302
 20
-241.3095531739883
 30
0.0
 10
500.2719668644302
 20
-241.3095531739883
 30
0.0
 10
500.2719668644302
 20
-241.3095531739883
 30
0.0
 10
497.6880160594147
 20
-233.5600477302334
 30
0.0
 10
497.6880160594147
 20
-233.5600477302334
 30
0.0
 10
495.6020968704811
 20
-234.3822843633286
 30
0.0
 10
493.6188845907045
 20
-235.4061882733916
 30
0.0
 10
491.7609661273573
 20
-236.6060504353638
 30
0.0
 10
491.7609661273573
 20
-236.6060504353638
 30
0.0
 10
496.6222757710526
 20
-243.2277608083286
 30
0.0
 10
496.6222757710526
 20
-243.2277608083286
 30
0.0
 10
496.6222757710526
 20
-243.2277608083286
 30
0.0
 10
493.5510592733376
 20
-245.4824681441907
 30
0.0
 10
493.5510592733376
 20
-245.4824681441907
 30
0.0
 10
493.5510592733376
 20
-245.4824681441907
 30
0.0
 10
488.6810507635439
 20
-238.8489152554953
 30
0.0
 10
488.6810507635439
 20
-238.8489152554953
 30
0.0
 10
487.0582815989096
 20
-240.1773440746077
 30
0.0
 10
485.5634116041671
 20
-241.6543641683682
 30
0.0
 10
484.2149366356996
 20
-243.2575824161228
 30
0.0
 10
484.2149366356996
 20
-243.2575824161228
 30
0.0
 10
490.7177481507275
 20
-248.1189135916653
 30
0.0
 10
490.7177481507275
 20
-248.1189135916653
 30
0.0
 10
490.7177481507275
 20
-248.1189135916653
 30
0.0
 10
488.4364920477838
 20
-251.1704715132657
 30
0.0
 10
488.4364920477838
 20
-251.1704715132657
 30
0.0
 10
488.4364920477838
 20
-251.1704715132657
 30
0.0
 10
481.9312904977608
 20
-246.307374726287
 30
0.0
 10
481.9312904977608
 20
-246.307374726287
 30
0.0
 10
480.6357623405326
 20
-248.2579662581886
 30
0.0
 10
479.5381333870839
 20
-250.3499143642195
 30
0.0
 10
478.6694956241711
 20
-252.5565841499091
 30
0.0
 10
478.6694956241711
 20
-252.5565841499091
 30
0.0
 10
486.4148454214985
 20
-255.1103903694313
 30
0.0
 10
486.4148454214985
 20
-255.1103903694313
 30
0.0
 10
486.4148454214985
 20
-255.1103903694313
 30
0.0
 10
485.2217873231084
 20
-258.7287741575892
 30
0.0
 10
485.2217873231084
 20
-258.7287741575892
 30
0.0
 10
485.2217873231084
 20
-258.7287741575892
 30
0.0
 10
477.4807654269856
 20
-256.1763890399547
 30
0.0
 10
477.4807654269856
 20
-256.1763890399547
 30
0.0
 10
476.97831978231
 20
-258.0633324327664
 30
0.0
 10
476.6366739694065
 20
-260.0151297480879
 30
0.0
 10
476.4715462364297
 20
-262.0169455434859
 30
0.0
 10
476.4715462364297
 20
-262.0169455434859
 30
0.0
 10
484.6287141353226
 20
-262.2513627594104
 30
0.0
 10
484.6287141353226
 20
-262.2513627594104
 30
0.0
 10
484.6287141353226
 20
-262.2513627594104
 30
0.0
 10
484.5192677581253
 20
-266.0597866272734
 30
0.0
 10
484.5192677581253
 20
-266.0597866272734
 30
0.0
 10
484.5192677581253
 20
-266.0597866272734
 30
0.0
 10
476.372241359069
 20
-265.8256708572038
 30
0.0
 10
476.372241359069
 20
-265.8256708572038
 30
0.0
 10
476.4488086062271
 20
-268.3692279176574
 30
0.0
 10
476.8081535971867
 20
-270.8420528614294
 30
0.0
 10
477.4226079088256
 20
-273.2131398291526
 30
0.0
 10
477.4226079088256
 20
-273.2131398291526
 30
0.0
 10
485.0706552905395
 20
-270.7787922955815
 30
0.0
 10
485.0706552905395
 20
-270.7787922955815
 30
0.0
 10
485.0706552905395
 20
-270.7787922955815
 30
0.0
 10
486.2262264436811
 20
-274.4093200453249
 30
0.0
 10
486.2262264436811
 20
-274.4093200453249
 30
0.0
 10
486.2262264436811
 20
-274.4093200453249
 30
0.0
 10
478.5904091509397
 20
-276.8397703146283
 30
0.0
 10
478.5904091509397
 20
-276.8397703146283
 30
0.0
 10
479.4067029943216
 20
-278.9546498374828
 30
0.0
 10
480.4302408629894
 20
-280.9671884925786
 30
0.0
 10
481.6389526139893
 20
-282.8511604905343
 30
0.0
 10
481.6389526139893
 20
-282.8511604905343
 30
0.0
 10
488.1467595174743
 20
-278.170438445806
 30
0.0
 10
488.1467595174743
 20
-278.170438445806
 30
0.0
 10
488.1467595174743
 20
-278.170438445806
 30
0.0
 10
490.3714299270744
 20
-281.2634882361569
 30
0.0
 10
490.3714299270744
 20
-281.2634882361569
 30
0.0
 10
490.3714299270744
 20
-281.2634882361569
 30
0.0
 10
483.8757454533287
 20
-285.9354898829381
 30
0.0
 10
483.8757454533287
 20
-285.9354898829381
 30
0.0
 10
485.4658938700864
 20
-287.8876532396549
 30
0.0
 10
487.2700688438637
 20
-289.6601333349692
 30
0.0
 10
489.2553481809351
 20
-291.2145819497607
 30
0.0
 10
489.2553481809351
 20
-291.2145819497607
 30
0.0
 10
493.834784418396
 20
-284.6332222576669
 30
0.0
 10
493.834784418396
 20
-284.6332222576669
 30
0.0
 10
493.834784418396
 20
-284.6332222576669
 30
0.0
 10
496.9621775043651
 20
-286.8093383527717
 30
0.0
 10
496.9621775043651
 20
-286.8093383527717
 30
0.0
 10
496.9621775043651
 20
-286.8093383527717
 30
0.0
 10
492.3836456044681
 20
-293.3893846022118
 30
0.0
 10
492.3836456044681
 20
-293.3893846022118
 30
0.0
 10
494.1716501613128
 20
-294.489705036507
 30
0.0
 10
496.0704145380082
 20
-295.4281921103826
 30
0.0
 10
498.0597203304251
 20
-296.1852733751131
 30
0.0
 10
498.0597203304251
 20
-296.1852733751131
 30
0.0
 10
500.5363994747711
 20
-288.5545160663654
 30
0.0
 10
500.5363994747711
 20
-288.5545160663654
 30
0.0
 10
500.5363994747711
 20
-288.5545160663654
 30
0.0
 10
504.1602954157055
 20
-289.7306931968765
 30
0.0
 10
504.1602954157055
 20
-289.7306931968765
 30
0.0
 10
504.1602954157055
 20
-289.7306931968765
 30
0.0
 10
501.6910232266526
 20
-297.3387128754215
 30
0.0
 10
501.6910232266526
 20
-297.3387128754215
 30
0.0
 10
503.8454998157427
 20
-297.8894544524322
 30
0.0
 10
506.0830678015637
 20
-298.2340716601911
 30
0.0
 10
508.3813340634669
 20
-298.3499129958827
 30
0.0
 10
508.3813340634669
 20
-298.3499129958827
 30
0.0
 10
508.3813340634669
 20
-290.2285956218822
 30
0.0
 10
508.3813340634669
 20
-290.2285956218822
 30
0.0
 10
508.3813340634669
 20
-290.2285956218822
 30
0.0
 10
512.1913512879937
 20
-290.2285956218822
 30
0.0
 10
512.1913512879937
 20
-290.2285956218822
 30
0.0
 10
512.1913512879937
 20
-290.2285956218822
 30
0.0
 10
512.1913512879937
 20
-298.3286825949548
 30
0.0
 10
512.1913512879937
 20
-298.3286825949548
 30
0.0
 10
514.5632134021992
 20
-298.1856680686234
 30
0.0
 10
516.8687789601616
 20
-297.799365205493
 30
0.0
 10
519.0835016565512
 20
-297.1938681421135
 30
0.0
 10
519.0835016565512
 20
-297.1938681421135
 30
0.0
 10
516.5177452620627
 20
-289.498945929953
 30
0.0
 10
516.5177452620627
 20
-289.498945929953
 30
0.0
 10
516.5177452620627
 20
-289.498945929953
 30
0.0
 10
520.1321025948722
 20
-288.2937869336723
 30
0.0
 10
520.1321025948722
 20
-288.2937869336723
 30
0.0
 10
520.1321025948722
 20
-288.2937869336723
 30
0.0
 10
522.6959211231471
 20
-295.9828955472015
 30
0.0
 10
522.6959211231471
 20
-295.9828955472015
 30
0.0
 10
524.7700193281969
 20
-295.1538763823696
 30
0.0
 10
526.7417766654874
 20
-294.1257952940307
 30
0.0
 10
528.5883478455813
 20
-292.9227033550411
 30
0.0
 10
528.5883478455813
 20
-292.9227033550411
 30
0.0
 10
523.781793688253
 20
-286.375579299332
 30
0.0
 10
523.781793688253
 20
-286.375579299332
 30
0.0
 10
523.781793688253
 20
-286.375579299332
 30
0.0
 10
526.8530101859642
 20
-284.1208504316231
 30
0.0
 10
526.8530101859642
 20
-284.1208504316231
 30
0.0
 10
526.8530101859642
 20
-284.1208504316231
 30
0.0
 10
531.6593490248252
 20
-290.6676730414773
 30
0.0
 10
531.6593490248252
 20
-290.6676730414773
 30
0.0
 10
533.2030747799176
 20
-289.393569071798
 30
0.0
 10
534.6296672885154
 20
-287.9844173590969
 30
0.0
 10
535.9234944298452
 20
-286.4598980113335
 30
0.0
 10
535.9234944298452
 20
-286.4598980113335
 30
0.0
 10
529.2679575255839
 20
-281.4844049841485
 30
0.0
 10
529.2679575255839
 20
-281.4844049841485
 30
0.0
 10
529.2679575255839
 20
-281.4844049841485
 30
0.0
 10
531.5492136285305
 20
-278.4328470625481
 30
0.0
 10
531.5492136285305
 20
-278.4328470625481
 30
0.0
 10
531.5492136285305
 20
-278.4328470625481
 30
0.0
 10
538.2215238414369
 20
-283.4208716245607
 30
0.0
 10
538.2215238414369
 20
-283.4208716245607
 30
0.0
 10
539.5389714186887
 20
-281.4562843922502
 30
0.0
 10
540.6553330788358
 20
-279.3467878310914
 30
0.0
 10
541.5379880740049
 20
-277.1198781094259
 30
0.0
 10
541.5379880740049
 20
-277.1198781094259
 30
0.0
 10
533.5708602548161
 20
-274.4929497382293
 30
0.0
 10
533.5708602548161
 20
-274.4929497382293
 30
0.0
 10
533.5708602548161
 20
-274.4929497382293
 30
0.0
 10
534.763918353203
 20
-270.8745659500714
 30
0.0
 10
534.763918353203
 20
-270.8745659500714
 30
0.0
 10
534.763918353203
 20
-270.8745659500714
 30
0.0
 10
542.7341467583285
 20
-273.5025063180668
 30
0.0
 10
542.7341467583285
 20
-273.5025063180668
 30
0.0
 10
543.2470999442373
 20
-271.5943325243272
 30
0.0
 10
543.5957005436524
 20
-269.6195822603352
 30
0.0
 10
543.763282907161
 20
-267.5935216054598
 30
0.0
 10
543.763282907161
 20
-267.5935216054598
 30
0.0
 10
535.3569915409888
 20
-267.3519558164034
 30
0.0
 10
535.3569915409888
 20
-267.3519558164034
 30
0.0
  0
SPLINE
  5
57
330
1F
100
AcDbEntity
  8
Capa 1
 62
     1
420
 16711680
370
    35
100
AcDbSpline
210
0.0
220
0.0
230
1.0
 70
    11
 71
     3
 72
   245
 73
   241
 74
     0
 42
0.0000000001
 43
0.0000000001
 12
1.0
 22
0.0
 32
0.0
 13
1.0
 23
0.0
 33
0.0
 40
0.0
 40
0.0
 40
0.0
 40
0.0
 40
1.0
 40
1.0
 40
1.0
 40
2.0
 40
2.0
 40
2.0
 40
3.0
 40
3.0
 40
3.0
 40
4.0
 40
4.0
 40
4.0
 40
5.0
 40
5.0
 40
5.0
 40
6.0
 40
6.0
 40
6.0
 40
7.0
 40
7.0
 40
7.0
 40
8.0
 40
8.0
 40
8.0
 40
9.0
 40
9.0
 40
9.0
 40
10.0
 40
10.0
 40
10.0
 40
11.0
 40
11.0
 40
11.0
 40
12.0
 40
12.0
 40
12.0
 40
13.0
 40
13.0
 40
13.0
 40
14.0
 40
14.0
 40
14.0
 40
15.0
 40
15.0
 40
15.0
 40
16.0
 40
16.0
 40
16.0
 40
17.0
 40
17.0
 40
17.0
 40
18.0
 40
18.0
 40
18.0
 40
19.0
 40
19.0
 40
19.0
 40
20.0
 40
20.0
 40
20.0
 40
21.0
 40
21.0
 40
21.0
 40
22.0
 40
22.0
 40
22.0
 40
23.0
 40
23.0
 40
23.0
 40
24.0
 40
24.0
 40
24.0
 40
25.0
 40
25.0
 40
25.0
 40
26.0
 40
26.0
 40
26.0
 40
27.0
 40
27.0
 40
27.0
 40
28.0
 40
28.0
 40
28.0
 40
29.0
 40
29.0
 40
29.0
 40
30.0
 40
30.0
 40
30.0
 40
31.0
 40
31.0
 40
31.0
 40
32.0
 40
32.0
 40
32.0
 40
33.0
 40
33.0
 40
33.0
 40
34.0
 40
34.0
 40
34.0
 40
35.0
 40
35.0
 40
35.0
 40
36.0
 40
36.0
 40
36.0
 40
37.0
 40
37.0
 40
37.0
 40
38.0
 40
38.0
 40
38.0
 40
39.0
 40
39.0
 40
39.0
 40
40.0
 40
40.0
 40
40.0
 40
41.0
 40
41.0
 40
41.0
 40
42.0
 40
42.0
 40
42.0
 40
43.0
 40
43.0
 40
43.0
 40
44.0
 40
44.0
 40
44.0
 40
45.0
 40
45.0
 40
45.0
 40
46.0
 40
46.0
 40
46.0
 40
47.0
 40
47.0
 40
47.0
 40
48.0
 40
48.0
 40
48.0
 40
49.0
 40
49.0
 40
49.0
 40
50.0
 40
50.0
 40
50.0
 40
51.0
 40
51.0
 40
51.0
 40
52.0
 40
52.0
 40
52.0
 40
53.0
 40
53.0
 40
53.0
 40
54.0
 40
54.0
 40
54.0
 40
55.0
 40
55.0
 40
55.0
 40
56.0
 40
56.0
 40
56.0
 40
57.0
 40
57.0
 40
57.0
 40
58.0
 40
58.0
 40
58.0
 40
59.0
 40
59.0
 40
59.0
 40
60.0
 40
60.0
 40
60.0
 40
61.0
 40
61.0
 40
61.0
 40
62.0
 40
62.0
 40
62.0
 40
63.0
 40
63.0
 40
63.0
 40
64.0
 40
64.0
 40
64.0
 40
65.0
 40
65.0
 40
65.0
 40
66.0
 40
66.0
 40
66.0
 40
67.0
 40
67.0
 40
67.0
 40
68.0
 40
68.0
 40
68.0
 40
69.0
 40
69.0
 40
69.0
 40
70.0
 40
70.0
 40
70.0
 40
71.0
 40
71.0
 40
71.0
 40
72.0
 40
72.0
 40
72.0
 40
73.0
 40
73.0
 40
73.0
 40
74.0
 40
74.0
 40
74.0
 40
75.0
 40
75.0
 40
75.0
 40
76.0
 40
76.0
 40
76.0
 40
77.0
 40
77.0
 40
77.0
 40
78.0
 40
78.0
 40
78.0
 40
79.0
 40
79.0
 40
79.0
 40
80.0
 40
80.0
 40
80.0
 40
80.0
 10
614.6406103634
 20
-265.089453952006
 30
0.0
 10
614.6406103634
 20
-265.089453952006
 30
0.0
 10
614.6406103634
 20
-261.299461344989
 30
0.0
 10
614.6406103634
 20
-261.299461344989
 30
0.0
 10
614.6406103634
 20
-261.299461344989
 30
0.0
 10
620.3693735184336
 20
-261.299461344989
 30
0.0
 10
620.3693735184336
 20
-261.299461344989
 30
0.0
 10
620.238179975986
 20
-258.9401953611496
 30
0.0
 10
619.8628798865648
 20
-256.6464292552235
 30
0.0
 10
619.2695913803079
 20
-254.4417619312846
 30
0.0
 10
619.2695913803079
 20
-254.4417619312846
 30
0.0
 10
613.8252423894273
 20
-256.2453770770468
 30
0.0
 10
613.8252423894273
 20
-256.2453770770468
 30
0.0
 10
613.8252423894273
 20
-256.2453770770468
 30
0.0
 10
612.6333685426122
 20
-252.6476638618004
 30
0.0
 10
612.6333685426122
 20
-252.6476638618004
 30
0.0
 10
612.6333685426122
 20
-252.6476638618004
 30
0.0
 10
618.0803659506478
 20
-250.8431659103201
 30
0.0
 10
618.0803659506478
 20
-250.8431659103201
 30
0.0
 10
617.3435892174348
 20
-248.9801443992841
 30
0.0
 10
616.4435364900652
 20
-247.1998697754345
 30
0.0
 10
615.4005768955981
 20
-245.5173927996724
 30
0.0
 10
615.4005768955981
 20
-245.5173927996724
 30
0.0
 10
610.7037274976308
 20
-248.8028081091809
 30
0.0
 10
610.7037274976308
 20
-248.8028081091809
 30
0.0
 10
610.7037274976308
 20
-248.8028081091809
 30
0.0
 10
608.5313579438662
 20
-245.6971837203089
 30
0.0
 10
608.5313579438662
 20
-245.6971837203089
 30
0.0
 10
608.5313579438662
 20
-245.6971837203089
 30
0.0
 10
613.2270015584137
 20
-242.4126296846717
 30
0.0
 10
613.2270015584137
 20
-242.4126296846717
 30
0.0
 10
611.7968993587936
 20
-240.5981409562842
 30
0.0
 10
610.1826998691797
 20
-238.9359469801915
 30
0.0
 10
608.4143969521419
 20
-237.451283080823
 30
0.0
 10
608.4143969521419
 20
-237.451283080823
 30
0.0
 10
604.9868499220188
 20
-242.0407100951922
 30
0.0
 10
604.9868499220188
 20
-242.0407100951922
 30
0.0
 10
604.9868499220188
 20
-242.0407100951922
 30
0.0
 10
601.9502351020857
 20
-239.7728683327926
 30
0.0
 10
601.9502351020857
 20
-239.7728683327926
 30
0.0
 10
601.9502351020857
 20
-239.7728683327926
 30
0.0
 10
605.3795262118001
 20
-235.1811158789709
 30
0.0
 10
605.3795262118001
 20
-235.1811158789709
 30
0.0
 10
603.5383164615527
 20
-233.9590328511188
 30
0.0
 10
601.5698319649738
 20
-232.914092326749
 30
0.0
 10
599.4979730719925
 20
-232.0695056366932
 30
0.0
 10
599.4979730719925
 20
-232.0695056366932
 30
0.0
 10
597.637686105498
 20
-237.4953372393407
 30
0.0
 10
597.637686105498
 20
-237.4953372393407
 30
0.0
 10
597.637686105498
 20
-237.4953372393407
 30
0.0
 10
594.0525474887728
 20
-236.2661487020503
 30
0.0
 10
594.0525474887728
 20
-236.2661487020503
 30
0.0
 10
594.0525474887728
 20
-236.2661487020503
 30
0.0
 10
595.9131574329678
 20
-230.8393696981444
 30
0.0
 10
595.9131574329678
 20
-230.8393696981444
 30
0.0
 10
593.7140453254989
 20
-230.2228052655186
 30
0.0
 10
591.4234874647453
 20
-229.8258441382307
 30
0.0
 10
589.066762238827
 20
-229.6704272681524
 30
0.0
 10
589.066762238827
 20
-229.6704272681524
 30
0.0
 10
589.0072266824731
 20
-235.3982860856223
 30
0.0
 10
589.0072266824731
 20
-235.3982860856223
 30
0.0
 10
589.0072266824731
 20
-235.3982860856223
 30
0.0
 10
585.2174278620753
 20
-235.3588828060098
 30
0.0
 10
585.2174278620753
 20
-235.3588828060098
 30
0.0
 10
585.2174278620753
 20
-235.3588828060098
 30
0.0
 10
585.2769634184298
 20
-229.6308732656123
 30
0.0
 10
585.2769634184298
 20
-229.6308732656123
 30
0.0
 10
583.2560058112413
 20
-229.7224482099796
 30
0.0
 10
581.2816215886445
 20
-229.9921130590876
 30
0.0
 10
579.3690768300081
 20
-230.4253338163577
 30
0.0
 10
579.3690768300081
 20
-230.4253338163577
 30
0.0
 10
580.954574367861
 20
-235.9372282105961
 30
0.0
 10
580.954574367861
 20
-235.9372282105961
 30
0.0
 10
580.954574367861
 20
-235.9372282105961
 30
0.0
 10
577.3122686979287
 20
-236.9849463432009
 30
0.0
 10
577.3122686979287
 20
-236.9849463432009
 30
0.0
 10
577.3122686979287
 20
-236.9849463432009
 30
0.0
 10
575.7265558416092
 20
-231.4722552706316
 30
0.0
 10
575.7265558416092
 20
-231.4722552706316
 30
0.0
 10
573.5283480717046
 20
-232.2411790510926
 30
0.0
 10
571.4338376759059
 20
-233.2305889426096
 30
0.0
 10
569.4710375868777
 20
-234.4166491907939
 30
0.0
 10
569.4710375868777
 20
-234.4166491907939
 30
0.0
 10
572.7038721265433
 20
-239.1519759989634
 30
0.0
 10
572.7038721265433
 20
-239.1519759989634
 30
0.0
 10
572.7038721265433
 20
-239.1519759989634
 30
0.0
 10
569.5737444960305
 20
-241.2889256647703
 30
0.0
 10
569.5737444960305
 20
-241.2889256647703
 30
0.0
 10
569.5737444960305
 20
-241.2889256647703
 30
0.0
 10
566.3436229690602
 20
-236.5575391845621
 30
0.0
 10
566.3436229690602
 20
-236.5575391845621
 30
0.0
 10
564.5948709689033
 20
-237.904054754972
 30
0.0
 10
562.9821571767168
 20
-239.4182172844329
 30
0.0
 10
561.5303078118435
 20
-241.0771599516614
 30
0.0
 10
561.5303078118435
 20
-241.0771599516614
 30
0.0
 10
566.048335222282
 20
-244.5987365566837
 30
0.0
 10
566.048335222282
 20
-244.5987365566837
 30
0.0
 10
566.048335222282
 20
-244.5987365566837
 30
0.0
 10
563.7183740819147
 20
-247.5879597818479
 30
0.0
 10
563.7183740819147
 20
-247.5879597818479
 30
0.0
 10
563.7183740819147
 20
-247.5879597818479
 30
0.0
 10
559.1989686332826
 20
-244.0652850526396
 30
0.0
 10
559.1989686332826
 20
-244.0652850526396
 30
0.0
 10
557.8896600941134
 20
-245.9524652957659
 30
0.0
 10
556.7668604117775
 20
-247.9788489283431
 30
0.0
 10
555.8615969774871
 20
-250.1199973042726
 30
0.0
 10
555.8615969774871
 20
-250.1199973042726
 30
0.0
 10
561.2652292461015
 20
-252.0506288142066
 30
0.0
 10
561.2652292461015
 20
-252.0506288142066
 30
0.0
 10
561.2652292461015
 20
-252.0506288142066
 30
0.0
 10
559.9900486840851
 20
-255.6196616095383
 30
0.0
 10
559.9900486840851
 20
-255.6196616095383
 30
0.0
 10
559.9900486840851
 20
-255.6196616095383
 30
0.0
 10
554.588591131995
 20
-253.6897837142417
 30
0.0
 10
554.588591131995
 20
-253.6897837142417
 30
0.0
 10
553.8722265895296
 20
-256.1230977191672
 30
0.0
 10
553.4232875841093
 20
-258.6707027668159
 30
0.0
 10
553.2771078763014
 20
-261.299461344989
 30
0.0
 10
553.2771078763014
 20
-261.299461344989
 30
0.0
 10
559.0058710313343
 20
-261.299461344989
 30
0.0
 10
559.0058710313343
 20
-261.299461344989
 30
0.0
 10
559.0058710313343
 20
-261.299461344989
 30
0.0
 10
559.0058710313343
 20
-265.089453952006
 30
0.0
 10
559.0058710313343
 20
-265.089453952006
 30
0.0
 10
559.0058710313343
 20
-265.089453952006
 30
0.0
 10
553.2771078763014
 20
-265.089453952006
 30
0.0
 10
553.2771078763014
 20
-265.089453952006
 30
0.0
 10
553.4083014187485
 20
-267.4487199358454
 30
0.0
 10
553.7836015081704
 20
-269.7425075736183
 30
0.0
 10
554.3768900144265
 20
-271.9471748975571
 30
0.0
 10
554.3768900144265
 20
-271.9471748975571
 30
0.0
 10
559.8212390053078
 20
-270.1435382199481
 30
0.0
 10
559.8212390053078
 20
-270.1435382199481
 30
0.0
 10
559.8212390053078
 20
-270.1435382199481
 30
0.0
 10
561.0131128521223
 20
-273.7412514351946
 30
0.0
 10
561.0131128521223
 20
-273.7412514351946
 30
0.0
 10
561.0131128521223
 20
-273.7412514351946
 30
0.0
 10
555.5661154440867
 20
-275.5457709185217
 30
0.0
 10
555.5661154440867
 20
-275.5457709185217
 30
0.0
 10
556.3028921772997
 20
-277.4087924295576
 30
0.0
 10
557.2029449046692
 20
-279.1890455215605
 30
0.0
 10
558.2459044991363
 20
-280.8715224973226
 30
0.0
 10
558.2459044991363
 20
-280.8715224973226
 30
0.0
 10
562.9427538971036
 20
-277.5861071878141
 30
0.0
 10
562.9427538971036
 20
-277.5861071878141
 30
0.0
 10
562.9427538971036
 20
-277.5861071878141
 30
0.0
 10
565.1151234508683
 20
-280.6917315766861
 30
0.0
 10
565.1151234508683
 20
-280.6917315766861
 30
0.0
 10
565.1151234508683
 20
-280.6917315766861
 30
0.0
 10
560.4194798363214
 20
-283.9762856123233
 30
0.0
 10
560.4194798363214
 20
-283.9762856123233
 30
0.0
 10
561.8495820359409
 20
-285.7907743407108
 30
0.0
 10
563.4637815255547
 20
-287.4529683168035
 30
0.0
 10
565.2320844425925
 20
-288.9376322161719
 30
0.0
 10
565.2320844425925
 20
-288.9376322161719
 30
0.0
 10
568.6596314727162
 20
-284.3482052018028
 30
0.0
 10
568.6596314727162
 20
-284.3482052018028
 30
0.0
 10
568.6596314727162
 20
-284.3482052018028
 30
0.0
 10
571.6962462926488
 20
-286.6160469642024
 30
0.0
 10
571.6962462926488
 20
-286.6160469642024
 30
0.0
 10
571.6962462926488
 20
-286.6160469642024
 30
0.0
 10
568.2669551829349
 20
-291.2077994180241
 30
0.0
 10
568.2669551829349
 20
-291.2077994180241
 30
0.0
 10
570.1081434013338
 20
-292.4298824458762
 30
0.0
 10
572.0766494297613
 20
-293.474822970246
 30
0.0
 10
574.1485083227418
 20
-294.3194096603017
 30
0.0
 10
574.1485083227418
 20
-294.3194096603017
 30
0.0
 10
576.0087952892364
 20
-288.8935780576543
 30
0.0
 10
576.0087952892364
 20
-288.8935780576543
 30
0.0
 10
576.0087952892364
 20
-288.8935780576543
 30
0.0
 10
579.5939339059616
 20
-290.1227881267915
 30
0.0
 10
579.5939339059616
 20
-290.1227881267915
 30
0.0
 10
579.5939339059616
 20
-290.1227881267915
 30
0.0
 10
577.7333239617673
 20
-295.5495671306974
 30
0.0
 10
577.7333239617673
 20
-295.5495671306974
 30
0.0
 10
579.9324576010797
 20
-296.1661315633232
 30
0.0
 10
582.2229939299891
 20
-296.5630926906111
 30
0.0
 10
584.5797191559075
 20
-296.7184880288426
 30
0.0
 10
584.5797191559075
 20
-296.7184880288426
 30
0.0
 10
584.639254712262
 20
-290.9906292113727
 30
0.0
 10
584.639254712262
 20
-290.9906292113727
 30
0.0
 10
584.639254712262
 20
-290.9906292113727
 30
0.0
 10
588.4290535326592
 20
-291.0300324909852
 30
0.0
 10
588.4290535326592
 20
-291.0300324909852
 30
0.0
 10
588.4290535326592
 20
-291.0300324909852
 30
0.0
 10
588.3695179763047
 20
-296.7580420313826
 30
0.0
 10
588.3695179763047
 20
-296.7580420313826
 30
0.0
 10
590.3904755834932
 20
-296.6664670870153
 30
0.0
 10
592.3648813379348
 20
-296.3968237697542
 30
0.0
 10
594.2774045647263
 20
-295.9635814806372
 30
0.0
 10
594.2774045647263
 20
-295.9635814806372
 30
0.0
 10
592.6919070268733
 20
-290.4516870863989
 30
0.0
 10
592.6919070268733
 20
-290.4516870863989
 30
0.0
 10
592.6919070268733
 20
-290.4516870863989
 30
0.0
 10
596.3342126968057
 20
-289.403968953794
 30
0.0
 10
596.3342126968057
 20
-289.403968953794
 30
0.0
 10
596.3342126968057
 20
-289.403968953794
 30
0.0
 10
597.9199255531258
 20
-294.9166600263634
 30
0.0
 10
597.9199255531258
 20
-294.9166600263634
 30
0.0
 10
600.1181117911856
 20
-294.1477362459024
 30
0.0
 10
602.2126437188284
 20
-293.1583263543855
 30
0.0
 10
604.1754438078566
 20
-291.9722661062011
 30
0.0
 10
604.1754438078566
 20
-291.9722661062011
 30
0.0
 10
600.9426092681911
 20
-287.2369392980316
 30
0.0
 10
600.9426092681911
 20
-287.2369392980316
 30
0.0
 10
600.9426092681911
 20
-287.2369392980316
 30
0.0
 10
604.072736898704
 20
-285.0999896322247
 30
0.0
 10
604.072736898704
 20
-285.0999896322247
 30
0.0
 10
604.072736898704
 20
-285.0999896322247
 30
0.0
 10
607.3028584256741
 20
-289.8313761124329
 30
0.0
 10
607.3028584256741
 20
-289.8313761124329
 30
0.0
 10
609.0516104258312
 20
-288.484860542023
 30
0.0
 10
610.6643242180177
 20
-286.9706980125621
 30
0.0
 10
612.116173582891
 20
-285.3117553453336
 30
0.0
 10
612.116173582891
 20
-285.3117553453336
 30
0.0
 10
607.5981461724524
 20
-281.7901787403113
 30
0.0
 10
607.5981461724524
 20
-281.7901787403113
 30
0.0
 10
607.5981461724524
 20
-281.7901787403113
 30
0.0
 10
609.9281073128197
 20
-278.8009555151471
 30
0.0
 10
609.9281073128197
 20
-278.8009555151471
 30
0.0
 10
609.9281073128197
 20
-278.8009555151471
 30
0.0
 10
614.4475127614518
 20
-282.3236302443554
 30
0.0
 10
614.4475127614518
 20
-282.3236302443554
 30
0.0
 10
615.756821300621
 20
-280.4364500012291
 30
0.0
 10
616.8796209829569
 20
-278.4100663686519
 30
0.0
 10
617.7848844172472
 20
-276.2689179927224
 30
0.0
 10
617.7848844172472
 20
-276.2689179927224
 30
0.0
 10
612.3812521486328
 20
-274.3382864827884
 30
0.0
 10
612.3812521486328
 20
-274.3382864827884
 30
0.0
 10
612.3812521486328
 20
-274.3382864827884
 30
0.0
 10
613.65643271065
 20
-270.7692536874567
 30
0.0
 10
613.65643271065
 20
-270.7692536874567
 30
0.0
 10
613.65643271065
 20
-270.7692536874567
 30
0.0
 10
619.0578902627393
 20
-272.6991315827533
 30
0.0
 10
619.0578902627393
 20
-272.6991315827533
 30
0.0
 10
619.7742548052048
 20
-270.2658175778278
 30
0.0
 10
620.223193810625
 20
-267.7182125301791
 30
0.0
 10
620.3693735184336
 20
-265.089453952006
 30
0.0
 10
620.3693735184336
 20
-265.089453952006
 30
0.0
 10
614.6406103634
 20
-265.089453952006
 30
0.0
 10
614.6406103634
 20
-265.089453952006
 30
0.0
  0
ENDSEC
  0
SECTION
  2
OBJECTS
  0
DICTIONARY
  5
C
330
0
100
AcDbDictionary
281
     1
  3
ACAD_GROUP
350
D
  3
ACAD_LAYOUT
350
1A
  3
ACAD_MATERIAL
350
3B
  3
ACAD_MLEADERSTYLE
350
59
  3
ACAD_MLINESTYLE
350
17
  3
ACAD_PLOTSETTINGS
350
19
  3
ACAD_PLOTSTYLENAME
350
E
  3
ACAD_TABLESTYLE
350
58
  3
ACAD_VISUALSTYLE
350
2A
  0
SUN
  5
3F
330
29
100
AcDbSun
 90
        1
290
     0
 63
     7
421
 16777215
 40
1.0
291
     1
 91
  2455826
 92
 54000000
292
     0
 70
     2
 71
   256
280
     1
  0
DICTIONARY
  5
D
102
{ACAD_REACTORS
330
C
102
}
330
C
100
AcDbDictionary
281
     1
  0
DICTIONARY
  5
1A
102
{ACAD_REACTORS
330
C
102
}
330
C
100
AcDbDictionary
281
     1
  3
Layout1
350
1E
  3
Layout2
350
26
  3
Model
350
22
  0
DICTIONARY
  5
3B
102
{ACAD_REACTORS
330
C
102
}
330
C
100
AcDbDictionary
281
     1
  3
ByBlock
350
3D
  3
ByLayer
350
3C
  3
Global
350
3E
  0
DICTIONARY
  5
59
102
{ACAD_REACTORS
330
C
102
}
330
C
100
AcDbDictionary
281
     1
  0
DICTIONARY
  5
17
102
{ACAD_REACTORS
330
C
102
}
330
C
100
AcDbDictionary
281
     1
  3
Standard
350
18
  0
DICTIONARY
  5
19
102
{ACAD_REACTORS
330
C
102
}
330
C
100
AcDbDictionary
281
     1
  0
ACDBDICTIONARYWDFLT
  5
E
102
{ACAD_REACTORS
330
C
102
}
330
C
100
AcDbDictionary
281
     1
  3
Normal
350
F
100
AcDbDictionaryWithDefault
340
F
  0
DICTIONARY
  5
58
102
{ACAD_REACTORS
330
C
102
}
330
C
100
AcDbDictionary
281
     1
  0
DICTIONARY
  5
2A
102
{ACAD_REACTORS
330
C
102
}
330
C
100
AcDbDictionary
281
     1
  3
2dWireframe
350
2F
  3
3D Hidden
350
31
  3
3dWireframe
350
30
  3
Basic
350
32
  3
Brighten
350
36
  3
ColorChange
350
3A
  3
Conceptual
350
34
  3
Dim
350
35
  3
Facepattern
350
39
  3
Flat
350
2B
  3
FlatWithEdges
350
2C
  3
Gouraud
350
2D
  3
GouraudWithEdges
350
2E
  3
Linepattern
350
38
  3
Realistic
350
33
  3
Thicken
350
37
  0
LAYOUT
  5
1E
102
{ACAD_REACTORS
330
1A
102
}
330
1A
100
AcDbPlotSettings
  1

  2
none_device
  4

  6

 40
0.0
 41
0.0
 42
0.0
 43
0.0
 44
0.0
 45
0.0
 46
0.0
 47
0.0
 48
0.0
 49
0.0
140
0.0
141
0.0
142
1.0
143
1.0
 70
   688
 72
     0
 73
     0
 74
     5
  7

 75
    16
 76
     0
 77
     2
 78
   300
147
1.0
148
0.0
149
0.0
100
AcDbLayout
  1
Layout1
 70
     1
 71
     1
 10
0.0
 20
0.0
 11
12.0
 21
9.0
 12
0.0
 22
0.0
 32
0.0
 14
1.000000000000000E+20
 24
1.000000000000000E+20
 34
1.000000000000000E+20
 15
-1.000000000000000E+20
 25
-1.000000000000000E+20
 35
-1.000000000000000E+20
146
0.0
 13
0.0
 23
0.0
 33
0.0
 16
1.0
 26
0.0
 36
0.0
 17
0.0
 27
1.0
 37
0.0
 76
     0
330
1B
  0
LAYOUT
  5
26
102
{ACAD_REACTORS
330
1A
102
}
330
1A
100
AcDbPlotSettings
  1

  2
none_device
  4

  6

 40
0.0
 41
0.0
 42
0.0
 43
0.0
 44
0.0
 45
0.0
 46
0.0
 47
0.0
 48
0.0
 49
0.0
140
0.0
141
0.0
142
1.0
143
1.0
 70
   688
 72
     0
 73
     0
 74
     5
  7

 75
    16
 76
     0
 77
     2
 78
   300
147
1.0
148
0.0
149
0.0
100
AcDbLayout
  1
Layout2
 70
     1
 71
     2
 10
0.0
 20
0.0
 11
0.0
 21
0.0
 12
0.0
 22
0.0
 32
0.0
 14
0.0
 24
0.0
 34
0.0
 15
0.0
 25
0.0
 35
0.0
146
0.0
 13
0.0
 23
0.0
 33
0.0
 16
1.0
 26
0.0
 36
0.0
 17
0.0
 27
1.0
 37
0.0
 76
     0
330
23
  0
LAYOUT
  5
22
102
{ACAD_REACTORS
330
1A
102
}
330
1A
100
AcDbPlotSettings
  1

  2
none_device
  4

  6

 40
0.0
 41
0.0
 42
0.0
 43
0.0
 44
0.0
 45
0.0
 46
0.0
 47
0.0
 48
0.0
 49
0.0
140
0.0
141
0.0
142
1.0
143
1.0
 70
  1712
 72
     0
 73
     0
 74
     0
  7

 75
     0
 76
     0
 77
     2
 78
   300
147
1.0
148
0.0
149
0.0
100
AcDbLayout
  1
Model
 70
     1
 71
     0
 10
0.0
 20
0.0
 11
12.0
 21
9.0
 12
0.0
 22
0.0
 32
0.0
 14
1.000000000000000E+20
 24
1.000000000000000E+20
 34
1.000000000000000E+20
 15
-1.000000000000000E+20
 25
-1.000000000000000E+20
 35
-1.000000000000000E+20
146
0.0
 13
0.0
 23
0.0
 33
0.0
 16
1.0
 26
0.0
 36
0.0
 17
0.0
 27
1.0
 37
0.0
 76
     0
330
1F
331
29
  0
MATERIAL
  5
3D
102
{ACAD_REACTORS
330
3B
102
}
330
3B
100
AcDbMaterial
  1
ByBlock
 72
     1
 94
      127
  0
MATERIAL
  5
3C
102
{ACAD_REACTORS
330
3B
102
}
330
3B
100
AcDbMaterial
  1
ByLayer
 72
     1
 94
      127
  0
MATERIAL
  5
3E
102
{ACAD_REACTORS
330
3B
102
}
330
3B
100
AcDbMaterial
  1
Global
 72
     1
 94
      127
  0
MLINESTYLE
  5
18
102
{ACAD_REACTORS
330
17
102
}
330
17
100
AcDbMlineStyle
  2
Standard
 70
     0
  3

 62
   256
 51
90.0
 52
90.0
 71
     2
 49
0.5
 62
   256
  6
BYLAYER
 49
-0.5
 62
   256
  6
BYLAYER
  0
ACDBPLACEHOLDER
  5
F
102
{ACAD_REACTORS
330
E
102
}
330
E
  0
VISUALSTYLE
  5
2F
102
{ACAD_REACTORS
330
2A
102
}
330
2A
100
AcDbVisualStyle
  2
2dWireframe
 70
     4
177
     2
291
     0
 71
     0
176
     1
 72
     2
176
     1
 73
     0
176
     1
 90
        0
176
     1
 40
-0.6
176
     1
 41
-30.0
176
     1
 62
     5
 63
     7
421
 16777215
176
     1
 74
     1
176
     1
 91
        4
176
     1
 64
     7
176
     1
 65
   257
176
     1
 75
     1
176
     1
175
     1
176
     1
 42
1.0
176
     1
 92
        0
176
     1
 66
   257
176
     1
 43
1.0
176
     1
 76
     1
176
     1
 77
     6
176
     1
 78
     2
176
     1
 67
     7
176
     1
 79
     5
176
     1
170
     0
176
     1
171
     0
176
     1
290
     0
176
     1
 93
        1
176
     1
 44
0.0
176
     1
173
     0
176
     1
  0
VISUALSTYLE
  5
31
102
{ACAD_REACTORS
330
2A
102
}
330
2A
100
AcDbVisualStyle
  2
3D Hidden
 70
     6
177
     2
291
     0
 71
     1
176
     1
 72
     2
176
     1
 73
     2
176
     1
 90
        0
176
     1
 40
-0.6
176
     1
 41
-30.0
176
     1
 62
     5
 63
     7
421
 16777215
176
     1
 74
     2
176
     1
 91
        2
176
     1
 64
     7
176
     1
 65
   257
176
     1
 75
     2
176
     1
175
     1
176
     1
 42
40.0
176
     1
 92
        0
176
     1
 66
   257
176
     1
 43
1.0
176
     1
 76
     1
176
     1
 77
     6
176
     1
 78
     2
176
     1
 67
     7
176
     1
 79
     3
176
     1
170
     0
176
     1
171
     0
176
     1
290
     0
176
     1
 93
        1
176
     1
 44
0.0
176
     1
173
     0
176
     1
  0
VISUALSTYLE
  5
30
102
{ACAD_REACTORS
330
2A
102
}
330
2A
100
AcDbVisualStyle
  2
3dWireframe
 70
     5
177
     2
291
     0
 71
     0
176
     1
 72
     2
176
     1
 73
     0
176
     1
 90
        0
176
     1
 40
-0.6
176
     1
 41
-30.0
176
     1
 62
     5
 63
     7
421
 16777215
176
     1
 74
     1
176
     1
 91
        4
176
     1
 64
     7
176
     1
 65
   257
176
     1
 75
     1
176
     1
175
     1
176
     1
 42
1.0
176
     1
 92
        0
176
     1
 66
   257
176
     1
 43
1.0
176
     1
 76
     1
176
     1
 77
     6
176
     1
 78
     2
176
     1
 67
     7
176
     1
 79
     5
176
     1
170
     0
176
     1
171
     0
176
     1
290
     0
176
     1
 93
        1
176
     1
 44
0.0
176
     1
173
     0
176
     1
  0
VISUALSTYLE
  5
32
102
{ACAD_REACTORS
330
2A
102
}
330
2A
100
AcDbVisualStyle
  2
Basic
 70
     7
177
     2
291
     1
 71
     1
176
     1
 72
     0
176
     1
 73
     1
176
     1
 90
        0
176
     1
 40
-0.6
176
     1
 41
-30.0
176
     1
 62
     5
 63
     7
421
 16777215
176
     1
 74
     0
176
     1
 91
        4
176
     1
 64
     7
176
     1
 65
   257
176
     1
 75
     1
176
     1
175
     1
176
     1
 42
1.0
176
     1
 92
        8
176
     1
 66
     7
176
     1
 43
1.0
176
     1
 76
     1
176
     1
 77
     6
176
     1
 78
     2
176
     1
 67
     7
176
     1
 79
     5
176
     1
170
     0
176
     1
171
     0
176
     1
290
     0
176
     1
 93
        1
176
     1
 44
0.0
176
     1
173
     0
176
     1
  0
VISUALSTYLE
  5
36
102
{ACAD_REACTORS
330
2A
102
}
330
2A
100
AcDbVisualStyle
  2
Brighten
 70
    12
177
     2
291
     1
 71
     2
176
     1
 72
     2
176
     1
 73
     0
176
     1
 90
        0
176
     1
 40
-0.6
176
     1
 41
-30.0
176
     1
 62
     5
 63
     7
421
 16777215
176
     1
 74
     1
176
     1
 91
        4
176
     1
 64
     7
176
     1
 65
   257
176
     1
 75
     1
176
     1
175
     1
176
     1
 42
1.0
176
     1
 92
        8
176
     1
 66
     7
176
     1
 43
1.0
176
     1
 76
     1
176
     1
 77
     6
176
     1
 78
     2
176
     1
 67
     7
176
     1
 79
     5
176
     1
170
     0
176
     1
171
     0
176
     1
290
     0
176
     1
 93
        1
176
     1
 44
50.0
176
     1
173
     0
176
     1
  0
VISUALSTYLE
  5
3A
102
{ACAD_REACTORS
330
2A
102
}
330
2A
100
AcDbVisualStyle
  2
ColorChange
 70
    16
177
     2
291
     1
 71
     2
176
     1
 72
     2
176
     1
 73
     3
176
     1
 90
        0
176
     1
 40
-0.6
176
     1
 41
-30.0
176
     1
 62
     5
 63
     8
421
  8421504
176
     1
 74
     1
176
     1
 91
        4
176
     1
 64
     7
176
     1
 65
   257
176
     1
 75
     1
176
     1
175
     1
176
     1
 42
1.0
176
     1
 92
        8
176
     1
 66
     8
424
  8421504
176
     1
 43
1.0
176
     1
 76
     1
176
     1
 77
     6
176
     1
 78
     2
176
     1
 67
     7
176
     1
 79
     5
176
     1
170
     0
176
     1
171
     0
176
     1
290
     0
176
     1
 93
        1
176
     1
 44
0.0
176
     1
173
     0
176
     1
  0
VISUALSTYLE
  5
34
102
{ACAD_REACTORS
330
2A
102
}
330
2A
100
AcDbVisualStyle
  2
Conceptual
 70
     9
177
     2
291
     0
 71
     3
176
     1
 72
     2
176
     1
 73
     0
176
     1
 90
        0
176
     1
 40
-0.6
176
     1
 41
-30.0
176
     1
 62
     5
 63
     7
421
 16777215
176
     1
 74
     2
176
     1
 91
        2
176
     1
 64
     7
176
     1
 65
   257
176
     1
 75
     1
176
     1
175
     1
176
     1
 42
40.0
176
     1
 92
        8
176
     1
 66
     7
176
     1
 43
1.0
176
     1
 76
     1
176
     1
 77
     6
176
     1
 78
     2
176
     1
 67
     7
176
     1
 79
     3
176
     1
170
     0
176
     1
171
     0
176
     1
290
     0
176
     1
 93
        1
176
     1
 44
0.0
176
     1
173
     0
176
     1
  0
VISUALSTYLE
  5
35
102
{ACAD_REACTORS
330
2A
102
}
330
2A
100
AcDbVisualStyle
  2
Dim
 70
    11
177
     2
291
     1
 71
     2
176
     1
 72
     2
176
     1
 73
     0
176
     1
 90
        0
176
     1
 40
-0.6
176
     1
 41
-30.0
176
     1
 62
     5
 63
     7
421
 16777215
176
     1
 74
     1
176
     1
 91
        4
176
     1
 64
     7
176
     1
 65
   257
176
     1
 75
     1
176
     1
175
     1
176
     1
 42
1.0
176
     1
 92
        8
176
     1
 66
     7
176
     1
 43
1.0
176
     1
 76
     1
176
     1
 77
     6
176
     1
 78
     2
176
     1
 67
     7
176
     1
 79
     5
176
     1
170
     0
176
     1
171
     0
176
     1
290
     0
176
     1
 93
        1
176
     1
 44
-50.0
176
     1
173
     0
176
     1
  0
VISUALSTYLE
  5
39
102
{ACAD_REACTORS
330
2A
102
}
330
2A
100
AcDbVisualStyle
  2
Facepattern
 70
    15
177
     2
291
     1
 71
     2
176
     1
 72
     2
176
     1
 73
     0
176
     1
 90
        0
176
     1
 40
-0.6
176
     1
 41
-30.0
176
     1
 62
     5
 63
     7
421
 16777215
176
     1
 74
     1
176
     1
 91
        4
176
     1
 64
     7
176
     1
 65
   257
176
     1
 75
     1
176
     1
175
     1
176
     1
 42
1.0
176
     1
 92
        8
176
     1
 66
     7
176
     1
 43
1.0
176
     1
 76
     1
176
     1
 77
     6
176
     1
 78
     2
176
     1
 67
     7
176
     1
 79
     5
176
     1
170
     0
176
     1
171
     0
176
     1
290
     0
176
     1
 93
        1
176
     1
 44
0.0
176
     1
173
     0
176
     1
  0
VISUALSTYLE
  5
2B
102
{ACAD_REACTORS
330
2A
102
}
330
2A
100
AcDbVisualStyle
  2
Flat
 70
     0
177
     2
291
     1
 71
     2
176
     1
 72
     1
176
     1
 73
     1
176
     1
 90
        2
176
     1
 40
-0.6
176
     1
 41
30.0
176
     1
 62
     5
 63
     7
421
 16777215
176
     1
 74
     0
176
     1
 91
        4
176
     1
 64
     7
176
     1
 65
   257
176
     1
 75
     1
176
     1
175
     1
176
     1
 42
1.0
176
     1
 92
        8
176
     1
 66
     7
176
     1
 43
1.0
176
     1
 76
     1
176
     1
 77
     6
176
     1
 78
     2
176
     1
 67
     7
176
     1
 79
     5
176
     1
170
     0
176
     1
171
     0
176
     1
290
     0
176
     1
 93
       13
176
     1
 44
0.0
176
     1
173
     0
176
     1
  0
VISUALSTYLE
  5
2C
102
{ACAD_REACTORS
330
2A
102
}
330
2A
100
AcDbVisualStyle
  2
FlatWithEdges
 70
     1
177
     2
291
     1
 71
     2
176
     1
 72
     1
176
     1
 73
     1
176
     1
 90
        2
176
     1
 40
-0.6
176
     1
 41
30.0
176
     1
 62
     5
 63
     7
421
 16777215
176
     1
 74
     1
176
     1
 91
        4
176
     1
 64
     7
176
     1
 65
   257
176
     1
 75
     1
176
     1
175
     1
176
     1
 42
1.0
176
     1
 92
        0
176
     1
 66
   257
176
     1
 43
1.0
176
     1
 76
     1
176
     1
 77
     6
176
     1
 78
     2
176
     1
 67
     7
176
     1
 79
     5
176
     1
170
     0
176
     1
171
     0
176
     1
290
     0
176
     1
 93
       13
176
     1
 44
0.0
176
     1
173
     0
176
     1
  0
VISUALSTYLE
  5
2D
102
{ACAD_REACTORS
330
2A
102
}
330
2A
100
AcDbVisualStyle
  2
Gouraud
 70
     2
177
     2
291
     1
 71
     2
176
     1
 72
     2
176
     1
 73
     1
176
     1
 90
        2
176
     1
 40
-0.6
176
     1
 41
30.0
176
     1
 62
     5
 63
     7
421
 16777215
176
     1
 74
     0
176
     1
 91
        4
176
     1
 64
     7
176
     1
 65
   257
176
     1
 75
     1
176
     1
175
     1
176
     1
 42
1.0
176
     1
 92
        0
176
     1
 66
     7
176
     1
 43
1.0
176
     1
 76
     1
176
     1
 77
     6
176
     1
 78
     2
176
     1
 67
     7
176
     1
 79
     5
176
     1
170
     0
176
     1
171
     0
176
     1
290
     0
176
     1
 93
       13
176
     1
 44
0.0
176
     1
173
     0
176
     1
  0
VISUALSTYLE
  5
2E
102
{ACAD_REACTORS
330
2A
102
}
330
2A
100
AcDbVisualStyle
  2
GouraudWithEdges
 70
     3
177
     2
291
     1
 71
     2
176
     1
 72
     2
176
     1
 73
     1
176
     1
 90
        2
176
     1
 40
-0.6
176
     1
 41
30.0
176
     1
 62
     5
 63
     7
421
 16777215
176
     1
 74
     1
176
     1
 91
        4
176
     1
 64
     7
176
     1
 65
   257
176
     1
 75
     1
176
     1
175
     1
176
     1
 42
1.0
176
     1
 92
        0
176
     1
 66
   257
176
     1
 43
1.0
176
     1
 76
     1
176
     1
 77
     6
176
     1
 78
     2
176
     1
 67
     7
176
     1
 79
     5
176
     1
170
     0
176
     1
171
     0
176
     1
290
     0
176
     1
 93
       13
176
     1
 44
0.0
176
     1
173
     0
176
     1
  0
VISUALSTYLE
  5
38
102
{ACAD_REACTORS
330
2A
102
}
330
2A
100
AcDbVisualStyle
  2
Linepattern
 70
    14
177
     2
291
     1
 71
     2
176
     1
 72
     2
176
     1
 73
     0
176
     1
 90
        0
176
     1
 40
-0.6
176
     1
 41
-30.0
176
     1
 62
     5
 63
     7
421
 16777215
176
     1
 74
     1
176
     1
 91
        4
176
     1
 64
     7
176
     1
 65
   257
176
     1
 75
     7
176
     1
175
     7
176
     1
 42
1.0
176
     1
 92
        8
176
     1
 66
     7
176
     1
 43
1.0
176
     1
 76
     1
176
     1
 77
     6
176
     1
 78
     2
176
     1
 67
     7
176
     1
 79
     5
176
     1
170
     0
176
     1
171
     0
176
     1
290
     0
176
     1
 93
        1
176
     1
 44
0.0
176
     1
173
     0
176
     1
  0
VISUALSTYLE
  5
33
102
{ACAD_REACTORS
330
2A
102
}
330
2A
100
AcDbVisualStyle
  2
Realistic
 70
     8
177
     2
291
     0
 71
     2
176
     1
 72
     2
176
     1
 73
     0
176
     1
 90
        0
176
     1
 40
-0.6
176
     1
 41
-30.0
176
     1
 62
     5
 63
     7
421
 16777215
176
     1
 74
     1
176
     1
 91
        0
176
     1
 64
     7
176
     1
 65
   257
176
     1
 75
     1
176
     1
175
     1
176
     1
 42
1.0
176
     1
 92
        8
176
     1
 66
     8
424
  7895160
176
     1
 43
1.0
176
     1
 76
     1
176
     1
 77
     6
176
     1
 78
     2
176
     1
 67
     7
176
     1
 79
     5
176
     1
170
     0
176
     1
171
     0
176
     1
290
     0
176
     1
 93
       13
176
     1
 44
0.0
176
     1
173
     0
176
     1
  0
VISUALSTYLE
  5
37
102
{ACAD_REACTORS
330
2A
102
}
330
2A
100
AcDbVisualStyle
  2
Thicken
 70
    13
177
     2
291
     1
 71
     2
176
     1
 72
     2
176
     1
 73
     0
176
     1
 90
        0
176
     1
 40
-0.6
176
     1
 41
-30.0
176
     1
 62
     5
 63
     7
421
 16777215
176
     1
 74
     1
176
     1
 91
        4
176
     1
 64
     7
176
     1
 65
   257
176
     1
 75
     1
176
     1
175
     1
176
     1
 42
1.0
176
     1
 92
       12
176
     1
 66
     7
176
     1
 43
1.0
176
     1
 76
     1
176
     1
 77
     6
176
     1
 78
     2
176
     1
 67
     7
176
     1
 79
     5
176
     1
170
     0
176
     1
171
     0
176
     1
290
     0
176
     1
 93
        1
176
     1
 44
0.0
176
     1
173
     0
176
     1
  0
ENDSEC
  0
EOF
