0
SECTION
2
HEADER
9
$INSUNITS
70
4
9
$ACADVER
1
AC1014
9
$HANDSEED
5
FFFF
0
ENDSEC
0
SECTION
2
TABLES
0
TABLE
2
VPORT
5
8
100
AcDbSymbolTable
0
ENDTAB
0
TABLE
2
LTYPE
5
5
100
AcDbSymbolTable
0
LTYPE
5
14
100
AcDbSymbolTableRecord
100
AcDbLinetypeTableRecord
2
BYBLOCK
70
0
0
LTYPE
5
15
100
AcDbSymbolTableRecord
100
AcDbLinetypeTableRecord
2
BYLAYER
70
0
0
ENDTAB
0
TABLE
2
LAYER
5
2
100
AcDbSymbolTable
70
2
0
LAYER
5
50
100
AcDbSymbolTableRecord
100
AcDbLayerTableRecord
2
0
70
0
6
CONTINUOUS
0
ENDTAB
0
TABLE
2
STYLE
5
3
100
AcDbSymbolTable
70
1
0
STYLE
5
11
100
AcDbSymbolTableRecord
100
AcDbTextStyleTableRecord
2
STANDARD
70
0
0
ENDTAB
0
TABLE
2
VIEW
5
6
100
AcDbSymbolTable
70
0
0
ENDTAB
0
TABLE
2
UCS
5
7
100
AcDbSymbolTable
70
0
0
ENDTAB
0
TABLE
2
APPID
5
9
100
AcDbSymbolTable
70
2
0
APPID
5
12
100
AcDbSymbolTableRecord
100
AcDbRegAppTableRecord
2
ACAD
70
0
0
ENDTAB
0
TABLE
2
DIMSTYLE
5
A
100
AcDbSymbolTable
70
1
0
ENDTAB
0
TABLE
2
BLOCK_RECORD
5
1
100
AcDbSymbolTable
70
1
0
BLOCK_RECORD
5
1F
100
AcDbSymbolTableRecord
100
AcDbBlockTableRecord
2
*MODEL_SPACE
0
BLOCK_RECORD
5
1B
100
AcDbSymbolTableRecord
100
AcDbBlockTableRecord
2
*PAPER_SPACE
0
ENDTAB
0
ENDSEC
0
SECTION
2
BLOCKS
0
BLOCK
5
20
100
AcDbEntity
100
AcDbBlockBegin
2
*MODEL_SPACE
0
ENDBLK
5
21
100
AcDbEntity
100
AcDbBlockEnd
0
BLOCK
5
1C
100
AcDbEntity
100
AcDbBlockBegin
2
*PAPER_SPACE
0
ENDBLK
5
1D
100
AcDbEntity
100
AcDbBlockEnd
0
ENDSEC
0
SECTION
2
ENTITIES
0
LINE
5
100
100
AcDbEntity
8
0
100
AcDbLine
10
188.75000000000003
20
50
30
0
11
186.50000000000003
21
40
31
0
0
LINE
5
101
100
AcDbEntity
8
0
100
AcDbLine
10
186.50000000000003
20
40
30
0
11
184.25000000000006
21
50
31
0
0
LINE
5
102
100
AcDbEntity
8
0
100
AcDbLine
10
184.25000000000006
20
50
30
0
11
179.25000000000006
21
50
31
0
0
LINE
5
103
100
AcDbEntity
8
0
100
AcDbLine
10
179.25000000000006
20
50
30
0
11
177.00000000000003
21
40
31
0
0
LINE
5
104
100
AcDbEntity
8
0
100
AcDbLine
10
177.00000000000003
20
40
30
0
11
174.75
21
50
31
0
0
LINE
5
105
100
AcDbEntity
8
0
100
AcDbLine
10
174.75
20
50
30
0
11
169.75
21
50
31
0
0
LINE
5
106
100
AcDbEntity
8
0
100
AcDbLine
10
169.75
20
50
30
0
11
167.50000000000003
21
40
31
0
0
LINE
5
107
100
AcDbEntity
8
0
100
AcDbLine
10
167.50000000000003
20
40
30
0
11
165.25000000000006
21
50
31
0
0
LINE
5
108
100
AcDbEntity
8
0
100
AcDbLine
10
165.25000000000006
20
50
30
0
11
160.25000000000003
21
50
31
0
0
LINE
5
109
100
AcDbEntity
8
0
100
AcDbLine
10
160.25000000000003
20
50
30
0
11
158
21
40
31
0
0
LINE
5
110
100
AcDbEntity
8
0
100
AcDbLine
10
158
20
40
30
0
11
155.75
21
50
31
0
0
LINE
5
111
100
AcDbEntity
8
0
100
AcDbLine
10
155.75
20
50
30
0
11
150.75000000000003
21
50
31
0
0
LINE
5
112
100
AcDbEntity
8
0
100
AcDbLine
10
150.75000000000003
20
50
30
0
11
148.5
21
40
31
0
0
LINE
5
113
100
AcDbEntity
8
0
100
AcDbLine
10
148.5
20
40
30
0
11
146.25000000000003
21
50
31
0
0
LINE
5
114
100
AcDbEntity
8
0
100
AcDbLine
10
146.25000000000003
20
50
30
0
11
141.25000000000003
21
50
31
0
0
LINE
5
115
100
AcDbEntity
8
0
100
AcDbLine
10
141.25000000000003
20
50
30
0
11
139.00000000000003
21
40
31
0
0
LINE
5
116
100
AcDbEntity
8
0
100
AcDbLine
10
139.00000000000003
20
40
30
0
11
136.75000000000003
21
50
31
0
0
LINE
5
117
100
AcDbEntity
8
0
100
AcDbLine
10
136.75000000000003
20
50
30
0
11
131.75000000000003
21
50
31
0
0
LINE
5
118
100
AcDbEntity
8
0
100
AcDbLine
10
131.75000000000003
20
50
30
0
11
129.50000000000003
21
40
31
0
0
LINE
5
119
100
AcDbEntity
8
0
100
AcDbLine
10
129.50000000000003
20
40
30
0
11
127.25000000000003
21
50
31
0
0
LINE
5
120
100
AcDbEntity
8
0
100
AcDbLine
10
127.25000000000003
20
50
30
0
11
122.25000000000001
21
50
31
0
0
LINE
5
121
100
AcDbEntity
8
0
100
AcDbLine
10
122.25000000000001
20
50
30
0
11
120
21
40
31
0
0
LINE
5
122
100
AcDbEntity
8
0
100
AcDbLine
10
120
20
40
30
0
11
117.75
21
50
31
0
0
LINE
5
123
100
AcDbEntity
8
0
100
AcDbLine
10
117.75
20
50
30
0
11
112.75000000000003
21
50
31
0
0
LINE
5
124
100
AcDbEntity
8
0
100
AcDbLine
10
112.75000000000003
20
50
30
0
11
110.5
21
40
31
0
0
LINE
5
125
100
AcDbEntity
8
0
100
AcDbLine
10
110.5
20
40
30
0
11
108.25000000000001
21
50
31
0
0
LINE
5
126
100
AcDbEntity
8
0
100
AcDbLine
10
108.25000000000001
20
50
30
0
11
103.25000000000001
21
50
31
0
0
LINE
5
127
100
AcDbEntity
8
0
100
AcDbLine
10
103.25000000000001
20
50
30
0
11
101.00000000000001
21
40
31
0
0
LINE
5
128
100
AcDbEntity
8
0
100
AcDbLine
10
101.00000000000001
20
40
30
0
11
98.750000000000014
21
50
31
0
0
LINE
5
129
100
AcDbEntity
8
0
100
AcDbLine
10
98.750000000000014
20
50
30
0
11
93.750000000000014
21
50
31
0
0
LINE
5
130
100
AcDbEntity
8
0
100
AcDbLine
10
93.750000000000014
20
50
30
0
11
91.500000000000028
21
40
31
0
0
LINE
5
131
100
AcDbEntity
8
0
100
AcDbLine
10
91.500000000000028
20
40
30
0
11
89.250000000000028
21
50
31
0
0
LINE
5
132
100
AcDbEntity
8
0
100
AcDbLine
10
89.250000000000028
20
50
30
0
11
84.25
21
50
31
0
0
LINE
5
133
100
AcDbEntity
8
0
100
AcDbLine
10
84.25
20
50
30
0
11
82.000000000000014
21
40
31
0
0
LINE
5
134
100
AcDbEntity
8
0
100
AcDbLine
10
82.000000000000014
20
40
30
0
11
79.750000000000014
21
50
31
0
0
LINE
5
135
100
AcDbEntity
8
0
100
AcDbLine
10
79.750000000000014
20
50
30
0
11
74.750000000000014
21
50
31
0
0
LINE
5
136
100
AcDbEntity
8
0
100
AcDbLine
10
74.750000000000014
20
50
30
0
11
72.500000000000014
21
40
31
0
0
LINE
5
137
100
AcDbEntity
8
0
100
AcDbLine
10
72.500000000000014
20
40
30
0
11
70.250000000000014
21
50
31
0
0
LINE
5
138
100
AcDbEntity
8
0
100
AcDbLine
10
70.250000000000014
20
50
30
0
11
65.25
21
50
31
0
0
LINE
5
139
100
AcDbEntity
8
0
100
AcDbLine
10
65.25
20
50
30
0
11
63.000000000000007
21
40
31
0
0
LINE
5
140
100
AcDbEntity
8
0
100
AcDbLine
10
63.000000000000007
20
40
30
0
11
60.750000000000014
21
50
31
0
0
LINE
5
141
100
AcDbEntity
8
0
100
AcDbLine
10
60.750000000000014
20
50
30
0
11
55.750000000000014
21
50
31
0
0
LINE
5
142
100
AcDbEntity
8
0
100
AcDbLine
10
55.750000000000014
20
50
30
0
11
53.500000000000007
21
40
31
0
0
LINE
5
143
100
AcDbEntity
8
0
100
AcDbLine
10
53.500000000000007
20
40
30
0
11
51.250000000000007
21
50
31
0
0
LINE
5
144
100
AcDbEntity
8
0
100
AcDbLine
10
51.250000000000007
20
50
30
0
11
46.25
21
50
31
0
0
LINE
5
145
100
AcDbEntity
8
0
100
AcDbLine
10
46.25
20
50
30
0
11
44
21
40
31
0
0
LINE
5
146
100
AcDbEntity
8
0
100
AcDbLine
10
44
20
40
30
0
11
41.750000000000007
21
50
31
0
0
LINE
5
147
100
AcDbEntity
8
0
100
AcDbLine
10
41.750000000000007
20
50
30
0
11
36.75
21
50
31
0
0
LINE
5
148
100
AcDbEntity
8
0
100
AcDbLine
10
36.75
20
50
30
0
11
34.5
21
40
31
0
0
LINE
5
149
100
AcDbEntity
8
0
100
AcDbLine
10
34.5
20
40
30
0
11
32.250000000000007
21
50
31
0
0
LINE
5
150
100
AcDbEntity
8
0
100
AcDbLine
10
32.250000000000007
20
50
30
0
11
25.000000000000426
21
50.000000000275278
31
0
0
LINE
5
151
100
AcDbEntity
8
0
100
AcDbLine
10
25.000000000000426
20
50.000000000275278
30
0
11
25.000000000000284
21
55.000000000271498
31
0
0
ARC
5
152
100
AcDbEntity
8
0
100
AcDbCircle
10
22.499999999985576
20
59.330127019192524
30
0
40
5.0000000000063416
210
-0
220
0
230
1
100
AcDbArc
50
-59.999999999847368
51
239.99999999982171
0
LINE
5
153
100
AcDbEntity
8
0
100
AcDbLine
10
19.999999999968928
20
55.000000000272607
30
0
11
19.999999999952465
21
50.000000000270539
31
0
0
LINE
5
154
100
AcDbEntity
8
0
100
AcDbLine
10
19.999999999952465
20
50.000000000270539
30
0
11
-20
21
50.000000000276117
31
0
0
LINE
5
155
100
AcDbEntity
8
0
100
AcDbLine
10
-20
20
50.000000000276117
30
0
11
-20
21
55.000000000279229
31
0
0
ARC
5
156
100
AcDbEntity
8
0
100
AcDbCircle
10
-22.500000000001631
20
59.330127019200816
30
0
40
5.000000000000294
210
-0
220
0
230
1
100
AcDbArc
50
-59.999999999980339
51
239.99999999998192
0
LINE
5
157
100
AcDbEntity
8
0
100
AcDbLine
10
-25.000000000003141
20
55.000000000279158
30
0
11
-25
21
50.000000000276515
31
0
0
LINE
5
158
100
AcDbEntity
8
0
100
AcDbLine
10
-25
20
50.000000000276515
30
0
11
-35.873874731670341
21
50
31
0
0
LINE
5
159
100
AcDbEntity
8
0
100
AcDbLine
10
-35.873874731670341
20
50
30
0
11
-38.123874731670355
21
39.999999999999993
31
0
0
LINE
5
160
100
AcDbEntity
8
0
100
AcDbLine
10
-38.123874731670355
20
39.999999999999993
30
0
11
-40.373874731670334
21
50
31
0
0
LINE
5
161
100
AcDbEntity
8
0
100
AcDbLine
10
-40.373874731670334
20
50
30
0
11
-45.373874731670334
21
50
31
0
0
LINE
5
162
100
AcDbEntity
8
0
100
AcDbLine
10
-45.373874731670334
20
50
30
0
11
-47.623874731670348
21
39.999999999999993
31
0
0
LINE
5
163
100
AcDbEntity
8
0
100
AcDbLine
10
-47.623874731670348
20
39.999999999999993
30
0
11
-49.873874731670327
21
50
31
0
0
LINE
5
164
100
AcDbEntity
8
0
100
AcDbLine
10
-49.873874731670327
20
50
30
0
11
-54.873874731670327
21
50
31
0
0
LINE
5
165
100
AcDbEntity
8
0
100
AcDbLine
10
-54.873874731670327
20
50
30
0
11
-57.123874731670341
21
39.999999999999993
31
0
0
LINE
5
166
100
AcDbEntity
8
0
100
AcDbLine
10
-57.123874731670341
20
39.999999999999993
30
0
11
-59.37387473167032
21
50
31
0
0
LINE
5
167
100
AcDbEntity
8
0
100
AcDbLine
10
-59.37387473167032
20
50
30
0
11
-64.373874731670327
21
50
31
0
0
LINE
5
168
100
AcDbEntity
8
0
100
AcDbLine
10
-64.373874731670327
20
50
30
0
11
-66.623874731670327
21
39.999999999999993
31
0
0
LINE
5
169
100
AcDbEntity
8
0
100
AcDbLine
10
-66.623874731670327
20
39.999999999999993
30
0
11
-68.873874731670313
21
50
31
0
0
LINE
5
170
100
AcDbEntity
8
0
100
AcDbLine
10
-68.873874731670313
20
50
30
0
11
-73.873874731670313
21
50
31
0
0
LINE
5
171
100
AcDbEntity
8
0
100
AcDbLine
10
-73.873874731670313
20
50
30
0
11
-76.123874731670327
21
39.999999999999993
31
0
0
LINE
5
172
100
AcDbEntity
8
0
100
AcDbLine
10
-76.123874731670327
20
39.999999999999993
30
0
11
-78.373874731670298
21
50
31
0
0
LINE
5
173
100
AcDbEntity
8
0
100
AcDbLine
10
-78.373874731670298
20
50
30
0
11
-83.373874731670298
21
50
31
0
0
LINE
5
174
100
AcDbEntity
8
0
100
AcDbLine
10
-83.373874731670298
20
50
30
0
11
-85.623874731670327
21
39.999999999999993
31
0
0
LINE
5
175
100
AcDbEntity
8
0
100
AcDbLine
10
-85.623874731670327
20
39.999999999999993
30
0
11
-87.873874731670298
21
50
31
0
0
LINE
5
176
100
AcDbEntity
8
0
100
AcDbLine
10
-87.873874731670298
20
50
30
0
11
-92.873874731670298
21
50
31
0
0
LINE
5
177
100
AcDbEntity
8
0
100
AcDbLine
10
-92.873874731670298
20
50
30
0
11
-95.123874731670313
21
39.999999999999993
31
0
0
LINE
5
178
100
AcDbEntity
8
0
100
AcDbLine
10
-95.123874731670313
20
39.999999999999993
30
0
11
-97.373874731670298
21
50
31
0
0
LINE
5
179
100
AcDbEntity
8
0
100
AcDbLine
10
-97.373874731670298
20
50
30
0
11
-102.3738747316703
21
50
31
0
0
LINE
5
180
100
AcDbEntity
8
0
100
AcDbLine
10
-102.3738747316703
20
50
30
0
11
-104.6238747316703
21
39.999999999999993
31
0
0
LINE
5
181
100
AcDbEntity
8
0
100
AcDbLine
10
-104.6238747316703
20
39.999999999999993
30
0
11
-106.87387473167028
21
50
31
0
0
LINE
5
182
100
AcDbEntity
8
0
100
AcDbLine
10
-106.87387473167028
20
50
30
0
11
-111.87387473167028
21
50
31
0
0
LINE
5
183
100
AcDbEntity
8
0
100
AcDbLine
10
-111.87387473167028
20
50
30
0
11
-114.1238747316703
21
39.999999999999993
31
0
0
LINE
5
184
100
AcDbEntity
8
0
100
AcDbLine
10
-114.1238747316703
20
39.999999999999993
30
0
11
-116.37387473167027
21
50
31
0
0
LINE
5
185
100
AcDbEntity
8
0
100
AcDbLine
10
-116.37387473167027
20
50
30
0
11
-121.37387473167027
21
50
31
0
0
LINE
5
186
100
AcDbEntity
8
0
100
AcDbLine
10
-121.37387473167027
20
50
30
0
11
-123.6238747316703
21
39.999999999999993
31
0
0
LINE
5
187
100
AcDbEntity
8
0
100
AcDbLine
10
-123.6238747316703
20
39.999999999999993
30
0
11
-125.87387473167027
21
50
31
0
0
LINE
5
188
100
AcDbEntity
8
0
100
AcDbLine
10
-125.87387473167027
20
50
30
0
11
-130.87387473167027
21
50
31
0
0
LINE
5
189
100
AcDbEntity
8
0
100
AcDbLine
10
-130.87387473167027
20
50
30
0
11
-133.1238747316703
21
39.999999999999993
31
0
0
LINE
5
190
100
AcDbEntity
8
0
100
AcDbLine
10
-133.1238747316703
20
39.999999999999993
30
0
11
-135.37387473167027
21
50
31
0
0
LINE
5
191
100
AcDbEntity
8
0
100
AcDbLine
10
-135.37387473167027
20
50
30
0
11
-140.37387473167027
21
50
31
0
0
LINE
5
192
100
AcDbEntity
8
0
100
AcDbLine
10
-140.37387473167027
20
50
30
0
11
-142.62387473167027
21
39.999999999999993
31
0
0
LINE
5
193
100
AcDbEntity
8
0
100
AcDbLine
10
-142.62387473167027
20
39.999999999999993
30
0
11
-144.87387473167024
21
50
31
0
0
LINE
5
194
100
AcDbEntity
8
0
100
AcDbLine
10
-144.87387473167024
20
50
30
0
11
-149.87387473167024
21
50
31
0
0
LINE
5
195
100
AcDbEntity
8
0
100
AcDbLine
10
-149.87387473167024
20
50
30
0
11
-152.12387473167027
21
39.999999999999993
31
0
0
LINE
5
196
100
AcDbEntity
8
0
100
AcDbLine
10
-152.12387473167027
20
39.999999999999993
30
0
11
-154.37387473167024
21
50
31
0
0
LINE
5
197
100
AcDbEntity
8
0
100
AcDbLine
10
-154.37387473167024
20
50
30
0
11
-159.37387473167024
21
50
31
0
0
LINE
5
198
100
AcDbEntity
8
0
100
AcDbLine
10
-159.37387473167024
20
50
30
0
11
-161.62387473167027
21
39.999999999999993
31
0
0
LINE
5
199
100
AcDbEntity
8
0
100
AcDbLine
10
-161.62387473167027
20
39.999999999999993
30
0
11
-163.87387473167024
21
50
31
0
0
LINE
5
200
100
AcDbEntity
8
0
100
AcDbLine
10
-163.87387473167024
20
50
30
0
11
-168.87387473167024
21
50
31
0
0
LINE
5
201
100
AcDbEntity
8
0
100
AcDbLine
10
-168.87387473167024
20
50
30
0
11
-171.12387473167024
21
39.999999999999993
31
0
0
LINE
5
202
100
AcDbEntity
8
0
100
AcDbLine
10
-171.12387473167024
20
39.999999999999993
30
0
11
-173.37387473167024
21
50
31
0
0
LINE
5
203
100
AcDbEntity
8
0
100
AcDbLine
10
-173.37387473167024
20
50
30
0
11
-178.37387473167024
21
50
31
0
0
LINE
5
204
100
AcDbEntity
8
0
100
AcDbLine
10
-178.37387473167024
20
50
30
0
11
-180.62387473167024
21
39.999999999999993
31
0
0
LINE
5
205
100
AcDbEntity
8
0
100
AcDbLine
10
-180.62387473167024
20
39.999999999999993
30
0
11
-182.87387473167024
21
50
31
0
0
LINE
5
206
100
AcDbEntity
8
0
100
AcDbLine
10
-182.87387473167024
20
50
30
0
11
-187.87387473167024
21
50
31
0
0
LINE
5
207
100
AcDbEntity
8
0
100
AcDbLine
10
-187.87387473167024
20
50
30
0
11
-190.12387473167024
21
39.999999999999993
31
0
0
LINE
5
208
100
AcDbEntity
8
0
100
AcDbLine
10
-190.12387473167024
20
39.999999999999993
30
0
11
-192.37387473167021
21
50
31
0
0
LINE
5
209
100
AcDbEntity
8
0
100
AcDbLine
10
-192.37387473167021
20
50
30
0
11
-199.62387473167047
21
50.000000000286001
31
0
0
LINE
5
210
100
AcDbEntity
8
0
100
AcDbLine
10
-199.62387473167047
20
50.000000000286001
30
0
11
-199.62387473166984
21
55.000000000286001
31
0
0
ARC
5
211
100
AcDbEntity
8
0
100
AcDbCircle
10
-202.12387473080665
20
59.330127019679367
30
0
40
4.9999999999764464
210
-0
220
0
230
1
100
AcDbArc
50
-60.000000011265918
51
239.9999999884115
0
LINE
5
212
100
AcDbEntity
8
0
100
AcDbLine
10
-204.62387473167067
20
55.000000001283212
30
0
11
-204.62387473167027
21
50.000000001283212
31
0
0
LINE
5
213
100
AcDbEntity
8
0
100
AcDbLine
10
-204.62387473167027
20
50.000000001283212
30
0
11
-244.6238747298903
21
50.000000001265306
31
0
0
LINE
5
214
100
AcDbEntity
8
0
100
AcDbLine
10
-244.6238747298903
20
50.000000001265306
30
0
11
-244.623874730029
21
55.000000000350639
31
0
0
ARC
5
215
100
AcDbEntity
8
0
100
AcDbCircle
10
-247.12387473001621
20
59.330127019268048
30
0
40
4.9999999999894618
210
-0
220
0
230
1
100
AcDbArc
50
-60.000000000099519
51
240.00000000161387
0
LINE
5
216
100
AcDbEntity
8
0
100
AcDbLine
10
-249.62387472988897
20
55.000000000284572
30
0
11
-249.623874729889
21
50.000000000284565
31
0
0
LINE
5
217
100
AcDbEntity
8
0
100
AcDbLine
10
-249.623874729889
20
50.000000000284565
30
0
11
-265.49774946333969
21
50
31
0
0
LINE
5
218
100
AcDbEntity
8
0
100
AcDbLine
10
-265.49774946333969
20
50
30
0
11
-267.74774946333969
21
40
31
0
0
LINE
5
219
100
AcDbEntity
8
0
100
AcDbLine
10
-267.74774946333969
20
40
30
0
11
-269.99774946333969
21
50
31
0
0
LINE
5
220
100
AcDbEntity
8
0
100
AcDbLine
10
-269.99774946333969
20
50
30
0
11
-274.99774946333969
21
50
31
0
0
LINE
5
221
100
AcDbEntity
8
0
100
AcDbLine
10
-274.99774946333969
20
50
30
0
11
-277.24774946333974
21
40
31
0
0
LINE
5
222
100
AcDbEntity
8
0
100
AcDbLine
10
-277.24774946333974
20
40
30
0
11
-279.49774946333974
21
50
31
0
0
LINE
5
223
100
AcDbEntity
8
0
100
AcDbLine
10
-279.49774946333974
20
50
30
0
11
-284.49774946333974
21
50
31
0
0
LINE
5
224
100
AcDbEntity
8
0
100
AcDbLine
10
-284.49774946333974
20
50
30
0
11
-286.74774946333974
21
40
31
0
0
LINE
5
225
100
AcDbEntity
8
0
100
AcDbLine
10
-286.74774946333974
20
40
30
0
11
-288.9977494633398
21
50
31
0
0
LINE
5
226
100
AcDbEntity
8
0
100
AcDbLine
10
-288.9977494633398
20
50
30
0
11
-293.9977494633398
21
50
31
0
0
LINE
5
227
100
AcDbEntity
8
0
100
AcDbLine
10
-293.9977494633398
20
50
30
0
11
-296.2477494633398
21
40
31
0
0
LINE
5
228
100
AcDbEntity
8
0
100
AcDbLine
10
-296.2477494633398
20
40
30
0
11
-298.4977494633398
21
50
31
0
0
LINE
5
229
100
AcDbEntity
8
0
100
AcDbLine
10
-298.4977494633398
20
50
30
0
11
-303.4977494633398
21
50
31
0
0
LINE
5
230
100
AcDbEntity
8
0
100
AcDbLine
10
-303.4977494633398
20
50
30
0
11
-305.7477494633398
21
40
31
0
0
LINE
5
231
100
AcDbEntity
8
0
100
AcDbLine
10
-305.7477494633398
20
40
30
0
11
-307.9977494633398
21
50
31
0
0
LINE
5
232
100
AcDbEntity
8
0
100
AcDbLine
10
-307.9977494633398
20
50
30
0
11
-312.9977494633398
21
50
31
0
0
LINE
5
233
100
AcDbEntity
8
0
100
AcDbLine
10
-312.9977494633398
20
50
30
0
11
-315.24774946333986
21
40
31
0
0
LINE
5
234
100
AcDbEntity
8
0
100
AcDbLine
10
-315.24774946333986
20
40
30
0
11
-317.49774946333986
21
50
31
0
0
LINE
5
235
100
AcDbEntity
8
0
100
AcDbLine
10
-317.49774946333986
20
50
30
0
11
-322.49774946333986
21
50
31
0
0
LINE
5
236
100
AcDbEntity
8
0
100
AcDbLine
10
-322.49774946333986
20
50
30
0
11
-324.74774946333986
21
40
31
0
0
LINE
5
237
100
AcDbEntity
8
0
100
AcDbLine
10
-324.74774946333986
20
40
30
0
11
-326.99774946333991
21
50
31
0
0
LINE
5
238
100
AcDbEntity
8
0
100
AcDbLine
10
-326.99774946333991
20
50
30
0
11
-331.99774946333991
21
50
31
0
0
LINE
5
239
100
AcDbEntity
8
0
100
AcDbLine
10
-331.99774946333991
20
50
30
0
11
-334.24774946333991
21
40
31
0
0
LINE
5
240
100
AcDbEntity
8
0
100
AcDbLine
10
-334.24774946333991
20
40
30
0
11
-336.49774946333991
21
50
31
0
0
LINE
5
241
100
AcDbEntity
8
0
100
AcDbLine
10
-336.49774946333991
20
50
30
0
11
-341.49774946333991
21
50
31
0
0
LINE
5
242
100
AcDbEntity
8
0
100
AcDbLine
10
-341.49774946333991
20
50
30
0
11
-343.74774946333991
21
40
31
0
0
LINE
5
243
100
AcDbEntity
8
0
100
AcDbLine
10
-343.74774946333991
20
40
30
0
11
-345.99774946333991
21
50
31
0
0
LINE
5
244
100
AcDbEntity
8
0
100
AcDbLine
10
-345.99774946333991
20
50
30
0
11
-350.99774946333991
21
50
31
0
0
LINE
5
245
100
AcDbEntity
8
0
100
AcDbLine
10
-350.99774946333991
20
50
30
0
11
-353.24774946333997
21
40
31
0
0
LINE
5
246
100
AcDbEntity
8
0
100
AcDbLine
10
-353.24774946333997
20
40
30
0
11
-355.49774946333997
21
50
31
0
0
LINE
5
247
100
AcDbEntity
8
0
100
AcDbLine
10
-355.49774946333997
20
50
30
0
11
-360.49774946333997
21
50
31
0
0
LINE
5
248
100
AcDbEntity
8
0
100
AcDbLine
10
-360.49774946333997
20
50
30
0
11
-362.74774946333997
21
40
31
0
0
LINE
5
249
100
AcDbEntity
8
0
100
AcDbLine
10
-362.74774946333997
20
40
30
0
11
-364.99774946334003
21
50
31
0
0
LINE
5
250
100
AcDbEntity
8
0
100
AcDbLine
10
-364.99774946334003
20
50
30
0
11
-369.99774946334003
21
50
31
0
0
LINE
5
251
100
AcDbEntity
8
0
100
AcDbLine
10
-369.99774946334003
20
50
30
0
11
-372.24774946334003
21
40
31
0
0
LINE
5
252
100
AcDbEntity
8
0
100
AcDbLine
10
-372.24774946334003
20
40
30
0
11
-374.49774946334003
21
50
31
0
0
LINE
5
253
100
AcDbEntity
8
0
100
AcDbLine
10
-374.49774946334003
20
50
30
0
11
-379.49774946334003
21
50
31
0
0
LINE
5
254
100
AcDbEntity
8
0
100
AcDbLine
10
-379.49774946334003
20
50
30
0
11
-381.74774946334003
21
40
31
0
0
LINE
5
255
100
AcDbEntity
8
0
100
AcDbLine
10
-381.74774946334003
20
40
30
0
11
-383.99774946334003
21
50
31
0
0
LINE
5
256
100
AcDbEntity
8
0
100
AcDbLine
10
-383.99774946334003
20
50
30
0
11
-388.99774946334003
21
50
31
0
0
LINE
5
257
100
AcDbEntity
8
0
100
AcDbLine
10
-388.99774946334003
20
50
30
0
11
-391.24774946334009
21
40
31
0
0
LINE
5
258
100
AcDbEntity
8
0
100
AcDbLine
10
-391.24774946334009
20
40
30
0
11
-393.49774946334009
21
50
31
0
0
LINE
5
259
100
AcDbEntity
8
0
100
AcDbLine
10
-393.49774946334009
20
50
30
0
11
-398.49774946334009
21
50
31
0
0
LINE
5
260
100
AcDbEntity
8
0
100
AcDbLine
10
-398.49774946334009
20
50
30
0
11
-400.74774946334009
21
40
31
0
0
LINE
5
261
100
AcDbEntity
8
0
100
AcDbLine
10
-400.74774946334009
20
40
30
0
11
-402.99774946334014
21
50
31
0
0
LINE
5
262
100
AcDbEntity
8
0
100
AcDbLine
10
-402.99774946334014
20
50
30
0
11
-407.99774946334014
21
50
31
0
0
LINE
5
263
100
AcDbEntity
8
0
100
AcDbLine
10
-407.99774946334014
20
50
30
0
11
-410.24774946334014
21
40
31
0
0
LINE
5
264
100
AcDbEntity
8
0
100
AcDbLine
10
-410.24774946334014
20
40
30
0
11
-412.49774946334014
21
50
31
0
0
LINE
5
265
100
AcDbEntity
8
0
100
AcDbLine
10
-412.49774946334014
20
50
30
0
11
-417.49774946334014
21
50
31
0
0
LINE
5
266
100
AcDbEntity
8
0
100
AcDbLine
10
-417.49774946334014
20
50
30
0
11
-419.74774946334014
21
40
31
0
0
LINE
5
267
100
AcDbEntity
8
0
100
AcDbLine
10
-419.74774946334014
20
40
30
0
11
-421.99774946334014
21
50
31
0
0
LINE
5
268
100
AcDbEntity
8
0
100
AcDbLine
10
-421.99774946334014
20
50
30
0
11
-429.24774946334054
21
50.00000000016292
31
0
0
LINE
5
269
100
AcDbEntity
8
0
100
AcDbLine
10
-429.24774946334054
20
50.00000000016292
30
0
11
-429.24774946334014
21
55.00000000016292
31
0
0
ARC
5
270
100
AcDbEntity
8
0
100
AcDbCircle
10
-431.74774946334134
20
59.330127019085609
30
0
40
5.0000000000010374
210
-0
220
0
230
1
100
AcDbArc
50
-59.999999999990976
51
239.99999999999022
0
LINE
5
271
100
AcDbEntity
8
0
100
AcDbLine
10
-434.24774946334259
20
55.000000000162956
30
0
11
-434.24774946334259
21
50.00000000016292
31
0
0
LINE
5
272
100
AcDbEntity
8
0
100
AcDbLine
10
-434.24774946334259
20
50.00000000016292
30
0
11
-449.24774946334259
21
50.00000000016292
31
0
0
LINE
5
273
100
AcDbEntity
8
0
100
AcDbLine
10
-449.24774946334259
20
50.00000000016292
30
0
11
-449.24774946334247
21
20
31
0
0
LINE
5
274
100
AcDbEntity
8
0
100
AcDbLine
10
-449.24774946334247
20
20
30
0
11
-444.24774947453693
21
20
31
0
0
ARC
5
275
100
AcDbEntity
8
0
100
AcDbCircle
10
-439.91762245399656
20
17.500000001671477
30
0
40
5.0000000014007187
210
0
220
0
230
1
100
AcDbArc
50
-150.00000000926801
51
150.00000002585912
0
LINE
5
276
100
AcDbEntity
8
0
100
AcDbLine
10
-444.24774947453619
20
15.000000001671554
30
0
11
-449.24774947453619
21
15.000000001671561
31
0
0
LINE
5
277
100
AcDbEntity
8
0
100
AcDbLine
10
-449.24774947453619
20
15.000000001671561
30
0
11
-449.24774947453591
21
-14.999999996656852
31
0
0
LINE
5
278
100
AcDbEntity
8
0
100
AcDbLine
10
-449.24774947453591
20
-14.999999996656852
30
0
11
-444.24774947526009
21
-14.999999999582432
31
0
0
ARC
5
279
100
AcDbEntity
8
0
100
AcDbCircle
10
-439.91762245399656
20
-17.499999998328526
30
0
40
5.0000000014007151
210
0
220
0
230
1
100
AcDbArc
50
-150.00000000926812
51
150.00000002585858
0
LINE
5
280
100
AcDbEntity
8
0
100
AcDbLine
10
-444.24774947453619
20
-19.999999998328441
30
0
11
-449.24774947453619
21
-19.999999998328441
31
0
0
LINE
5
281
100
AcDbEntity
8
0
100
AcDbLine
10
-449.24774947453619
20
-19.999999998328441
30
0
11
-449.24774947453591
21
-49.999999996656861
31
0
0
LINE
5
282
100
AcDbEntity
8
0
100
AcDbLine
10
-449.24774947453591
20
-49.999999996656861
30
0
11
-434.24774946333946
21
-49.999999999837073
31
0
0
LINE
5
283
100
AcDbEntity
8
0
100
AcDbLine
10
-434.24774946333946
20
-49.999999999837073
30
0
11
-434.24774946333946
21
-44.999999999837073
31
0
0
ARC
5
284
100
AcDbEntity
8
0
100
AcDbCircle
10
-431.74774946333957
20
-40.669872980916033
30
0
40
4.9999999999990381
210
0
220
0
230
1
100
AcDbArc
50
-59.999999999762842
51
239.99999999999454
0
LINE
5
285
100
AcDbEntity
8
0
100
AcDbLine
10
-429.24774946332212
20
-44.999999999827061
30
0
11
-429.24774946333946
21
-49.999999999837073
31
0
0
LINE
5
286
100
AcDbEntity
8
0
100
AcDbLine
10
-429.24774946333946
20
-49.999999999837073
30
0
11
-419.74774946334014
21
-50
31
0
0
LINE
5
287
100
AcDbEntity
8
0
100
AcDbLine
10
-419.74774946334014
20
-50
30
0
11
-421.99774946334014
21
-40
31
0
0
LINE
5
288
100
AcDbEntity
8
0
100
AcDbLine
10
-421.99774946334014
20
-40
30
0
11
-419.74774946334014
21
-30
31
0
0
LINE
5
289
100
AcDbEntity
8
0
100
AcDbLine
10
-419.74774946334014
20
-30
30
0
11
-417.49774946334014
21
-40
31
0
0
LINE
5
290
100
AcDbEntity
8
0
100
AcDbLine
10
-417.49774946334014
20
-40
30
0
11
-419.74774946334014
21
-50
31
0
0
LINE
5
291
100
AcDbEntity
8
0
100
AcDbLine
10
-419.74774946334014
20
-50
30
0
11
-410.24774946334014
21
-50
31
0
0
LINE
5
292
100
AcDbEntity
8
0
100
AcDbLine
10
-410.24774946334014
20
-50
30
0
11
-412.49774946334014
21
-40
31
0
0
LINE
5
293
100
AcDbEntity
8
0
100
AcDbLine
10
-412.49774946334014
20
-40
30
0
11
-410.24774946334014
21
-30
31
0
0
LINE
5
294
100
AcDbEntity
8
0
100
AcDbLine
10
-410.24774946334014
20
-30
30
0
11
-407.99774946334014
21
-40
31
0
0
LINE
5
295
100
AcDbEntity
8
0
100
AcDbLine
10
-407.99774946334014
20
-40
30
0
11
-410.24774946334014
21
-50
31
0
0
LINE
5
296
100
AcDbEntity
8
0
100
AcDbLine
10
-410.24774946334014
20
-50
30
0
11
-400.74774946334009
21
-50
31
0
0
LINE
5
297
100
AcDbEntity
8
0
100
AcDbLine
10
-400.74774946334009
20
-50
30
0
11
-402.99774946334014
21
-40
31
0
0
LINE
5
298
100
AcDbEntity
8
0
100
AcDbLine
10
-402.99774946334014
20
-40
30
0
11
-400.74774946334009
21
-30
31
0
0
LINE
5
299
100
AcDbEntity
8
0
100
AcDbLine
10
-400.74774946334009
20
-30
30
0
11
-398.49774946334009
21
-40
31
0
0
LINE
5
300
100
AcDbEntity
8
0
100
AcDbLine
10
-398.49774946334009
20
-40
30
0
11
-400.74774946334009
21
-50
31
0
0
LINE
5
301
100
AcDbEntity
8
0
100
AcDbLine
10
-400.74774946334009
20
-50
30
0
11
-391.24774946334009
21
-50
31
0
0
LINE
5
302
100
AcDbEntity
8
0
100
AcDbLine
10
-391.24774946334009
20
-50
30
0
11
-393.49774946334009
21
-40
31
0
0
LINE
5
303
100
AcDbEntity
8
0
100
AcDbLine
10
-393.49774946334009
20
-40
30
0
11
-391.24774946334009
21
-30
31
0
0
LINE
5
304
100
AcDbEntity
8
0
100
AcDbLine
10
-391.24774946334009
20
-30
30
0
11
-388.99774946334003
21
-40
31
0
0
LINE
5
305
100
AcDbEntity
8
0
100
AcDbLine
10
-388.99774946334003
20
-40
30
0
11
-391.24774946334009
21
-50
31
0
0
LINE
5
306
100
AcDbEntity
8
0
100
AcDbLine
10
-391.24774946334009
20
-50
30
0
11
-381.74774946334003
21
-50
31
0
0
LINE
5
307
100
AcDbEntity
8
0
100
AcDbLine
10
-381.74774946334003
20
-50
30
0
11
-383.99774946334003
21
-40
31
0
0
LINE
5
308
100
AcDbEntity
8
0
100
AcDbLine
10
-383.99774946334003
20
-40
30
0
11
-381.74774946334003
21
-30
31
0
0
LINE
5
309
100
AcDbEntity
8
0
100
AcDbLine
10
-381.74774946334003
20
-30
30
0
11
-379.49774946334003
21
-40
31
0
0
LINE
5
310
100
AcDbEntity
8
0
100
AcDbLine
10
-379.49774946334003
20
-40
30
0
11
-381.74774946334003
21
-50
31
0
0
LINE
5
311
100
AcDbEntity
8
0
100
AcDbLine
10
-381.74774946334003
20
-50
30
0
11
-372.24774946334003
21
-50
31
0
0
LINE
5
312
100
AcDbEntity
8
0
100
AcDbLine
10
-372.24774946334003
20
-50
30
0
11
-374.49774946334003
21
-40
31
0
0
LINE
5
313
100
AcDbEntity
8
0
100
AcDbLine
10
-374.49774946334003
20
-40
30
0
11
-372.24774946334003
21
-30
31
0
0
LINE
5
314
100
AcDbEntity
8
0
100
AcDbLine
10
-372.24774946334003
20
-30
30
0
11
-369.99774946334003
21
-40
31
0
0
LINE
5
315
100
AcDbEntity
8
0
100
AcDbLine
10
-369.99774946334003
20
-40
30
0
11
-372.24774946334003
21
-50
31
0
0
LINE
5
316
100
AcDbEntity
8
0
100
AcDbLine
10
-372.24774946334003
20
-50
30
0
11
-362.74774946333997
21
-50
31
0
0
LINE
5
317
100
AcDbEntity
8
0
100
AcDbLine
10
-362.74774946333997
20
-50
30
0
11
-364.99774946334003
21
-40
31
0
0
LINE
5
318
100
AcDbEntity
8
0
100
AcDbLine
10
-364.99774946334003
20
-40
30
0
11
-362.74774946333997
21
-30
31
0
0
LINE
5
319
100
AcDbEntity
8
0
100
AcDbLine
10
-362.74774946333997
20
-30
30
0
11
-360.49774946333997
21
-40
31
0
0
LINE
5
320
100
AcDbEntity
8
0
100
AcDbLine
10
-360.49774946333997
20
-40
30
0
11
-362.74774946333997
21
-50
31
0
0
LINE
5
321
100
AcDbEntity
8
0
100
AcDbLine
10
-362.74774946333997
20
-50
30
0
11
-353.24774946333997
21
-50
31
0
0
LINE
5
322
100
AcDbEntity
8
0
100
AcDbLine
10
-353.24774946333997
20
-50
30
0
11
-355.49774946333997
21
-40
31
0
0
LINE
5
323
100
AcDbEntity
8
0
100
AcDbLine
10
-355.49774946333997
20
-40
30
0
11
-353.24774946333997
21
-30
31
0
0
LINE
5
324
100
AcDbEntity
8
0
100
AcDbLine
10
-353.24774946333997
20
-30
30
0
11
-350.99774946333991
21
-40
31
0
0
LINE
5
325
100
AcDbEntity
8
0
100
AcDbLine
10
-350.99774946333991
20
-40
30
0
11
-353.24774946333997
21
-50
31
0
0
LINE
5
326
100
AcDbEntity
8
0
100
AcDbLine
10
-353.24774946333997
20
-50
30
0
11
-343.74774946333991
21
-50
31
0
0
LINE
5
327
100
AcDbEntity
8
0
100
AcDbLine
10
-343.74774946333991
20
-50
30
0
11
-345.99774946333991
21
-40
31
0
0
LINE
5
328
100
AcDbEntity
8
0
100
AcDbLine
10
-345.99774946333991
20
-40
30
0
11
-343.74774946333991
21
-30
31
0
0
LINE
5
329
100
AcDbEntity
8
0
100
AcDbLine
10
-343.74774946333991
20
-30
30
0
11
-341.49774946333991
21
-40
31
0
0
LINE
5
330
100
AcDbEntity
8
0
100
AcDbLine
10
-341.49774946333991
20
-40
30
0
11
-343.74774946333991
21
-50
31
0
0
LINE
5
331
100
AcDbEntity
8
0
100
AcDbLine
10
-343.74774946333991
20
-50
30
0
11
-334.24774946333991
21
-50
31
0
0
LINE
5
332
100
AcDbEntity
8
0
100
AcDbLine
10
-334.24774946333991
20
-50
30
0
11
-336.49774946333991
21
-40
31
0
0
LINE
5
333
100
AcDbEntity
8
0
100
AcDbLine
10
-336.49774946333991
20
-40
30
0
11
-334.24774946333991
21
-30
31
0
0
LINE
5
334
100
AcDbEntity
8
0
100
AcDbLine
10
-334.24774946333991
20
-30
30
0
11
-331.99774946333991
21
-40
31
0
0
LINE
5
335
100
AcDbEntity
8
0
100
AcDbLine
10
-331.99774946333991
20
-40
30
0
11
-334.24774946333991
21
-50
31
0
0
LINE
5
336
100
AcDbEntity
8
0
100
AcDbLine
10
-334.24774946333991
20
-50
30
0
11
-324.74774946333986
21
-50
31
0
0
LINE
5
337
100
AcDbEntity
8
0
100
AcDbLine
10
-324.74774946333986
20
-50
30
0
11
-326.99774946333991
21
-40
31
0
0
LINE
5
338
100
AcDbEntity
8
0
100
AcDbLine
10
-326.99774946333991
20
-40
30
0
11
-324.74774946333986
21
-30
31
0
0
LINE
5
339
100
AcDbEntity
8
0
100
AcDbLine
10
-324.74774946333986
20
-30
30
0
11
-322.49774946333986
21
-40
31
0
0
LINE
5
340
100
AcDbEntity
8
0
100
AcDbLine
10
-322.49774946333986
20
-40
30
0
11
-324.74774946333986
21
-50
31
0
0
LINE
5
341
100
AcDbEntity
8
0
100
AcDbLine
10
-324.74774946333986
20
-50
30
0
11
-315.24774946333986
21
-50
31
0
0
LINE
5
342
100
AcDbEntity
8
0
100
AcDbLine
10
-315.24774946333986
20
-50
30
0
11
-317.49774946333986
21
-40
31
0
0
LINE
5
343
100
AcDbEntity
8
0
100
AcDbLine
10
-317.49774946333986
20
-40
30
0
11
-315.24774946333986
21
-30
31
0
0
LINE
5
344
100
AcDbEntity
8
0
100
AcDbLine
10
-315.24774946333986
20
-30
30
0
11
-312.9977494633398
21
-40
31
0
0
LINE
5
345
100
AcDbEntity
8
0
100
AcDbLine
10
-312.9977494633398
20
-40
30
0
11
-315.24774946333986
21
-50
31
0
0
LINE
5
346
100
AcDbEntity
8
0
100
AcDbLine
10
-315.24774946333986
20
-50
30
0
11
-305.7477494633398
21
-50
31
0
0
LINE
5
347
100
AcDbEntity
8
0
100
AcDbLine
10
-305.7477494633398
20
-50
30
0
11
-307.9977494633398
21
-40
31
0
0
LINE
5
348
100
AcDbEntity
8
0
100
AcDbLine
10
-307.9977494633398
20
-40
30
0
11
-305.7477494633398
21
-30
31
0
0
LINE
5
349
100
AcDbEntity
8
0
100
AcDbLine
10
-305.7477494633398
20
-30
30
0
11
-303.4977494633398
21
-40
31
0
0
LINE
5
350
100
AcDbEntity
8
0
100
AcDbLine
10
-303.4977494633398
20
-40
30
0
11
-305.7477494633398
21
-50
31
0
0
LINE
5
351
100
AcDbEntity
8
0
100
AcDbLine
10
-305.7477494633398
20
-50
30
0
11
-296.2477494633398
21
-50
31
0
0
LINE
5
352
100
AcDbEntity
8
0
100
AcDbLine
10
-296.2477494633398
20
-50
30
0
11
-298.4977494633398
21
-40
31
0
0
LINE
5
353
100
AcDbEntity
8
0
100
AcDbLine
10
-298.4977494633398
20
-40
30
0
11
-296.2477494633398
21
-30
31
0
0
LINE
5
354
100
AcDbEntity
8
0
100
AcDbLine
10
-296.2477494633398
20
-30
30
0
11
-293.9977494633398
21
-40
31
0
0
LINE
5
355
100
AcDbEntity
8
0
100
AcDbLine
10
-293.9977494633398
20
-40
30
0
11
-296.2477494633398
21
-50
31
0
0
LINE
5
356
100
AcDbEntity
8
0
100
AcDbLine
10
-296.2477494633398
20
-50
30
0
11
-286.74774946333974
21
-50
31
0
0
LINE
5
357
100
AcDbEntity
8
0
100
AcDbLine
10
-286.74774946333974
20
-50
30
0
11
-288.9977494633398
21
-40
31
0
0
LINE
5
358
100
AcDbEntity
8
0
100
AcDbLine
10
-288.9977494633398
20
-40
30
0
11
-286.74774946333974
21
-30
31
0
0
LINE
5
359
100
AcDbEntity
8
0
100
AcDbLine
10
-286.74774946333974
20
-30
30
0
11
-284.49774946333974
21
-40
31
0
0
LINE
5
360
100
AcDbEntity
8
0
100
AcDbLine
10
-284.49774946333974
20
-40
30
0
11
-286.74774946333974
21
-50
31
0
0
LINE
5
361
100
AcDbEntity
8
0
100
AcDbLine
10
-286.74774946333974
20
-50
30
0
11
-277.24774946333974
21
-50
31
0
0
LINE
5
362
100
AcDbEntity
8
0
100
AcDbLine
10
-277.24774946333974
20
-50
30
0
11
-279.49774946333974
21
-40
31
0
0
LINE
5
363
100
AcDbEntity
8
0
100
AcDbLine
10
-279.49774946333974
20
-40
30
0
11
-277.24774946333974
21
-30
31
0
0
LINE
5
364
100
AcDbEntity
8
0
100
AcDbLine
10
-277.24774946333974
20
-30
30
0
11
-274.99774946333969
21
-40
31
0
0
LINE
5
365
100
AcDbEntity
8
0
100
AcDbLine
10
-274.99774946333969
20
-40
30
0
11
-277.24774946333974
21
-50
31
0
0
LINE
5
366
100
AcDbEntity
8
0
100
AcDbLine
10
-277.24774946333974
20
-50
30
0
11
-267.74774946333969
21
-50
31
0
0
LINE
5
367
100
AcDbEntity
8
0
100
AcDbLine
10
-267.74774946333969
20
-50
30
0
11
-269.99774946333969
21
-40
31
0
0
LINE
5
368
100
AcDbEntity
8
0
100
AcDbLine
10
-269.99774946333969
20
-40
30
0
11
-267.74774946333969
21
-30
31
0
0
LINE
5
369
100
AcDbEntity
8
0
100
AcDbLine
10
-267.74774946333969
20
-30
30
0
11
-265.49774946333969
21
-40
31
0
0
LINE
5
370
100
AcDbEntity
8
0
100
AcDbLine
10
-265.49774946333969
20
-40
30
0
11
-267.74774946333969
21
-50
31
0
0
LINE
5
371
100
AcDbEntity
8
0
100
AcDbLine
10
-267.74774946333969
20
-50
30
0
11
-249.62387472956465
21
-49.999999999837179
31
0
0
LINE
5
372
100
AcDbEntity
8
0
100
AcDbLine
10
-249.62387472956465
20
-49.999999999837179
30
0
11
-249.62387472956641
21
-44.999999999837144
31
0
0
ARC
5
373
100
AcDbEntity
8
0
100
AcDbCircle
10
-247.12387472955197
20
-40.6698729812667
30
0
40
4.9999999997026352
210
0
220
0
230
1
100
AcDbArc
50
-59.999999997971805
51
239.99999999784131
0
LINE
5
374
100
AcDbEntity
8
0
100
AcDbLine
10
-244.62387472954737
20
-44.999999999842885
30
0
11
-244.6238747295393
21
-49.999999999837179
31
0
0
LINE
5
375
100
AcDbEntity
8
0
100
AcDbLine
10
-244.6238747295393
20
-49.999999999837179
30
0
11
-204.62387473378891
21
-49.999999999772804
31
0
0
LINE
5
376
100
AcDbEntity
8
0
100
AcDbLine
10
-204.62387473378891
20
-49.999999999772804
30
0
11
-204.6238747338171
21
-44.999999999821867
31
0
0
ARC
5
377
100
AcDbEntity
8
0
100
AcDbCircle
10
-202.1238747337888
20
-40.669872979915247
30
0
40
5.0000000008666898
210
0
220
0
230
1
100
AcDbArc
50
-60.000000005733988
51
240.00000000535945
0
LINE
5
378
100
AcDbEntity
8
0
100
AcDbLine
10
-199.6238747337888
20
-44.999999999838209
30
0
11
-199.62387473378874
21
-49.999999999838209
31
0
0
LINE
5
379
100
AcDbEntity
8
0
100
AcDbLine
10
-199.62387473378874
20
-49.999999999838209
30
0
11
-190.12387473167024
21
-50
31
0
0
LINE
5
380
100
AcDbEntity
8
0
100
AcDbLine
10
-190.12387473167024
20
-50
30
0
11
-192.37387473167021
21
-39.999999999999993
31
0
0
LINE
5
381
100
AcDbEntity
8
0
100
AcDbLine
10
-192.37387473167021
20
-39.999999999999993
30
0
11
-190.12387473167024
21
-29.999999999999982
31
0
0
LINE
5
382
100
AcDbEntity
8
0
100
AcDbLine
10
-190.12387473167024
20
-29.999999999999982
30
0
11
-187.87387473167024
21
-40
31
0
0
LINE
5
383
100
AcDbEntity
8
0
100
AcDbLine
10
-187.87387473167024
20
-40
30
0
11
-190.12387473167024
21
-50
31
0
0
LINE
5
384
100
AcDbEntity
8
0
100
AcDbLine
10
-190.12387473167024
20
-50
30
0
11
-180.62387473167024
21
-50
31
0
0
LINE
5
385
100
AcDbEntity
8
0
100
AcDbLine
10
-180.62387473167024
20
-50
30
0
11
-182.87387473167024
21
-39.999999999999993
31
0
0
LINE
5
386
100
AcDbEntity
8
0
100
AcDbLine
10
-182.87387473167024
20
-39.999999999999993
30
0
11
-180.62387473167024
21
-29.999999999999982
31
0
0
LINE
5
387
100
AcDbEntity
8
0
100
AcDbLine
10
-180.62387473167024
20
-29.999999999999982
30
0
11
-178.37387473167024
21
-40
31
0
0
LINE
5
388
100
AcDbEntity
8
0
100
AcDbLine
10
-178.37387473167024
20
-40
30
0
11
-180.62387473167024
21
-50
31
0
0
LINE
5
389
100
AcDbEntity
8
0
100
AcDbLine
10
-180.62387473167024
20
-50
30
0
11
-171.12387473167024
21
-50
31
0
0
LINE
5
390
100
AcDbEntity
8
0
100
AcDbLine
10
-171.12387473167024
20
-50
30
0
11
-173.37387473167024
21
-39.999999999999993
31
0
0
LINE
5
391
100
AcDbEntity
8
0
100
AcDbLine
10
-173.37387473167024
20
-39.999999999999993
30
0
11
-171.12387473167024
21
-29.999999999999982
31
0
0
LINE
5
392
100
AcDbEntity
8
0
100
AcDbLine
10
-171.12387473167024
20
-29.999999999999982
30
0
11
-168.87387473167024
21
-40
31
0
0
LINE
5
393
100
AcDbEntity
8
0
100
AcDbLine
10
-168.87387473167024
20
-40
30
0
11
-171.12387473167024
21
-50
31
0
0
LINE
5
394
100
AcDbEntity
8
0
100
AcDbLine
10
-171.12387473167024
20
-50
30
0
11
-161.62387473167027
21
-50
31
0
0
LINE
5
395
100
AcDbEntity
8
0
100
AcDbLine
10
-161.62387473167027
20
-50
30
0
11
-163.87387473167024
21
-39.999999999999993
31
0
0
LINE
5
396
100
AcDbEntity
8
0
100
AcDbLine
10
-163.87387473167024
20
-39.999999999999993
30
0
11
-161.62387473167027
21
-29.999999999999982
31
0
0
LINE
5
397
100
AcDbEntity
8
0
100
AcDbLine
10
-161.62387473167027
20
-29.999999999999982
30
0
11
-159.37387473167024
21
-40
31
0
0
LINE
5
398
100
AcDbEntity
8
0
100
AcDbLine
10
-159.37387473167024
20
-40
30
0
11
-161.62387473167027
21
-50
31
0
0
LINE
5
399
100
AcDbEntity
8
0
100
AcDbLine
10
-161.62387473167027
20
-50
30
0
11
-152.12387473167027
21
-50
31
0
0
LINE
5
400
100
AcDbEntity
8
0
100
AcDbLine
10
-152.12387473167027
20
-50
30
0
11
-154.37387473167024
21
-39.999999999999993
31
0
0
LINE
5
401
100
AcDbEntity
8
0
100
AcDbLine
10
-154.37387473167024
20
-39.999999999999993
30
0
11
-152.12387473167027
21
-29.999999999999982
31
0
0
LINE
5
402
100
AcDbEntity
8
0
100
AcDbLine
10
-152.12387473167027
20
-29.999999999999982
30
0
11
-149.87387473167024
21
-40
31
0
0
LINE
5
403
100
AcDbEntity
8
0
100
AcDbLine
10
-149.87387473167024
20
-40
30
0
11
-152.12387473167027
21
-50
31
0
0
LINE
5
404
100
AcDbEntity
8
0
100
AcDbLine
10
-152.12387473167027
20
-50
30
0
11
-142.62387473167027
21
-50
31
0
0
LINE
5
405
100
AcDbEntity
8
0
100
AcDbLine
10
-142.62387473167027
20
-50
30
0
11
-144.87387473167024
21
-39.999999999999993
31
0
0
LINE
5
406
100
AcDbEntity
8
0
100
AcDbLine
10
-144.87387473167024
20
-39.999999999999993
30
0
11
-142.62387473167027
21
-29.999999999999982
31
0
0
LINE
5
407
100
AcDbEntity
8
0
100
AcDbLine
10
-142.62387473167027
20
-29.999999999999982
30
0
11
-140.37387473167027
21
-40
31
0
0
LINE
5
408
100
AcDbEntity
8
0
100
AcDbLine
10
-140.37387473167027
20
-40
30
0
11
-142.62387473167027
21
-50
31
0
0
LINE
5
409
100
AcDbEntity
8
0
100
AcDbLine
10
-142.62387473167027
20
-50
30
0
11
-133.1238747316703
21
-50
31
0
0
LINE
5
410
100
AcDbEntity
8
0
100
AcDbLine
10
-133.1238747316703
20
-50
30
0
11
-135.37387473167027
21
-39.999999999999993
31
0
0
LINE
5
411
100
AcDbEntity
8
0
100
AcDbLine
10
-135.37387473167027
20
-39.999999999999993
30
0
11
-133.1238747316703
21
-29.999999999999982
31
0
0
LINE
5
412
100
AcDbEntity
8
0
100
AcDbLine
10
-133.1238747316703
20
-29.999999999999982
30
0
11
-130.87387473167027
21
-40
31
0
0
LINE
5
413
100
AcDbEntity
8
0
100
AcDbLine
10
-130.87387473167027
20
-40
30
0
11
-133.1238747316703
21
-50
31
0
0
LINE
5
414
100
AcDbEntity
8
0
100
AcDbLine
10
-133.1238747316703
20
-50
30
0
11
-123.6238747316703
21
-50
31
0
0
LINE
5
415
100
AcDbEntity
8
0
100
AcDbLine
10
-123.6238747316703
20
-50
30
0
11
-125.87387473167027
21
-39.999999999999993
31
0
0
LINE
5
416
100
AcDbEntity
8
0
100
AcDbLine
10
-125.87387473167027
20
-39.999999999999993
30
0
11
-123.6238747316703
21
-29.999999999999982
31
0
0
LINE
5
417
100
AcDbEntity
8
0
100
AcDbLine
10
-123.6238747316703
20
-29.999999999999982
30
0
11
-121.37387473167027
21
-40
31
0
0
LINE
5
418
100
AcDbEntity
8
0
100
AcDbLine
10
-121.37387473167027
20
-40
30
0
11
-123.6238747316703
21
-50
31
0
0
LINE
5
419
100
AcDbEntity
8
0
100
AcDbLine
10
-123.6238747316703
20
-50
30
0
11
-114.1238747316703
21
-50
31
0
0
LINE
5
420
100
AcDbEntity
8
0
100
AcDbLine
10
-114.1238747316703
20
-50
30
0
11
-116.37387473167027
21
-39.999999999999993
31
0
0
LINE
5
421
100
AcDbEntity
8
0
100
AcDbLine
10
-116.37387473167027
20
-39.999999999999993
30
0
11
-114.1238747316703
21
-29.999999999999982
31
0
0
LINE
5
422
100
AcDbEntity
8
0
100
AcDbLine
10
-114.1238747316703
20
-29.999999999999982
30
0
11
-111.87387473167028
21
-40
31
0
0
LINE
5
423
100
AcDbEntity
8
0
100
AcDbLine
10
-111.87387473167028
20
-40
30
0
11
-114.1238747316703
21
-50
31
0
0
LINE
5
424
100
AcDbEntity
8
0
100
AcDbLine
10
-114.1238747316703
20
-50
30
0
11
-104.6238747316703
21
-50
31
0
0
LINE
5
425
100
AcDbEntity
8
0
100
AcDbLine
10
-104.6238747316703
20
-50
30
0
11
-106.87387473167028
21
-39.999999999999993
31
0
0
LINE
5
426
100
AcDbEntity
8
0
100
AcDbLine
10
-106.87387473167028
20
-39.999999999999993
30
0
11
-104.6238747316703
21
-29.999999999999982
31
0
0
LINE
5
427
100
AcDbEntity
8
0
100
AcDbLine
10
-104.6238747316703
20
-29.999999999999982
30
0
11
-102.3738747316703
21
-40
31
0
0
LINE
5
428
100
AcDbEntity
8
0
100
AcDbLine
10
-102.3738747316703
20
-40
30
0
11
-104.6238747316703
21
-50
31
0
0
LINE
5
429
100
AcDbEntity
8
0
100
AcDbLine
10
-104.6238747316703
20
-50
30
0
11
-95.123874731670313
21
-50
31
0
0
LINE
5
430
100
AcDbEntity
8
0
100
AcDbLine
10
-95.123874731670313
20
-50
30
0
11
-97.373874731670298
21
-39.999999999999993
31
0
0
LINE
5
431
100
AcDbEntity
8
0
100
AcDbLine
10
-97.373874731670298
20
-39.999999999999993
30
0
11
-95.123874731670313
21
-29.999999999999982
31
0
0
LINE
5
432
100
AcDbEntity
8
0
100
AcDbLine
10
-95.123874731670313
20
-29.999999999999982
30
0
11
-92.873874731670298
21
-40
31
0
0
LINE
5
433
100
AcDbEntity
8
0
100
AcDbLine
10
-92.873874731670298
20
-40
30
0
11
-95.123874731670313
21
-50
31
0
0
LINE
5
434
100
AcDbEntity
8
0
100
AcDbLine
10
-95.123874731670313
20
-50
30
0
11
-85.623874731670327
21
-50
31
0
0
LINE
5
435
100
AcDbEntity
8
0
100
AcDbLine
10
-85.623874731670327
20
-50
30
0
11
-87.873874731670298
21
-39.999999999999993
31
0
0
LINE
5
436
100
AcDbEntity
8
0
100
AcDbLine
10
-87.873874731670298
20
-39.999999999999993
30
0
11
-85.623874731670327
21
-29.999999999999982
31
0
0
LINE
5
437
100
AcDbEntity
8
0
100
AcDbLine
10
-85.623874731670327
20
-29.999999999999982
30
0
11
-83.373874731670298
21
-40
31
0
0
LINE
5
438
100
AcDbEntity
8
0
100
AcDbLine
10
-83.373874731670298
20
-40
30
0
11
-85.623874731670327
21
-50
31
0
0
LINE
5
439
100
AcDbEntity
8
0
100
AcDbLine
10
-85.623874731670327
20
-50
30
0
11
-76.123874731670327
21
-50
31
0
0
LINE
5
440
100
AcDbEntity
8
0
100
AcDbLine
10
-76.123874731670327
20
-50
30
0
11
-78.373874731670298
21
-39.999999999999993
31
0
0
LINE
5
441
100
AcDbEntity
8
0
100
AcDbLine
10
-78.373874731670298
20
-39.999999999999993
30
0
11
-76.123874731670327
21
-29.999999999999982
31
0
0
LINE
5
442
100
AcDbEntity
8
0
100
AcDbLine
10
-76.123874731670327
20
-29.999999999999982
30
0
11
-73.873874731670313
21
-40
31
0
0
LINE
5
443
100
AcDbEntity
8
0
100
AcDbLine
10
-73.873874731670313
20
-40
30
0
11
-76.123874731670327
21
-50
31
0
0
LINE
5
444
100
AcDbEntity
8
0
100
AcDbLine
10
-76.123874731670327
20
-50
30
0
11
-66.623874731670327
21
-50
31
0
0
LINE
5
445
100
AcDbEntity
8
0
100
AcDbLine
10
-66.623874731670327
20
-50
30
0
11
-68.873874731670313
21
-39.999999999999993
31
0
0
LINE
5
446
100
AcDbEntity
8
0
100
AcDbLine
10
-68.873874731670313
20
-39.999999999999993
30
0
11
-66.623874731670327
21
-29.999999999999982
31
0
0
LINE
5
447
100
AcDbEntity
8
0
100
AcDbLine
10
-66.623874731670327
20
-29.999999999999982
30
0
11
-64.373874731670327
21
-40
31
0
0
LINE
5
448
100
AcDbEntity
8
0
100
AcDbLine
10
-64.373874731670327
20
-40
30
0
11
-66.623874731670327
21
-50
31
0
0
LINE
5
449
100
AcDbEntity
8
0
100
AcDbLine
10
-66.623874731670327
20
-50
30
0
11
-57.123874731670341
21
-50
31
0
0
LINE
5
450
100
AcDbEntity
8
0
100
AcDbLine
10
-57.123874731670341
20
-50
30
0
11
-59.37387473167032
21
-39.999999999999993
31
0
0
LINE
5
451
100
AcDbEntity
8
0
100
AcDbLine
10
-59.37387473167032
20
-39.999999999999993
30
0
11
-57.123874731670341
21
-29.999999999999982
31
0
0
LINE
5
452
100
AcDbEntity
8
0
100
AcDbLine
10
-57.123874731670341
20
-29.999999999999982
30
0
11
-54.873874731670327
21
-40
31
0
0
LINE
5
453
100
AcDbEntity
8
0
100
AcDbLine
10
-54.873874731670327
20
-40
30
0
11
-57.123874731670341
21
-50
31
0
0
LINE
5
454
100
AcDbEntity
8
0
100
AcDbLine
10
-57.123874731670341
20
-50
30
0
11
-47.623874731670348
21
-50
31
0
0
LINE
5
455
100
AcDbEntity
8
0
100
AcDbLine
10
-47.623874731670348
20
-50
30
0
11
-49.873874731670327
21
-39.999999999999993
31
0
0
LINE
5
456
100
AcDbEntity
8
0
100
AcDbLine
10
-49.873874731670327
20
-39.999999999999993
30
0
11
-47.623874731670348
21
-29.999999999999982
31
0
0
LINE
5
457
100
AcDbEntity
8
0
100
AcDbLine
10
-47.623874731670348
20
-29.999999999999982
30
0
11
-45.373874731670334
21
-40
31
0
0
LINE
5
458
100
AcDbEntity
8
0
100
AcDbLine
10
-45.373874731670334
20
-40
30
0
11
-47.623874731670348
21
-50
31
0
0
LINE
5
459
100
AcDbEntity
8
0
100
AcDbLine
10
-47.623874731670348
20
-50
30
0
11
-38.123874731670355
21
-50
31
0
0
LINE
5
460
100
AcDbEntity
8
0
100
AcDbLine
10
-38.123874731670355
20
-50
30
0
11
-40.373874731670334
21
-39.999999999999993
31
0
0
LINE
5
461
100
AcDbEntity
8
0
100
AcDbLine
10
-40.373874731670334
20
-39.999999999999993
30
0
11
-38.123874731670355
21
-29.999999999999982
31
0
0
LINE
5
462
100
AcDbEntity
8
0
100
AcDbLine
10
-38.123874731670355
20
-29.999999999999982
30
0
11
-35.873874731670341
21
-40
31
0
0
LINE
5
463
100
AcDbEntity
8
0
100
AcDbLine
10
-35.873874731670341
20
-40
30
0
11
-38.123874731670355
21
-50
31
0
0
LINE
5
464
100
AcDbEntity
8
0
100
AcDbLine
10
-38.123874731670355
20
-50
30
0
11
-25
21
-49.999999999837179
31
0
0
LINE
5
465
100
AcDbEntity
8
0
100
AcDbLine
10
-25
20
-49.999999999837179
30
0
11
-25
21
-44.999999999837179
31
0
0
ARC
5
466
100
AcDbEntity
8
0
100
AcDbCircle
10
-22.5
20
-40.669872980914732
30
0
40
5.0000000000002149
210
0
220
0
230
1
100
AcDbArc
50
-60.000000000001052
51
240.00000000000148
0
LINE
5
467
100
AcDbEntity
8
0
100
AcDbLine
10
-19.999999999999972
20
-44.999999999837158
30
0
11
-20
21
-49.999999999837179
31
0
0
LINE
5
468
100
AcDbEntity
8
0
100
AcDbLine
10
-20
20
-49.999999999837179
30
0
11
20.000000000002842
21
-49.999999999837179
31
0
0
LINE
5
469
100
AcDbEntity
8
0
100
AcDbLine
10
20.000000000002842
20
-49.999999999837179
30
0
11
20.000000000003055
21
-44.9999999998372
31
0
0
ARC
5
470
100
AcDbEntity
8
0
100
AcDbCircle
10
22.499999999999964
20
-40.669872980913581
30
0
40
4.9999999999996794
210
0
220
0
230
1
100
AcDbArc
50
-60.000000000019476
51
240.00000000003882
0
LINE
5
471
100
AcDbEntity
8
0
100
AcDbLine
10
24.999999999998334
20
-44.999999999836348
30
0
11
24.999999999998543
21
-49.999999999836504
31
0
0
LINE
5
472
100
AcDbEntity
8
0
100
AcDbLine
10
24.999999999998543
20
-49.999999999836504
30
0
11
34.5
21
-50
31
0
0
LINE
5
473
100
AcDbEntity
8
0
100
AcDbLine
10
34.5
20
-50
30
0
11
32.250000000000007
21
-40
31
0
0
LINE
5
474
100
AcDbEntity
8
0
100
AcDbLine
10
32.250000000000007
20
-40
30
0
11
34.5
21
-30
31
0
0
LINE
5
475
100
AcDbEntity
8
0
100
AcDbLine
10
34.5
20
-30
30
0
11
36.75
21
-40
31
0
0
LINE
5
476
100
AcDbEntity
8
0
100
AcDbLine
10
36.75
20
-40
30
0
11
34.5
21
-50
31
0
0
LINE
5
477
100
AcDbEntity
8
0
100
AcDbLine
10
34.5
20
-50
30
0
11
44
21
-50
31
0
0
LINE
5
478
100
AcDbEntity
8
0
100
AcDbLine
10
44
20
-50
30
0
11
41.750000000000007
21
-40
31
0
0
LINE
5
479
100
AcDbEntity
8
0
100
AcDbLine
10
41.750000000000007
20
-40
30
0
11
44
21
-30
31
0
0
LINE
5
480
100
AcDbEntity
8
0
100
AcDbLine
10
44
20
-30
30
0
11
46.25
21
-40
31
0
0
LINE
5
481
100
AcDbEntity
8
0
100
AcDbLine
10
46.25
20
-40
30
0
11
44
21
-50
31
0
0
LINE
5
482
100
AcDbEntity
8
0
100
AcDbLine
10
44
20
-50
30
0
11
53.500000000000007
21
-50
31
0
0
LINE
5
483
100
AcDbEntity
8
0
100
AcDbLine
10
53.500000000000007
20
-50
30
0
11
51.250000000000007
21
-40
31
0
0
LINE
5
484
100
AcDbEntity
8
0
100
AcDbLine
10
51.250000000000007
20
-40
30
0
11
53.500000000000007
21
-30
31
0
0
LINE
5
485
100
AcDbEntity
8
0
100
AcDbLine
10
53.500000000000007
20
-30
30
0
11
55.750000000000014
21
-40
31
0
0
LINE
5
486
100
AcDbEntity
8
0
100
AcDbLine
10
55.750000000000014
20
-40
30
0
11
53.500000000000007
21
-50
31
0
0
LINE
5
487
100
AcDbEntity
8
0
100
AcDbLine
10
53.500000000000007
20
-50
30
0
11
63.000000000000007
21
-50
31
0
0
LINE
5
488
100
AcDbEntity
8
0
100
AcDbLine
10
63.000000000000007
20
-50
30
0
11
60.750000000000014
21
-40
31
0
0
LINE
5
489
100
AcDbEntity
8
0
100
AcDbLine
10
60.750000000000014
20
-40
30
0
11
63.000000000000007
21
-30
31
0
0
LINE
5
490
100
AcDbEntity
8
0
100
AcDbLine
10
63.000000000000007
20
-30
30
0
11
65.25
21
-40
31
0
0
LINE
5
491
100
AcDbEntity
8
0
100
AcDbLine
10
65.25
20
-40
30
0
11
63.000000000000007
21
-50
31
0
0
LINE
5
492
100
AcDbEntity
8
0
100
AcDbLine
10
63.000000000000007
20
-50
30
0
11
72.500000000000014
21
-50
31
0
0
LINE
5
493
100
AcDbEntity
8
0
100
AcDbLine
10
72.500000000000014
20
-50
30
0
11
70.250000000000014
21
-40
31
0
0
LINE
5
494
100
AcDbEntity
8
0
100
AcDbLine
10
70.250000000000014
20
-40
30
0
11
72.500000000000014
21
-30
31
0
0
LINE
5
495
100
AcDbEntity
8
0
100
AcDbLine
10
72.500000000000014
20
-30
30
0
11
74.750000000000014
21
-40
31
0
0
LINE
5
496
100
AcDbEntity
8
0
100
AcDbLine
10
74.750000000000014
20
-40
30
0
11
72.500000000000014
21
-50
31
0
0
LINE
5
497
100
AcDbEntity
8
0
100
AcDbLine
10
72.500000000000014
20
-50
30
0
11
82.000000000000014
21
-50
31
0
0
LINE
5
498
100
AcDbEntity
8
0
100
AcDbLine
10
82.000000000000014
20
-50
30
0
11
79.750000000000014
21
-40
31
0
0
LINE
5
499
100
AcDbEntity
8
0
100
AcDbLine
10
79.750000000000014
20
-40
30
0
11
82.000000000000014
21
-30
31
0
0
LINE
5
500
100
AcDbEntity
8
0
100
AcDbLine
10
82.000000000000014
20
-30
30
0
11
84.25
21
-40
31
0
0
LINE
5
501
100
AcDbEntity
8
0
100
AcDbLine
10
84.25
20
-40
30
0
11
82.000000000000014
21
-50
31
0
0
LINE
5
502
100
AcDbEntity
8
0
100
AcDbLine
10
82.000000000000014
20
-50
30
0
11
91.500000000000028
21
-50
31
0
0
LINE
5
503
100
AcDbEntity
8
0
100
AcDbLine
10
91.500000000000028
20
-50
30
0
11
89.250000000000028
21
-40
31
0
0
LINE
5
504
100
AcDbEntity
8
0
100
AcDbLine
10
89.250000000000028
20
-40
30
0
11
91.5
21
-30
31
0
0
LINE
5
505
100
AcDbEntity
8
0
100
AcDbLine
10
91.5
20
-30
30
0
11
93.750000000000014
21
-40
31
0
0
LINE
5
506
100
AcDbEntity
8
0
100
AcDbLine
10
93.750000000000014
20
-40
30
0
11
91.500000000000028
21
-50
31
0
0
LINE
5
507
100
AcDbEntity
8
0
100
AcDbLine
10
91.500000000000028
20
-50
30
0
11
101.00000000000001
21
-50
31
0
0
LINE
5
508
100
AcDbEntity
8
0
100
AcDbLine
10
101.00000000000001
20
-50
30
0
11
98.750000000000014
21
-40
31
0
0
LINE
5
509
100
AcDbEntity
8
0
100
AcDbLine
10
98.750000000000014
20
-40
30
0
11
101.00000000000001
21
-30
31
0
0
LINE
5
510
100
AcDbEntity
8
0
100
AcDbLine
10
101.00000000000001
20
-30
30
0
11
103.25000000000001
21
-40
31
0
0
LINE
5
511
100
AcDbEntity
8
0
100
AcDbLine
10
103.25000000000001
20
-40
30
0
11
101.00000000000001
21
-50
31
0
0
LINE
5
512
100
AcDbEntity
8
0
100
AcDbLine
10
101.00000000000001
20
-50
30
0
11
110.5
21
-50
31
0
0
LINE
5
513
100
AcDbEntity
8
0
100
AcDbLine
10
110.5
20
-50
30
0
11
108.25000000000001
21
-40
31
0
0
LINE
5
514
100
AcDbEntity
8
0
100
AcDbLine
10
108.25000000000001
20
-40
30
0
11
110.50000000000003
21
-30
31
0
0
LINE
5
515
100
AcDbEntity
8
0
100
AcDbLine
10
110.50000000000003
20
-30
30
0
11
112.75000000000003
21
-40
31
0
0
LINE
5
516
100
AcDbEntity
8
0
100
AcDbLine
10
112.75000000000003
20
-40
30
0
11
110.5
21
-50
31
0
0
LINE
5
517
100
AcDbEntity
8
0
100
AcDbLine
10
110.5
20
-50
30
0
11
120
21
-50
31
0
0
LINE
5
518
100
AcDbEntity
8
0
100
AcDbLine
10
120
20
-50
30
0
11
117.75
21
-40
31
0
0
LINE
5
519
100
AcDbEntity
8
0
100
AcDbLine
10
117.75
20
-40
30
0
11
120.00000000000001
21
-30
31
0
0
LINE
5
520
100
AcDbEntity
8
0
100
AcDbLine
10
120.00000000000001
20
-30
30
0
11
122.25000000000001
21
-40
31
0
0
LINE
5
521
100
AcDbEntity
8
0
100
AcDbLine
10
122.25000000000001
20
-40
30
0
11
120
21
-50
31
0
0
LINE
5
522
100
AcDbEntity
8
0
100
AcDbLine
10
120
20
-50
30
0
11
129.50000000000003
21
-50
31
0
0
LINE
5
523
100
AcDbEntity
8
0
100
AcDbLine
10
129.50000000000003
20
-50
30
0
11
127.25000000000003
21
-40
31
0
0
LINE
5
524
100
AcDbEntity
8
0
100
AcDbLine
10
127.25000000000003
20
-40
30
0
11
129.5
21
-30
31
0
0
LINE
5
525
100
AcDbEntity
8
0
100
AcDbLine
10
129.5
20
-30
30
0
11
131.75000000000003
21
-40
31
0
0
LINE
5
526
100
AcDbEntity
8
0
100
AcDbLine
10
131.75000000000003
20
-40
30
0
11
129.50000000000003
21
-50
31
0
0
LINE
5
527
100
AcDbEntity
8
0
100
AcDbLine
10
129.50000000000003
20
-50
30
0
11
139.00000000000003
21
-50
31
0
0
LINE
5
528
100
AcDbEntity
8
0
100
AcDbLine
10
139.00000000000003
20
-50
30
0
11
136.75000000000003
21
-40
31
0
0
LINE
5
529
100
AcDbEntity
8
0
100
AcDbLine
10
136.75000000000003
20
-40
30
0
11
139.00000000000003
21
-30
31
0
0
LINE
5
530
100
AcDbEntity
8
0
100
AcDbLine
10
139.00000000000003
20
-30
30
0
11
141.25000000000003
21
-40
31
0
0
LINE
5
531
100
AcDbEntity
8
0
100
AcDbLine
10
141.25000000000003
20
-40
30
0
11
139.00000000000003
21
-50
31
0
0
LINE
5
532
100
AcDbEntity
8
0
100
AcDbLine
10
139.00000000000003
20
-50
30
0
11
148.5
21
-50
31
0
0
LINE
5
533
100
AcDbEntity
8
0
100
AcDbLine
10
148.5
20
-50
30
0
11
146.25000000000003
21
-40
31
0
0
LINE
5
534
100
AcDbEntity
8
0
100
AcDbLine
10
146.25000000000003
20
-40
30
0
11
148.50000000000003
21
-30
31
0
0
LINE
5
535
100
AcDbEntity
8
0
100
AcDbLine
10
148.50000000000003
20
-30
30
0
11
150.75000000000003
21
-40
31
0
0
LINE
5
536
100
AcDbEntity
8
0
100
AcDbLine
10
150.75000000000003
20
-40
30
0
11
148.5
21
-50
31
0
0
LINE
5
537
100
AcDbEntity
8
0
100
AcDbLine
10
148.5
20
-50
30
0
11
158
21
-50
31
0
0
LINE
5
538
100
AcDbEntity
8
0
100
AcDbLine
10
158
20
-50
30
0
11
155.75
21
-40
31
0
0
LINE
5
539
100
AcDbEntity
8
0
100
AcDbLine
10
155.75
20
-40
30
0
11
158.00000000000003
21
-30
31
0
0
LINE
5
540
100
AcDbEntity
8
0
100
AcDbLine
10
158.00000000000003
20
-30
30
0
11
160.25000000000003
21
-40
31
0
0
LINE
5
541
100
AcDbEntity
8
0
100
AcDbLine
10
160.25000000000003
20
-40
30
0
11
158
21
-50
31
0
0
LINE
5
542
100
AcDbEntity
8
0
100
AcDbLine
10
158
20
-50
30
0
11
167.50000000000003
21
-50
31
0
0
LINE
5
543
100
AcDbEntity
8
0
100
AcDbLine
10
167.50000000000003
20
-50
30
0
11
165.25000000000006
21
-40
31
0
0
LINE
5
544
100
AcDbEntity
8
0
100
AcDbLine
10
165.25000000000006
20
-40
30
0
11
167.5
21
-30
31
0
0
LINE
5
545
100
AcDbEntity
8
0
100
AcDbLine
10
167.5
20
-30
30
0
11
169.75
21
-40
31
0
0
LINE
5
546
100
AcDbEntity
8
0
100
AcDbLine
10
169.75
20
-40
30
0
11
167.50000000000003
21
-50
31
0
0
LINE
5
547
100
AcDbEntity
8
0
100
AcDbLine
10
167.50000000000003
20
-50
30
0
11
177.00000000000003
21
-50
31
0
0
LINE
5
548
100
AcDbEntity
8
0
100
AcDbLine
10
177.00000000000003
20
-50
30
0
11
174.75
21
-40
31
0
0
LINE
5
549
100
AcDbEntity
8
0
100
AcDbLine
10
174.75
20
-40
30
0
11
177.00000000000003
21
-30
31
0
0
LINE
5
550
100
AcDbEntity
8
0
100
AcDbLine
10
177.00000000000003
20
-30
30
0
11
179.25000000000006
21
-40
31
0
0
LINE
5
551
100
AcDbEntity
8
0
100
AcDbLine
10
179.25000000000006
20
-40
30
0
11
177.00000000000003
21
-50
31
0
0
LINE
5
552
100
AcDbEntity
8
0
100
AcDbLine
10
177.00000000000003
20
-50
30
0
11
186.50000000000003
21
-50
31
0
0
LINE
5
553
100
AcDbEntity
8
0
100
AcDbLine
10
186.50000000000003
20
-50
30
0
11
184.25000000000006
21
-40
31
0
0
LINE
5
554
100
AcDbEntity
8
0
100
AcDbLine
10
184.25000000000006
20
-40
30
0
11
186.50000000000006
21
-30
31
0
0
LINE
5
555
100
AcDbEntity
8
0
100
AcDbLine
10
186.50000000000006
20
-30
30
0
11
188.75000000000003
21
-40
31
0
0
LINE
5
556
100
AcDbEntity
8
0
100
AcDbLine
10
188.75000000000003
20
-40
30
0
11
186.50000000000003
21
-50
31
0
0
LINE
5
557
100
AcDbEntity
8
0
100
AcDbLine
10
186.50000000000003
20
-50
30
0
11
199.62387473378865
21
-49.99999999983558
31
0
0
LINE
5
558
100
AcDbEntity
8
0
100
AcDbLine
10
199.62387473378865
20
-49.99999999983558
30
0
11
199.62387473378868
21
-44.999999999835616
31
0
0
ARC
5
559
100
AcDbEntity
8
0
100
AcDbCircle
10
202.12387473378865
20
-40.669872975119574
30
0
40
5.0000000050176139
210
0
220
0
230
1
100
AcDbArc
50
-60.00000003319586
51
240.00000003319659
0
LINE
5
560
100
AcDbEntity
8
0
100
AcDbLine
10
204.62387473378868
20
-44.999999999835588
30
0
11
204.62387473378865
21
-49.99999999983558
31
0
0
LINE
5
561
100
AcDbEntity
8
0
100
AcDbLine
10
204.62387473378865
20
-49.99999999983558
30
0
11
244.62387472953296
21
-49.99999999983558
31
0
0
LINE
5
562
100
AcDbEntity
8
0
100
AcDbLine
10
244.62387472953296
20
-49.99999999983558
30
0
11
244.62387472796223
21
-45.000000002556142
31
0
0
ARC
5
563
100
AcDbEntity
8
0
100
AcDbCircle
10
247.12387472773057
20
-40.669872982585161
30
0
40
5.0000000007924363
210
0
220
0
230
1
100
AcDbArc
50
-59.999999980850191
51
240.00000000830815
0
LINE
5
564
100
AcDbEntity
8
0
100
AcDbLine
10
249.62387472957403
20
-45.000000001358053
30
0
11
249.62387472957397
21
-49.99999999983558
31
0
0
LINE
5
565
100
AcDbEntity
8
0
100
AcDbLine
10
249.62387472957397
20
-49.99999999983558
30
0
11
259.12387473167024
21
-50
31
0
0
LINE
5
566
100
AcDbEntity
8
0
100
AcDbLine
10
259.12387473167024
20
-50
30
0
11
256.8738747316703
21
-40
31
0
0
LINE
5
567
100
AcDbEntity
8
0
100
AcDbLine
10
256.8738747316703
20
-40
30
0
11
259.12387473167024
21
-30.000000000000007
31
0
0
LINE
5
568
100
AcDbEntity
8
0
100
AcDbLine
10
259.12387473167024
20
-30.000000000000007
30
0
11
261.37387473167018
21
-40
31
0
0
LINE
5
569
100
AcDbEntity
8
0
100
AcDbLine
10
261.37387473167018
20
-40
30
0
11
259.12387473167024
21
-50
31
0
0
LINE
5
570
100
AcDbEntity
8
0
100
AcDbLine
10
259.12387473167024
20
-50
30
0
11
268.62387473167024
21
-50
31
0
0
LINE
5
571
100
AcDbEntity
8
0
100
AcDbLine
10
268.62387473167024
20
-50
30
0
11
266.3738747316703
21
-40
31
0
0
LINE
5
572
100
AcDbEntity
8
0
100
AcDbLine
10
266.3738747316703
20
-40
30
0
11
268.62387473167024
21
-30.000000000000007
31
0
0
LINE
5
573
100
AcDbEntity
8
0
100
AcDbLine
10
268.62387473167024
20
-30.000000000000007
30
0
11
270.87387473167018
21
-40
31
0
0
LINE
5
574
100
AcDbEntity
8
0
100
AcDbLine
10
270.87387473167018
20
-40
30
0
11
268.62387473167024
21
-50
31
0
0
LINE
5
575
100
AcDbEntity
8
0
100
AcDbLine
10
268.62387473167024
20
-50
30
0
11
278.12387473167018
21
-50
31
0
0
LINE
5
576
100
AcDbEntity
8
0
100
AcDbLine
10
278.12387473167018
20
-50
30
0
11
275.8738747316703
21
-40
31
0
0
LINE
5
577
100
AcDbEntity
8
0
100
AcDbLine
10
275.8738747316703
20
-40
30
0
11
278.12387473167018
21
-30.000000000000007
31
0
0
LINE
5
578
100
AcDbEntity
8
0
100
AcDbLine
10
278.12387473167018
20
-30.000000000000007
30
0
11
280.37387473167018
21
-40
31
0
0
LINE
5
579
100
AcDbEntity
8
0
100
AcDbLine
10
280.37387473167018
20
-40
30
0
11
278.12387473167018
21
-50
31
0
0
LINE
5
580
100
AcDbEntity
8
0
100
AcDbLine
10
278.12387473167018
20
-50
30
0
11
287.62387473167018
21
-50
31
0
0
LINE
5
581
100
AcDbEntity
8
0
100
AcDbLine
10
287.62387473167018
20
-50
30
0
11
285.37387473167024
21
-40
31
0
0
LINE
5
582
100
AcDbEntity
8
0
100
AcDbLine
10
285.37387473167024
20
-40
30
0
11
287.62387473167018
21
-30.000000000000007
31
0
0
LINE
5
583
100
AcDbEntity
8
0
100
AcDbLine
10
287.62387473167018
20
-30.000000000000007
30
0
11
289.87387473167013
21
-40
31
0
0
LINE
5
584
100
AcDbEntity
8
0
100
AcDbLine
10
289.87387473167013
20
-40
30
0
11
287.62387473167018
21
-50
31
0
0
LINE
5
585
100
AcDbEntity
8
0
100
AcDbLine
10
287.62387473167018
20
-50
30
0
11
297.12387473167018
21
-50
31
0
0
LINE
5
586
100
AcDbEntity
8
0
100
AcDbLine
10
297.12387473167018
20
-50
30
0
11
294.87387473167024
21
-40
31
0
0
LINE
5
587
100
AcDbEntity
8
0
100
AcDbLine
10
294.87387473167024
20
-40
30
0
11
297.12387473167018
21
-30.000000000000007
31
0
0
LINE
5
588
100
AcDbEntity
8
0
100
AcDbLine
10
297.12387473167018
20
-30.000000000000007
30
0
11
299.37387473167013
21
-40
31
0
0
LINE
5
589
100
AcDbEntity
8
0
100
AcDbLine
10
299.37387473167013
20
-40
30
0
11
297.12387473167018
21
-50
31
0
0
LINE
5
590
100
AcDbEntity
8
0
100
AcDbLine
10
297.12387473167018
20
-50
30
0
11
306.62387473167018
21
-50
31
0
0
LINE
5
591
100
AcDbEntity
8
0
100
AcDbLine
10
306.62387473167018
20
-50
30
0
11
304.37387473167024
21
-40
31
0
0
LINE
5
592
100
AcDbEntity
8
0
100
AcDbLine
10
304.37387473167024
20
-40
30
0
11
306.62387473167018
21
-30.000000000000007
31
0
0
LINE
5
593
100
AcDbEntity
8
0
100
AcDbLine
10
306.62387473167018
20
-30.000000000000007
30
0
11
308.87387473167013
21
-40
31
0
0
LINE
5
594
100
AcDbEntity
8
0
100
AcDbLine
10
308.87387473167013
20
-40
30
0
11
306.62387473167018
21
-50
31
0
0
LINE
5
595
100
AcDbEntity
8
0
100
AcDbLine
10
306.62387473167018
20
-50
30
0
11
316.12387473167018
21
-50
31
0
0
LINE
5
596
100
AcDbEntity
8
0
100
AcDbLine
10
316.12387473167018
20
-50
30
0
11
313.87387473167024
21
-40
31
0
0
LINE
5
597
100
AcDbEntity
8
0
100
AcDbLine
10
313.87387473167024
20
-40
30
0
11
316.12387473167018
21
-30.000000000000007
31
0
0
LINE
5
598
100
AcDbEntity
8
0
100
AcDbLine
10
316.12387473167018
20
-30.000000000000007
30
0
11
318.37387473167013
21
-40
31
0
0
LINE
5
599
100
AcDbEntity
8
0
100
AcDbLine
10
318.37387473167013
20
-40
30
0
11
316.12387473167018
21
-50
31
0
0
LINE
5
600
100
AcDbEntity
8
0
100
AcDbLine
10
316.12387473167018
20
-50
30
0
11
325.62387473167018
21
-50
31
0
0
LINE
5
601
100
AcDbEntity
8
0
100
AcDbLine
10
325.62387473167018
20
-50
30
0
11
323.3738747316703
21
-40
31
0
0
LINE
5
602
100
AcDbEntity
8
0
100
AcDbLine
10
323.3738747316703
20
-40
30
0
11
325.62387473167018
21
-30.000000000000007
31
0
0
LINE
5
603
100
AcDbEntity
8
0
100
AcDbLine
10
325.62387473167018
20
-30.000000000000007
30
0
11
327.87387473167018
21
-40
31
0
0
LINE
5
604
100
AcDbEntity
8
0
100
AcDbLine
10
327.87387473167018
20
-40
30
0
11
325.62387473167018
21
-50
31
0
0
LINE
5
605
100
AcDbEntity
8
0
100
AcDbLine
10
325.62387473167018
20
-50
30
0
11
335.12387473167018
21
-50
31
0
0
LINE
5
606
100
AcDbEntity
8
0
100
AcDbLine
10
335.12387473167018
20
-50
30
0
11
332.87387473167024
21
-40
31
0
0
LINE
5
607
100
AcDbEntity
8
0
100
AcDbLine
10
332.87387473167024
20
-40
30
0
11
335.12387473167018
21
-30.000000000000007
31
0
0
LINE
5
608
100
AcDbEntity
8
0
100
AcDbLine
10
335.12387473167018
20
-30.000000000000007
30
0
11
337.37387473167013
21
-40
31
0
0
LINE
5
609
100
AcDbEntity
8
0
100
AcDbLine
10
337.37387473167013
20
-40
30
0
11
335.12387473167018
21
-50
31
0
0
LINE
5
610
100
AcDbEntity
8
0
100
AcDbLine
10
335.12387473167018
20
-50
30
0
11
344.62387473167013
21
-50
31
0
0
LINE
5
611
100
AcDbEntity
8
0
100
AcDbLine
10
344.62387473167013
20
-50
30
0
11
342.37387473167018
21
-40
31
0
0
LINE
5
612
100
AcDbEntity
8
0
100
AcDbLine
10
342.37387473167018
20
-40
30
0
11
344.62387473167013
21
-30.000000000000007
31
0
0
LINE
5
613
100
AcDbEntity
8
0
100
AcDbLine
10
344.62387473167013
20
-30.000000000000007
30
0
11
346.87387473167007
21
-40
31
0
0
LINE
5
614
100
AcDbEntity
8
0
100
AcDbLine
10
346.87387473167007
20
-40
30
0
11
344.62387473167013
21
-50
31
0
0
LINE
5
615
100
AcDbEntity
8
0
100
AcDbLine
10
344.62387473167013
20
-50
30
0
11
354.12387473167018
21
-50
31
0
0
LINE
5
616
100
AcDbEntity
8
0
100
AcDbLine
10
354.12387473167018
20
-50
30
0
11
351.87387473167018
21
-40
31
0
0
LINE
5
617
100
AcDbEntity
8
0
100
AcDbLine
10
351.87387473167018
20
-40
30
0
11
354.12387473167018
21
-30.000000000000007
31
0
0
LINE
5
618
100
AcDbEntity
8
0
100
AcDbLine
10
354.12387473167018
20
-30.000000000000007
30
0
11
356.37387473167007
21
-40
31
0
0
LINE
5
619
100
AcDbEntity
8
0
100
AcDbLine
10
356.37387473167007
20
-40
30
0
11
354.12387473167018
21
-50
31
0
0
LINE
5
620
100
AcDbEntity
8
0
100
AcDbLine
10
354.12387473167018
20
-50
30
0
11
363.62387473167018
21
-50
31
0
0
LINE
5
621
100
AcDbEntity
8
0
100
AcDbLine
10
363.62387473167018
20
-50
30
0
11
361.37387473167024
21
-40
31
0
0
LINE
5
622
100
AcDbEntity
8
0
100
AcDbLine
10
361.37387473167024
20
-40
30
0
11
363.62387473167018
21
-30.000000000000007
31
0
0
LINE
5
623
100
AcDbEntity
8
0
100
AcDbLine
10
363.62387473167018
20
-30.000000000000007
30
0
11
365.87387473167013
21
-40
31
0
0
LINE
5
624
100
AcDbEntity
8
0
100
AcDbLine
10
365.87387473167013
20
-40
30
0
11
363.62387473167018
21
-50
31
0
0
LINE
5
625
100
AcDbEntity
8
0
100
AcDbLine
10
363.62387473167018
20
-50
30
0
11
373.12387473167013
21
-50
31
0
0
LINE
5
626
100
AcDbEntity
8
0
100
AcDbLine
10
373.12387473167013
20
-50
30
0
11
370.87387473167018
21
-40
31
0
0
LINE
5
627
100
AcDbEntity
8
0
100
AcDbLine
10
370.87387473167018
20
-40
30
0
11
373.12387473167013
21
-30.000000000000007
31
0
0
LINE
5
628
100
AcDbEntity
8
0
100
AcDbLine
10
373.12387473167013
20
-30.000000000000007
30
0
11
375.37387473167007
21
-40
31
0
0
LINE
5
629
100
AcDbEntity
8
0
100
AcDbLine
10
375.37387473167007
20
-40
30
0
11
373.12387473167013
21
-50
31
0
0
LINE
5
630
100
AcDbEntity
8
0
100
AcDbLine
10
373.12387473167013
20
-50
30
0
11
382.62387473167007
21
-50
31
0
0
LINE
5
631
100
AcDbEntity
8
0
100
AcDbLine
10
382.62387473167007
20
-50
30
0
11
380.37387473167018
21
-40
31
0
0
LINE
5
632
100
AcDbEntity
8
0
100
AcDbLine
10
380.37387473167018
20
-40
30
0
11
382.62387473167007
21
-30.000000000000007
31
0
0
LINE
5
633
100
AcDbEntity
8
0
100
AcDbLine
10
382.62387473167007
20
-30.000000000000007
30
0
11
384.87387473167007
21
-40
31
0
0
LINE
5
634
100
AcDbEntity
8
0
100
AcDbLine
10
384.87387473167007
20
-40
30
0
11
382.62387473167007
21
-50
31
0
0
LINE
5
635
100
AcDbEntity
8
0
100
AcDbLine
10
382.62387473167007
20
-50
30
0
11
392.12387473167013
21
-50
31
0
0
LINE
5
636
100
AcDbEntity
8
0
100
AcDbLine
10
392.12387473167013
20
-50
30
0
11
389.87387473167018
21
-40
31
0
0
LINE
5
637
100
AcDbEntity
8
0
100
AcDbLine
10
389.87387473167018
20
-40
30
0
11
392.12387473167013
21
-30.000000000000007
31
0
0
LINE
5
638
100
AcDbEntity
8
0
100
AcDbLine
10
392.12387473167013
20
-30.000000000000007
30
0
11
394.37387473167007
21
-40
31
0
0
LINE
5
639
100
AcDbEntity
8
0
100
AcDbLine
10
394.37387473167007
20
-40
30
0
11
392.12387473167013
21
-50
31
0
0
LINE
5
640
100
AcDbEntity
8
0
100
AcDbLine
10
392.12387473167013
20
-50
30
0
11
401.62387473167018
21
-50
31
0
0
LINE
5
641
100
AcDbEntity
8
0
100
AcDbLine
10
401.62387473167018
20
-50
30
0
11
399.37387473167018
21
-40
31
0
0
LINE
5
642
100
AcDbEntity
8
0
100
AcDbLine
10
399.37387473167018
20
-40
30
0
11
401.62387473167018
21
-30.000000000000007
31
0
0
LINE
5
643
100
AcDbEntity
8
0
100
AcDbLine
10
401.62387473167018
20
-30.000000000000007
30
0
11
403.87387473167007
21
-40
31
0
0
LINE
5
644
100
AcDbEntity
8
0
100
AcDbLine
10
403.87387473167007
20
-40
30
0
11
401.62387473167018
21
-50
31
0
0
LINE
5
645
100
AcDbEntity
8
0
100
AcDbLine
10
401.62387473167018
20
-50
30
0
11
411.12387473167013
21
-50
31
0
0
LINE
5
646
100
AcDbEntity
8
0
100
AcDbLine
10
411.12387473167013
20
-50
30
0
11
408.87387473167018
21
-40
31
0
0
LINE
5
647
100
AcDbEntity
8
0
100
AcDbLine
10
408.87387473167018
20
-40
30
0
11
411.12387473167013
21
-30.000000000000007
31
0
0
LINE
5
648
100
AcDbEntity
8
0
100
AcDbLine
10
411.12387473167013
20
-30.000000000000007
30
0
11
413.37387473167007
21
-40
31
0
0
LINE
5
649
100
AcDbEntity
8
0
100
AcDbLine
10
413.37387473167007
20
-40
30
0
11
411.12387473167013
21
-50
31
0
0
LINE
5
650
100
AcDbEntity
8
0
100
AcDbLine
10
411.12387473167013
20
-50
30
0
11
429.24774946331934
21
-49.999999999836078
31
0
0
LINE
5
651
100
AcDbEntity
8
0
100
AcDbLine
10
429.24774946331934
20
-49.999999999836078
30
0
11
429.24774946331098
21
-44.999999999841727
31
0
0
ARC
5
652
100
AcDbEntity
8
0
100
AcDbCircle
10
431.74774946333707
20
-40.669872979814215
30
0
40
5.0000000009702799
210
0
220
0
230
1
100
AcDbArc
50
-60.000000006474934
51
240.00000000607409
0
LINE
5
653
100
AcDbEntity
8
0
100
AcDbLine
10
434.24774946333287
20
-44.999999999859213
30
0
11
434.24774946334048
21
-49.999999999859206
31
0
0
LINE
5
654
100
AcDbEntity
8
0
100
AcDbLine
10
434.24774946334048
20
-49.999999999859206
30
0
11
449.24774946334048
21
-49.999999999836398
31
0
0
LINE
5
655
100
AcDbEntity
8
0
100
AcDbLine
10
449.24774946334048
20
-49.999999999836398
30
0
11
449.24774946332377
21
-19.999999999979543
31
0
0
LINE
5
656
100
AcDbEntity
8
0
100
AcDbLine
10
449.24774946332377
20
-19.999999999979543
30
0
11
454.24774946331019
21
-19.999999999979661
31
0
0
ARC
5
657
100
AcDbEntity
8
0
100
AcDbCircle
10
458.57787648293873
20
-17.499999999997119
30
0
40
5.0000000006029683
210
0
220
0
230
1
100
AcDbArc
50
-150.00000000422037
51
150.00000000364841
0
LINE
5
658
100
AcDbEntity
8
0
100
AcDbLine
10
454.24774946333514
20
-14.999999999971351
30
0
11
449.24774946330137
21
-14.999999999999982
31
0
0
LINE
5
659
100
AcDbEntity
8
0
100
AcDbLine
10
449.24774946330137
20
-14.999999999999982
30
0
11
449.24774946332377
21
15.000000000020455
31
0
0
LINE
5
660
100
AcDbEntity
8
0
100
AcDbLine
10
449.24774946332377
20
15.000000000020455
30
0
11
454.24774946331019
21
15.000000000020339
31
0
0
ARC
5
661
100
AcDbEntity
8
0
100
AcDbCircle
10
458.57787648293873
20
17.500000000002881
30
0
40
5.0000000006029683
210
0
220
0
230
1
100
AcDbArc
50
-150.00000000422037
51
150.00000000364841
0
LINE
5
662
100
AcDbEntity
8
0
100
AcDbLine
10
454.24774946333514
20
20.000000000028649
30
0
11
449.24774946333224
21
20.000000000000004
31
0
0
LINE
5
663
100
AcDbEntity
8
0
100
AcDbLine
10
449.24774946333224
20
20.000000000000004
30
0
11
449.24774946335572
21
50
31
0
0
LINE
5
664
100
AcDbEntity
8
0
100
AcDbLine
10
449.24774946335572
20
50
30
0
11
434.24774946335469
21
50.000000000050235
31
0
0
LINE
5
665
100
AcDbEntity
8
0
100
AcDbLine
10
434.24774946335469
20
50.000000000050235
30
0
11
434.24774946336521
21
55.000000000066365
31
0
0
ARC
5
666
100
AcDbEntity
8
0
100
AcDbCircle
10
431.74774946337891
20
59.330127018995249
30
0
40
4.9999999999989377
210
-0
220
0
230
1
100
AcDbArc
50
-60.000000000174275
51
239.99999999980949
0
LINE
5
667
100
AcDbEntity
8
0
100
AcDbLine
10
429.24774946336504
20
55.000000000082281
30
0
11
429.24774946335469
21
50.000000000082281
31
0
0
LINE
5
668
100
AcDbEntity
8
0
100
AcDbLine
10
429.24774946335469
20
50.000000000082281
30
0
11
413.37387473167007
21
50
31
0
0
LINE
5
669
100
AcDbEntity
8
0
100
AcDbLine
10
413.37387473167007
20
50
30
0
11
411.12387473167013
21
40
31
0
0
LINE
5
670
100
AcDbEntity
8
0
100
AcDbLine
10
411.12387473167013
20
40
30
0
11
408.87387473167018
21
50
31
0
0
LINE
5
671
100
AcDbEntity
8
0
100
AcDbLine
10
408.87387473167018
20
50
30
0
11
403.87387473167007
21
50
31
0
0
LINE
5
672
100
AcDbEntity
8
0
100
AcDbLine
10
403.87387473167007
20
50
30
0
11
401.62387473167018
21
40
31
0
0
LINE
5
673
100
AcDbEntity
8
0
100
AcDbLine
10
401.62387473167018
20
40
30
0
11
399.37387473167018
21
50
31
0
0
LINE
5
674
100
AcDbEntity
8
0
100
AcDbLine
10
399.37387473167018
20
50
30
0
11
394.37387473167007
21
50
31
0
0
LINE
5
675
100
AcDbEntity
8
0
100
AcDbLine
10
394.37387473167007
20
50
30
0
11
392.12387473167013
21
40
31
0
0
LINE
5
676
100
AcDbEntity
8
0
100
AcDbLine
10
392.12387473167013
20
40
30
0
11
389.87387473167018
21
50
31
0
0
LINE
5
677
100
AcDbEntity
8
0
100
AcDbLine
10
389.87387473167018
20
50
30
0
11
384.87387473167007
21
50
31
0
0
LINE
5
678
100
AcDbEntity
8
0
100
AcDbLine
10
384.87387473167007
20
50
30
0
11
382.62387473167007
21
40
31
0
0
LINE
5
679
100
AcDbEntity
8
0
100
AcDbLine
10
382.62387473167007
20
40
30
0
11
380.37387473167018
21
50
31
0
0
LINE
5
680
100
AcDbEntity
8
0
100
AcDbLine
10
380.37387473167018
20
50
30
0
11
375.37387473167007
21
50
31
0
0
LINE
5
681
100
AcDbEntity
8
0
100
AcDbLine
10
375.37387473167007
20
50
30
0
11
373.12387473167013
21
40
31
0
0
LINE
5
682
100
AcDbEntity
8
0
100
AcDbLine
10
373.12387473167013
20
40
30
0
11
370.87387473167018
21
50
31
0
0
LINE
5
683
100
AcDbEntity
8
0
100
AcDbLine
10
370.87387473167018
20
50
30
0
11
365.87387473167013
21
50
31
0
0
LINE
5
684
100
AcDbEntity
8
0
100
AcDbLine
10
365.87387473167013
20
50
30
0
11
363.62387473167018
21
40
31
0
0
LINE
5
685
100
AcDbEntity
8
0
100
AcDbLine
10
363.62387473167018
20
40
30
0
11
361.37387473167024
21
50
31
0
0
LINE
5
686
100
AcDbEntity
8
0
100
AcDbLine
10
361.37387473167024
20
50
30
0
11
356.37387473167007
21
50
31
0
0
LINE
5
687
100
AcDbEntity
8
0
100
AcDbLine
10
356.37387473167007
20
50
30
0
11
354.12387473167018
21
40
31
0
0
LINE
5
688
100
AcDbEntity
8
0
100
AcDbLine
10
354.12387473167018
20
40
30
0
11
351.87387473167018
21
50
31
0
0
LINE
5
689
100
AcDbEntity
8
0
100
AcDbLine
10
351.87387473167018
20
50
30
0
11
346.87387473167007
21
50
31
0
0
LINE
5
690
100
AcDbEntity
8
0
100
AcDbLine
10
346.87387473167007
20
50
30
0
11
344.62387473167013
21
40
31
0
0
LINE
5
691
100
AcDbEntity
8
0
100
AcDbLine
10
344.62387473167013
20
40
30
0
11
342.37387473167018
21
50
31
0
0
LINE
5
692
100
AcDbEntity
8
0
100
AcDbLine
10
342.37387473167018
20
50
30
0
11
337.37387473167013
21
50
31
0
0
LINE
5
693
100
AcDbEntity
8
0
100
AcDbLine
10
337.37387473167013
20
50
30
0
11
335.12387473167018
21
40
31
0
0
LINE
5
694
100
AcDbEntity
8
0
100
AcDbLine
10
335.12387473167018
20
40
30
0
11
332.87387473167024
21
50
31
0
0
LINE
5
695
100
AcDbEntity
8
0
100
AcDbLine
10
332.87387473167024
20
50
30
0
11
327.87387473167018
21
50
31
0
0
LINE
5
696
100
AcDbEntity
8
0
100
AcDbLine
10
327.87387473167018
20
50
30
0
11
325.62387473167018
21
40
31
0
0
LINE
5
697
100
AcDbEntity
8
0
100
AcDbLine
10
325.62387473167018
20
40
30
0
11
323.3738747316703
21
50
31
0
0
LINE
5
698
100
AcDbEntity
8
0
100
AcDbLine
10
323.3738747316703
20
50
30
0
11
318.37387473167013
21
50
31
0
0
LINE
5
699
100
AcDbEntity
8
0
100
AcDbLine
10
318.37387473167013
20
50
30
0
11
316.12387473167018
21
40
31
0
0
LINE
5
700
100
AcDbEntity
8
0
100
AcDbLine
10
316.12387473167018
20
40
30
0
11
313.87387473167024
21
50
31
0
0
LINE
5
701
100
AcDbEntity
8
0
100
AcDbLine
10
313.87387473167024
20
50
30
0
11
308.87387473167013
21
50
31
0
0
LINE
5
702
100
AcDbEntity
8
0
100
AcDbLine
10
308.87387473167013
20
50
30
0
11
306.62387473167018
21
40
31
0
0
LINE
5
703
100
AcDbEntity
8
0
100
AcDbLine
10
306.62387473167018
20
40
30
0
11
304.37387473167024
21
50
31
0
0
LINE
5
704
100
AcDbEntity
8
0
100
AcDbLine
10
304.37387473167024
20
50
30
0
11
299.37387473167013
21
50
31
0
0
LINE
5
705
100
AcDbEntity
8
0
100
AcDbLine
10
299.37387473167013
20
50
30
0
11
297.12387473167018
21
40
31
0
0
LINE
5
706
100
AcDbEntity
8
0
100
AcDbLine
10
297.12387473167018
20
40
30
0
11
294.87387473167024
21
50
31
0
0
LINE
5
707
100
AcDbEntity
8
0
100
AcDbLine
10
294.87387473167024
20
50
30
0
11
289.87387473167013
21
50
31
0
0
LINE
5
708
100
AcDbEntity
8
0
100
AcDbLine
10
289.87387473167013
20
50
30
0
11
287.62387473167018
21
40
31
0
0
LINE
5
709
100
AcDbEntity
8
0
100
AcDbLine
10
287.62387473167018
20
40
30
0
11
285.37387473167024
21
50
31
0
0
LINE
5
710
100
AcDbEntity
8
0
100
AcDbLine
10
285.37387473167024
20
50
30
0
11
280.37387473167018
21
50
31
0
0
LINE
5
711
100
AcDbEntity
8
0
100
AcDbLine
10
280.37387473167018
20
50
30
0
11
278.12387473167018
21
40
31
0
0
LINE
5
712
100
AcDbEntity
8
0
100
AcDbLine
10
278.12387473167018
20
40
30
0
11
275.8738747316703
21
50
31
0
0
LINE
5
713
100
AcDbEntity
8
0
100
AcDbLine
10
275.8738747316703
20
50
30
0
11
270.87387473167018
21
50
31
0
0
LINE
5
714
100
AcDbEntity
8
0
100
AcDbLine
10
270.87387473167018
20
50
30
0
11
268.62387473167024
21
40
31
0
0
LINE
5
715
100
AcDbEntity
8
0
100
AcDbLine
10
268.62387473167024
20
40
30
0
11
266.3738747316703
21
50
31
0
0
LINE
5
716
100
AcDbEntity
8
0
100
AcDbLine
10
266.3738747316703
20
50
30
0
11
261.37387473167018
21
50
31
0
0
LINE
5
717
100
AcDbEntity
8
0
100
AcDbLine
10
261.37387473167018
20
50
30
0
11
259.12387473167024
21
40
31
0
0
LINE
5
718
100
AcDbEntity
8
0
100
AcDbLine
10
259.12387473167024
20
40
30
0
11
256.8738747316703
21
50
31
0
0
LINE
5
719
100
AcDbEntity
8
0
100
AcDbLine
10
256.8738747316703
20
50
30
0
11
249.62387472955146
21
50.00000000021587
31
0
0
LINE
5
720
100
AcDbEntity
8
0
100
AcDbLine
10
249.62387472955146
20
50.00000000021587
30
0
11
249.62387472955794
21
55.000000000215863
31
0
0
ARC
5
721
100
AcDbEntity
8
0
100
AcDbCircle
10
247.1238747295607
20
59.330127019109412
30
0
40
4.9999999999738112
210
-0
220
0
230
1
100
AcDbArc
50
-59.999999999863242
51
239.99999999991363
0
LINE
5
722
100
AcDbEntity
8
0
100
AcDbLine
10
244.62387472956726
20
55.00000000021366
30
0
11
244.62387472955325
21
50.000000000193623
31
0
0
LINE
5
723
100
AcDbEntity
8
0
100
AcDbLine
10
244.62387472955325
20
50.000000000193623
30
0
11
204.62387473380628
21
50.000000000237854
31
0
0
LINE
5
724
100
AcDbEntity
8
0
100
AcDbLine
10
204.62387473380628
20
50.000000000237854
30
0
11
204.6238747338088
21
55.000000000237833
31
0
0
ARC
5
725
100
AcDbEntity
8
0
100
AcDbCircle
10
202.12387473381426
20
59.330127019964294
30
0
40
5.0000000006937793
210
-0
220
0
230
1
100
AcDbArc
50
-60.000000004662269
51
240.00000000438615
0
LINE
5
726
100
AcDbEntity
8
0
100
AcDbLine
10
199.62387473379886
20
55.000000000249898
30
0
11
199.62387473378891
21
50.000000000247837
31
0
0
LINE
5
727
100
AcDbEntity
8
0
100
AcDbLine
10
199.62387473378891
20
50.000000000247837
30
0
11
188.75000000000003
21
50
31
0
0
LWPOLYLINE
5
728
100
AcDbEntity
8
0
100
AcDbPolyline
90
4
70
1
43
0.0
10
306.62387473167018
20
10
10
308.87387473167013
20
20
10
306.62387473167018
20
29.999999999999993
10
304.37387473167024
20
20
0
LWPOLYLINE
5
729
100
AcDbEntity
8
0
100
AcDbPolyline
90
4
70
1
43
0.0
10
287.62387473167018
20
-20
10
289.87387473167013
20
-10
10
287.62387473167018
20
-8.8817841970012523e-15
10
285.37387473167024
20
-10
0
LWPOLYLINE
5
730
100
AcDbEntity
8
0
100
AcDbPolyline
90
4
70
1
43
0.0
10
268.62387473167024
20
10
10
270.87387473167018
20
20
10
268.62387473167024
20
29.999999999999993
10
266.3738747316703
20
20
0
LWPOLYLINE
5
731
100
AcDbEntity
8
0
100
AcDbPolyline
90
4
70
1
43
0.0
10
306.62387473167018
20
-20
10
308.87387473167013
20
-10
10
306.62387473167018
20
-8.8817841970012523e-15
10
304.37387473167024
20
-10
0
LWPOLYLINE
5
732
100
AcDbEntity
8
0
100
AcDbPolyline
90
4
70
1
43
0.0
10
316.12387473167018
20
-20
10
318.37387473167013
20
-10
10
316.12387473167018
20
-8.8817841970012523e-15
10
313.87387473167024
20
-10
0
LWPOLYLINE
5
733
100
AcDbEntity
8
0
100
AcDbPolyline
90
4
70
1
43
0.0
10
148.5
20
-20
10
150.75000000000003
20
-10
10
148.50000000000003
20
0
10
146.25000000000003
20
-10
0
LWPOLYLINE
5
734
100
AcDbEntity
8
0
100
AcDbPolyline
90
4
70
1
43
0.0
10
-398.49774946334009
20
-10
10
-400.74774946334009
20
0
10
-402.99774946334014
20
-10
10
-400.74774946334009
20
-20
0
LWPOLYLINE
5
735
100
AcDbEntity
8
0
100
AcDbPolyline
90
4
70
1
43
0.0
10
-417.49774946334014
20
-10
10
-419.74774946334014
20
0
10
-421.99774946334014
20
-10
10
-419.74774946334014
20
-20
0
LWPOLYLINE
5
736
100
AcDbEntity
8
0
100
AcDbPolyline
90
4
70
1
43
0.0
10
129.50000000000003
20
-20
10
131.75000000000003
20
-10
10
129.5
20
0
10
127.25000000000003
20
-10
0
LWPOLYLINE
5
737
100
AcDbEntity
8
0
100
AcDbPolyline
90
4
70
1
43
0.0
10
-360.49774946333997
20
-10
10
-362.74774946333997
20
0
10
-364.99774946334003
20
-10
10
-362.74774946333997
20
-20
0
LWPOLYLINE
5
738
100
AcDbEntity
8
0
100
AcDbPolyline
90
4
70
1
43
0.0
10
-379.49774946334003
20
20
10
-381.74774946334003
20
30
10
-383.99774946334003
20
20
10
-381.74774946334003
20
10
0
LWPOLYLINE
5
739
100
AcDbEntity
8
0
100
AcDbPolyline
90
4
70
1
43
0.0
10
411.12387473167013
20
-20
10
413.37387473167007
20
-10
10
411.12387473167013
20
-8.8817841970012523e-15
10
408.87387473167018
20
-10
0
LWPOLYLINE
5
740
100
AcDbEntity
8
0
100
AcDbPolyline
90
4
70
1
43
0.0
10
382.62387473167007
20
-20
10
384.87387473167007
20
-10
10
382.62387473167007
20
-8.8817841970012523e-15
10
380.37387473167018
20
-10
0
LWPOLYLINE
5
741
100
AcDbEntity
8
0
100
AcDbPolyline
90
4
70
1
43
0.0
10
354.12387473167018
20
-20
10
356.37387473167007
20
-10
10
354.12387473167018
20
-8.8817841970012523e-15
10
351.87387473167018
20
-10
0
LWPOLYLINE
5
742
100
AcDbEntity
8
0
100
AcDbPolyline
90
4
70
1
43
0.0
10
401.62387473167018
20
10
10
403.87387473167007
20
20
10
401.62387473167018
20
29.999999999999993
10
399.37387473167018
20
20
0
LWPOLYLINE
5
743
100
AcDbEntity
8
0
100
AcDbPolyline
90
4
70
1
43
0.0
10
363.62387473167018
20
10
10
365.87387473167013
20
20
10
363.62387473167018
20
29.999999999999993
10
361.37387473167024
20
20
0
LWPOLYLINE
5
744
100
AcDbEntity
8
0
100
AcDbPolyline
90
4
70
1
43
0.0
10
-303.4977494633398
20
20
10
-305.7477494633398
20
30
10
-307.9977494633398
20
20
10
-305.7477494633398
20
10
0
LWPOLYLINE
5
745
100
AcDbEntity
8
0
100
AcDbPolyline
90
4
70
1
43
0.0
10
-152.12387473167027
20
9.9999999999999964
10
-149.87387473167024
20
20
10
-152.12387473167027
20
30.000000000000018
10
-154.37387473167024
20
20
0
LWPOLYLINE
5
746
100
AcDbEntity
8
0
100
AcDbPolyline
90
4
70
1
43
0.0
10
-161.62387473167027
20
-20.000000000000004
10
-159.37387473167024
20
-10
10
-161.62387473167027
20
1.7763568394002505e-14
10
-163.87387473167024
20
-10
0
LWPOLYLINE
5
747
100
AcDbEntity
8
0
100
AcDbPolyline
90
4
70
1
43
0.0
10
-133.1238747316703
20
-20.000000000000004
10
-130.87387473167027
20
-10
10
-133.1238747316703
20
1.7763568394002505e-14
10
-135.37387473167027
20
-10
0
LWPOLYLINE
5
748
100
AcDbEntity
8
0
100
AcDbPolyline
90
4
70
1
43
0.0
10
-190.12387473167024
20
9.9999999999999964
10
-187.87387473167024
20
20
10
-190.12387473167024
20
30.000000000000018
10
-192.37387473167021
20
20
0
LWPOLYLINE
5
749
100
AcDbEntity
8
0
100
AcDbPolyline
90
4
70
1
43
0.0
10
-85.623874731670327
20
-20.000000000000004
10
-83.373874731670298
20
-10
10
-85.623874731670327
20
1.7763568394002505e-14
10
-87.873874731670298
20
-10
0
LWPOLYLINE
5
750
100
AcDbEntity
8
0
100
AcDbPolyline
90
4
70
1
43
0.0
10
-114.1238747316703
20
-20.000000000000004
10
-111.87387473167028
20
-10
10
-114.1238747316703
20
1.7763568394002505e-14
10
-116.37387473167027
20
-10
0
LWPOLYLINE
5
751
100
AcDbEntity
8
0
100
AcDbPolyline
90
4
70
1
43
0.0
10
-114.1238747316703
20
9.9999999999999964
10
-111.87387473167028
20
20
10
-114.1238747316703
20
30.000000000000018
10
-116.37387473167027
20
20
0
LWPOLYLINE
5
752
100
AcDbEntity
8
0
100
AcDbPolyline
90
4
70
1
43
0.0
10
-57.123874731670341
20
-20.000000000000004
10
-54.873874731670327
20
-10
10
-57.123874731670341
20
1.7763568394002505e-14
10
-59.37387473167032
20
-10
0
LWPOLYLINE
5
753
100
AcDbEntity
8
0
100
AcDbPolyline
90
4
70
1
43
0.0
10
-104.6238747316703
20
9.9999999999999964
10
-102.3738747316703
20
20
10
-104.6238747316703
20
30.000000000000018
10
-106.87387473167028
20
20
0
LWPOLYLINE
5
754
100
AcDbEntity
8
0
100
AcDbPolyline
90
4
70
1
43
0.0
10
72.500000000000014
20
-20
10
74.750000000000014
20
-10
10
72.500000000000014
20
0
10
70.250000000000014
20
-10
0
LWPOLYLINE
5
755
100
AcDbEntity
8
0
100
AcDbPolyline
90
4
70
1
43
0.0
10
91.500000000000028
20
-20
10
93.750000000000014
20
-10
10
91.5
20
0
10
89.250000000000028
20
-10
0
LWPOLYLINE
5
756
100
AcDbEntity
8
0
100
AcDbPolyline
90
4
70
1
43
0.0
10
53.500000000000007
20
-20
10
55.750000000000014
20
-10
10
53.500000000000007
20
0
10
51.250000000000007
20
-10
0
LWPOLYLINE
5
757
100
AcDbEntity
8
0
100
AcDbPolyline
90
4
70
1
43
0.0
10
63.000000000000007
20
-20
10
65.25
20
-10
10
63.000000000000007
20
0
10
60.750000000000014
20
-10
0
LWPOLYLINE
5
758
100
AcDbEntity
8
0
100
AcDbPolyline
90
4
70
1
43
0.0
10
44
20
-20
10
46.25
20
-10
10
44
20
0
10
41.750000000000007
20
-10
0
LWPOLYLINE
5
759
100
AcDbEntity
8
0
100
AcDbPolyline
90
4
70
1
43
0.0
10
91.500000000000028
20
10
10
93.750000000000014
20
20
10
91.5
20
30
10
89.250000000000028
20
20
0
LWPOLYLINE
5
760
100
AcDbEntity
8
0
100
AcDbPolyline
90
4
70
1
43
0.0
10
53.500000000000007
20
10
10
55.750000000000014
20
20
10
53.500000000000007
20
30
10
51.250000000000007
20
20
0
LWPOLYLINE
5
761
100
AcDbEntity
8
0
100
AcDbPolyline
90
4
70
1
43
0.0
10
-312.9977494633398
20
-10
10
-315.24774946333986
20
0
10
-317.49774946333986
20
-10
10
-315.24774946333986
20
-20
0
LWPOLYLINE
5
762
100
AcDbEntity
8
0
100
AcDbPolyline
90
4
70
1
43
0.0
10
-265.49774946333969
20
20
10
-267.74774946333969
20
30
10
-269.99774946333969
20
20
10
-267.74774946333969
20
10
0
LWPOLYLINE
5
763
100
AcDbEntity
8
0
100
AcDbPolyline
90
4
70
1
43
0.0
10
-398.49774946334009
20
20
10
-400.74774946334009
20
30
10
-402.99774946334014
20
20
10
-400.74774946334009
20
10
0
LWPOLYLINE
5
764
100
AcDbEntity
8
0
100
AcDbPolyline
90
4
70
1
43
0.0
10
-303.4977494633398
20
-10
10
-305.7477494633398
20
0
10
-307.9977494633398
20
-10
10
-305.7477494633398
20
-20
0
LWPOLYLINE
5
765
100
AcDbEntity
8
0
100
AcDbPolyline
90
4
70
1
43
0.0
10
82.000000000000014
20
10
10
84.25
20
20
10
82.000000000000014
20
30
10
79.750000000000014
20
20
0
LWPOLYLINE
5
766
100
AcDbEntity
8
0
100
AcDbPolyline
90
4
70
1
43
0.0
10
-284.49774946333974
20
-10
10
-286.74774946333974
20
0
10
-288.9977494633398
20
-10
10
-286.74774946333974
20
-20
0
LWPOLYLINE
5
767
100
AcDbEntity
8
0
100
AcDbPolyline
90
4
70
1
43
0.0
10
101.00000000000001
20
10
10
103.25000000000001
20
20
10
101.00000000000001
20
30
10
98.750000000000014
20
20
0
LWPOLYLINE
5
768
100
AcDbEntity
8
0
100
AcDbPolyline
90
4
70
1
43
0.0
10
82.000000000000014
20
-20
10
84.25
20
-10
10
82.000000000000014
20
0
10
79.750000000000014
20
-10
0
LWPOLYLINE
5
769
100
AcDbEntity
8
0
100
AcDbPolyline
90
4
70
1
43
0.0
10
-76.123874731670327
20
-20.000000000000004
10
-73.873874731670313
20
-10
10
-76.123874731670327
20
1.7763568394002505e-14
10
-78.373874731670298
20
-10
0
LWPOLYLINE
5
770
100
AcDbEntity
8
0
100
AcDbPolyline
90
4
70
1
43
0.0
10
-47.623874731670348
20
-20.000000000000004
10
-45.373874731670334
20
-10
10
-47.623874731670348
20
1.7763568394002505e-14
10
-49.873874731670327
20
-10
0
LWPOLYLINE
5
771
100
AcDbEntity
8
0
100
AcDbPolyline
90
4
70
1
43
0.0
10
-57.123874731670341
20
9.9999999999999964
10
-54.873874731670327
20
20
10
-57.123874731670341
20
30.000000000000018
10
-59.37387473167032
20
20
0
LWPOLYLINE
5
772
100
AcDbEntity
8
0
100
AcDbPolyline
90
4
70
1
43
0.0
10
-66.623874731670327
20
-20.000000000000004
10
-64.373874731670327
20
-10
10
-66.623874731670327
20
1.7763568394002505e-14
10
-68.873874731670313
20
-10
0
LWPOLYLINE
5
773
100
AcDbEntity
8
0
100
AcDbPolyline
90
4
70
1
43
0.0
10
-38.123874731670355
20
-20.000000000000004
10
-35.873874731670341
20
-10
10
-38.123874731670355
20
1.7763568394002505e-14
10
-40.373874731670334
20
-10
0
LWPOLYLINE
5
774
100
AcDbEntity
8
0
100
AcDbPolyline
90
4
70
1
43
0.0
10
-171.12387473167024
20
9.9999999999999964
10
-168.87387473167024
20
20
10
-171.12387473167024
20
30.000000000000018
10
-173.37387473167024
20
20
0
LWPOLYLINE
5
775
100
AcDbEntity
8
0
100
AcDbPolyline
90
4
70
1
43
0.0
10
-161.62387473167027
20
9.9999999999999964
10
-159.37387473167024
20
20
10
-161.62387473167027
20
30.000000000000018
10
-163.87387473167024
20
20
0
LWPOLYLINE
5
776
100
AcDbEntity
8
0
100
AcDbPolyline
90
4
70
1
43
0.0
10
-180.62387473167024
20
-20.000000000000004
10
-178.37387473167024
20
-10
10
-180.62387473167024
20
1.7763568394002505e-14
10
-182.87387473167024
20
-10
0
LWPOLYLINE
5
777
100
AcDbEntity
8
0
100
AcDbPolyline
90
4
70
1
43
0.0
10
-190.12387473167024
20
-20.000000000000004
10
-187.87387473167024
20
-10
10
-190.12387473167024
20
1.7763568394002505e-14
10
-192.37387473167021
20
-10
0
LWPOLYLINE
5
778
100
AcDbEntity
8
0
100
AcDbPolyline
90
4
70
1
43
0.0
10
-142.62387473167027
20
-20.000000000000004
10
-140.37387473167027
20
-10
10
-142.62387473167027
20
1.7763568394002505e-14
10
-144.87387473167024
20
-10
0
LWPOLYLINE
5
779
100
AcDbEntity
8
0
100
AcDbPolyline
90
4
70
1
43
0.0
10
-322.49774946333986
20
20
10
-324.74774946333986
20
30
10
-326.99774946333991
20
20
10
-324.74774946333986
20
10
0
LWPOLYLINE
5
780
100
AcDbEntity
8
0
100
AcDbPolyline
90
4
70
1
43
0.0
10
373.12387473167013
20
-20
10
375.37387473167007
20
-10
10
373.12387473167013
20
-8.8817841970012523e-15
10
370.87387473167018
20
-10
0
LWPOLYLINE
5
781
100
AcDbEntity
8
0
100
AcDbPolyline
90
4
70
1
43
0.0
10
373.12387473167013
20
10
10
375.37387473167007
20
20
10
373.12387473167013
20
29.999999999999993
10
370.87387473167018
20
20
0
LWPOLYLINE
5
782
100
AcDbEntity
8
0
100
AcDbPolyline
90
4
70
1
43
0.0
10
392.12387473167013
20
-20
10
394.37387473167007
20
-10
10
392.12387473167013
20
-8.8817841970012523e-15
10
389.87387473167018
20
-10
0
LWPOLYLINE
5
783
100
AcDbEntity
8
0
100
AcDbPolyline
90
4
70
1
43
0.0
10
344.62387473167013
20
-20
10
346.87387473167007
20
-10
10
344.62387473167013
20
-8.8817841970012523e-15
10
342.37387473167018
20
-10
0
LWPOLYLINE
5
784
100
AcDbEntity
8
0
100
AcDbPolyline
90
4
70
1
43
0.0
10
-350.99774946333991
20
20
10
-353.24774946333997
20
30
10
-355.49774946333997
20
20
10
-353.24774946333997
20
10
0
LWPOLYLINE
5
785
100
AcDbEntity
8
0
100
AcDbPolyline
90
4
70
1
43
0.0
10
120
20
-20
10
122.25000000000001
20
-10
10
120.00000000000001
20
0
10
117.75
20
-10
0
LWPOLYLINE
5
786
100
AcDbEntity
8
0
100
AcDbPolyline
90
4
70
1
43
0.0
10
-360.49774946333997
20
20
10
-362.74774946333997
20
30
10
-364.99774946334003
20
20
10
-362.74774946333997
20
10
0
LWPOLYLINE
5
787
100
AcDbEntity
8
0
100
AcDbPolyline
90
4
70
1
43
0.0
10
-341.49774946333991
20
20
10
-343.74774946333991
20
30
10
-345.99774946333991
20
20
10
-343.74774946333991
20
10
0
LWPOLYLINE
5
788
100
AcDbEntity
8
0
100
AcDbPolyline
90
4
70
1
43
0.0
10
-379.49774946334003
20
-10
10
-381.74774946334003
20
0
10
-383.99774946334003
20
-10
10
-381.74774946334003
20
-20
0
LWPOLYLINE
5
789
100
AcDbEntity
8
0
100
AcDbPolyline
90
4
70
1
43
0.0
10
-341.49774946333991
20
-10
10
-343.74774946333991
20
0
10
-345.99774946333991
20
-10
10
-343.74774946333991
20
-20
0
LWPOLYLINE
5
790
100
AcDbEntity
8
0
100
AcDbPolyline
90
4
70
1
43
0.0
10
139.00000000000003
20
10
10
141.25000000000003
20
20
10
139.00000000000003
20
30
10
136.75000000000003
20
20
0
LWPOLYLINE
5
791
100
AcDbEntity
8
0
100
AcDbPolyline
90
4
70
1
43
0.0
10
316.12387473167018
20
10
10
318.37387473167013
20
20
10
316.12387473167018
20
29.999999999999993
10
313.87387473167024
20
20
0
LWPOLYLINE
5
792
100
AcDbEntity
8
0
100
AcDbPolyline
90
4
70
1
43
0.0
10
167.50000000000003
20
10
10
169.75
20
20
10
167.5
20
30
10
165.25000000000006
20
20
0
LWPOLYLINE
5
793
100
AcDbEntity
8
0
100
AcDbPolyline
90
4
70
1
43
0.0
10
278.12387473167018
20
-20
10
280.37387473167018
20
-10
10
278.12387473167018
20
-8.8817841970012523e-15
10
275.8738747316703
20
-10
0
LWPOLYLINE
5
794
100
AcDbEntity
8
0
100
AcDbPolyline
90
4
70
1
43
0.0
10
287.62387473167018
20
10
10
289.87387473167013
20
20
10
287.62387473167018
20
29.999999999999993
10
285.37387473167024
20
20
0
LWPOLYLINE
5
795
100
AcDbEntity
8
0
100
AcDbPolyline
90
4
70
1
43
0.0
10
177.00000000000003
20
10
10
179.25000000000006
20
20
10
177.00000000000003
20
30
10
174.75
20
20
0
LWPOLYLINE
5
796
100
AcDbEntity
8
0
100
AcDbPolyline
90
4
70
1
43
0.0
10
349.37387473167018
20
24.999999999999993
10
351.62387473167018
20
35
10
349.37387473167018
20
44.999999999999993
10
347.12387473167018
20
35
0
LWPOLYLINE
5
797
100
AcDbEntity
8
0
100
AcDbPolyline
90
4
70
1
43
0.0
10
387.37387473167018
20
24.999999999999993
10
389.62387473167013
20
35
10
387.37387473167018
20
44.999999999999993
10
385.12387473167018
20
35
0
LWPOLYLINE
5
798
100
AcDbEntity
8
0
100
AcDbPolyline
90
4
70
1
43
0.0
10
358.87387473167018
20
-5.0000000000000089
10
361.12387473167018
20
5
10
358.87387473167024
20
14.999999999999991
10
356.62387473167018
20
5
0
LWPOLYLINE
5
799
100
AcDbEntity
8
0
100
AcDbPolyline
90
4
70
1
43
0.0
10
396.87387473167013
20
-5.0000000000000089
10
399.12387473167018
20
5
10
396.87387473167018
20
14.999999999999991
10
394.62387473167013
20
5
0
LWPOLYLINE
5
800
100
AcDbEntity
8
0
100
AcDbPolyline
90
4
70
1
43
0.0
10
368.37387473167013
20
-35.000000000000007
10
370.62387473167013
20
-25
10
368.37387473167013
20
-15.000000000000009
10
366.12387473167013
20
-25
0
LWPOLYLINE
5
801
100
AcDbEntity
8
0
100
AcDbPolyline
90
4
70
1
43
0.0
10
387.37387473167018
20
-35.000000000000007
10
389.62387473167013
20
-25
10
387.37387473167018
20
-15.000000000000009
10
385.12387473167018
20
-25
0
LWPOLYLINE
5
802
100
AcDbEntity
8
0
100
AcDbPolyline
90
4
70
1
43
0.0
10
415.87387473167013
20
-35.000000000000007
10
418.12387473167007
20
-25
10
415.87387473167013
20
-15.000000000000009
10
413.62387473167013
20
-25
0
LWPOLYLINE
5
803
100
AcDbEntity
8
0
100
AcDbPolyline
90
4
70
1
43
0.0
10
311.37387473167018
20
24.999999999999993
10
313.62387473167018
20
35
10
311.37387473167018
20
44.999999999999993
10
309.12387473167018
20
35
0
LWPOLYLINE
5
804
100
AcDbEntity
8
0
100
AcDbPolyline
90
4
70
1
43
0.0
10
-99.873874731670298
20
-35
10
-97.62387473167027
20
-25
10
-99.873874731670298
20
-15
10
-102.1238747316703
20
-25
0
LWPOLYLINE
5
805
100
AcDbEntity
8
0
100
AcDbPolyline
90
4
70
1
43
0.0
10
-99.873874731670298
20
25
10
-97.62387473167027
20
35
10
-99.873874731670298
20
45
10
-102.1238747316703
20
35
0
LWPOLYLINE
5
806
100
AcDbEntity
8
0
100
AcDbPolyline
90
4
70
1
43
0.0
10
-33.373874731670341
20
-35
10
-31.123874731670327
20
-25
10
-33.373874731670341
20
-15
10
-35.623874731670355
20
-25
0
LWPOLYLINE
5
807
100
AcDbEntity
8
0
100
AcDbPolyline
90
4
70
1
43
0.0
10
134.24999999999997
20
25
10
136.49999999999997
20
35
10
134.24999999999997
20
45
10
131.99999999999997
20
35
0
LWPOLYLINE
5
808
100
AcDbEntity
8
0
100
AcDbPolyline
90
4
70
1
43
0.0
10
-317.74774946333997
20
-25
10
-319.99774946333991
20
-15
10
-322.24774946334003
20
-25
10
-319.99774946333991
20
-35
0
LWPOLYLINE
5
809
100
AcDbEntity
8
0
100
AcDbPolyline
90
4
70
1
43
0.0
10
-327.24774946334003
20
-25
10
-329.49774946333997
20
-15
10
-331.74774946334003
20
-25
10
-329.49774946333997
20
-35
0
LWPOLYLINE
5
810
100
AcDbEntity
8
0
100
AcDbPolyline
90
4
70
1
43
0.0
10
172.24999999999997
20
25
10
174.49999999999994
20
35
10
172.24999999999994
20
45
10
170
20
35
0
LWPOLYLINE
5
811
100
AcDbEntity
8
0
100
AcDbPolyline
90
4
70
1
43
0.0
10
115.24999999999999
20
25
10
117.49999999999999
20
35
10
115.24999999999999
20
45
10
112.99999999999999
20
35
0
LWPOLYLINE
5
812
100
AcDbEntity
8
0
100
AcDbPolyline
90
4
70
1
43
0.0
10
-279.74774946333986
20
5
10
-281.9977494633398
20
15
10
-284.24774946333991
20
5
10
-281.9977494633398
20
-5
0
LWPOLYLINE
5
813
100
AcDbEntity
8
0
100
AcDbPolyline
90
4
70
1
43
0.0
10
-260.7477494633398
20
35
10
-262.99774946333974
20
45
10
-265.24774946333986
20
35
10
-262.99774946333974
20
25
0
LWPOLYLINE
5
814
100
AcDbEntity
8
0
100
AcDbPolyline
90
4
70
1
43
0.0
10
-270.24774946333986
20
-25
10
-272.4977494633398
20
-15
10
-274.74774946333986
20
-25
10
-272.4977494633398
20
-35
0
LWPOLYLINE
5
815
100
AcDbEntity
8
0
100
AcDbPolyline
90
4
70
1
43
0.0
10
77.249999999999986
20
-5
10
79.5
20
5
10
77.249999999999986
20
15
10
74.999999999999986
20
5
0
LWPOLYLINE
5
816
100
AcDbEntity
8
0
100
AcDbPolyline
90
4
70
1
43
0.0
10
134.24999999999997
20
-35
10
136.49999999999997
20
-25
10
134.24999999999997
20
-15
10
131.99999999999997
20
-25
0
LWPOLYLINE
5
817
100
AcDbEntity
8
0
100
AcDbPolyline
90
4
70
1
43
0.0
10
-289.24774946333991
20
5
10
-291.49774946333986
20
15
10
-293.74774946333991
20
5
10
-291.49774946333986
20
-5
0
LWPOLYLINE
5
818
100
AcDbEntity
8
0
100
AcDbPolyline
90
4
70
1
43
0.0
10
-260.7477494633398
20
-25
10
-262.99774946333974
20
-15
10
-265.24774946333986
20
-25
10
-262.99774946333974
20
-35
0
LWPOLYLINE
5
819
100
AcDbEntity
8
0
100
AcDbPolyline
90
4
70
1
43
0.0
10
153.24999999999994
20
-35
10
155.49999999999997
20
-25
10
153.24999999999994
20
-15
10
150.99999999999997
20
-25
0
LWPOLYLINE
5
820
100
AcDbEntity
8
0
100
AcDbPolyline
90
4
70
1
43
0.0
10
-185.37387473167024
20
-5
10
-183.12387473167021
20
5
10
-185.37387473167024
20
15
10
-187.62387473167024
20
5
0
LWPOLYLINE
5
821
100
AcDbEntity
8
0
100
AcDbPolyline
90
4
70
1
43
0.0
10
-166.37387473167024
20
-5
10
-164.12387473167024
20
5
10
-166.37387473167024
20
15
10
-168.62387473167024
20
5
0
LWPOLYLINE
5
822
100
AcDbEntity
8
0
100
AcDbPolyline
90
4
70
1
43
0.0
10
96.249999999999986
20
25
10
98.499999999999972
20
35
10
96.249999999999972
20
45
10
93.999999999999986
20
35
0
LWPOLYLINE
5
823
100
AcDbEntity
8
0
100
AcDbPolyline
90
4
70
1
43
0.0
10
48.75
20
-35
10
51
20
-25
10
48.749999999999993
20
-15
10
46.5
20
-25
0
LWPOLYLINE
5
824
100
AcDbEntity
8
0
100
AcDbPolyline
90
4
70
1
43
0.0
10
39.25
20
-35
10
41.5
20
-25
10
39.25
20
-15
10
37
20
-25
0
LWPOLYLINE
5
825
100
AcDbEntity
8
0
100
AcDbPolyline
90
4
70
1
43
0.0
10
-147.37387473167024
20
-5
10
-145.12387473167024
20
5
10
-147.37387473167024
20
15
10
-149.62387473167027
20
5
0
LWPOLYLINE
5
826
100
AcDbEntity
8
0
100
AcDbPolyline
90
4
70
1
43
0.0
10
86.749999999999972
20
-35
10
88.999999999999986
20
-25
10
86.749999999999972
20
-15
10
84.499999999999972
20
-25
0
LWPOLYLINE
5
827
100
AcDbEntity
8
0
100
AcDbPolyline
90
4
70
1
43
0.0
10
-166.37387473167024
20
-35
10
-164.12387473167024
20
-25
10
-166.37387473167024
20
-15
10
-168.62387473167024
20
-25
0
LWPOLYLINE
5
828
100
AcDbEntity
8
0
100
AcDbPolyline
90
4
70
1
43
0.0
10
-118.87387473167027
20
25
10
-116.62387473167027
20
35
10
-118.87387473167027
20
45
10
-121.1238747316703
20
35
0
LWPOLYLINE
5
829
100
AcDbEntity
8
0
100
AcDbPolyline
90
4
70
1
43
0.0
10
-42.873874731670334
20
-5
10
-40.62387473167032
20
5
10
-42.873874731670334
20
15
10
-45.123874731670348
20
5
0
LWPOLYLINE
5
830
100
AcDbEntity
8
0
100
AcDbPolyline
90
4
70
1
43
0.0
10
-52.373874731670327
20
25
10
-50.123874731670313
20
35
10
-52.373874731670327
20
45
10
-54.623874731670341
20
35
0
LWPOLYLINE
5
831
100
AcDbEntity
8
0
100
AcDbPolyline
90
4
70
1
43
0.0
10
-42.873874731670334
20
25
10
-40.62387473167032
20
35
10
-42.873874731670334
20
45
10
-45.123874731670348
20
35
0
LWPOLYLINE
5
832
100
AcDbEntity
8
0
100
AcDbPolyline
90
4
70
1
43
0.0
10
-80.873874731670298
20
25
10
-78.623874731670298
20
35
10
-80.873874731670298
20
45
10
-83.123874731670327
20
35
0
LWPOLYLINE
5
833
100
AcDbEntity
8
0
100
AcDbPolyline
90
4
70
1
43
0.0
10
-33.373874731670341
20
-5
10
-31.123874731670327
20
5
10
-33.373874731670341
20
15
10
-35.623874731670355
20
5
0
LWPOLYLINE
5
834
100
AcDbEntity
8
0
100
AcDbPolyline
90
4
70
1
43
0.0
10
-137.87387473167027
20
-35
10
-135.62387473167024
20
-25
10
-137.87387473167027
20
-15
10
-140.12387473167027
20
-25
0
LWPOLYLINE
5
835
100
AcDbEntity
8
0
100
AcDbPolyline
90
4
70
1
43
0.0
10
-412.74774946334026
20
-25
10
-414.9977494633402
20
-15
10
-417.24774946334031
20
-25
10
-414.9977494633402
20
-35
0
LWPOLYLINE
5
836
100
AcDbEntity
8
0
100
AcDbPolyline
90
4
70
1
43
0.0
10
273.37387473167024
20
-5.0000000000000089
10
275.62387473167018
20
5
10
273.37387473167024
20
14.999999999999991
10
271.12387473167024
20
5
0
LWPOLYLINE
5
837
100
AcDbEntity
8
0
100
AcDbPolyline
90
4
70
1
43
0.0
10
273.37387473167024
20
-35.000000000000007
10
275.62387473167018
20
-25
10
273.37387473167024
20
-15.000000000000009
10
271.12387473167024
20
-25
0
LWPOLYLINE
5
838
100
AcDbEntity
8
0
100
AcDbPolyline
90
4
70
1
43
0.0
10
-374.74774946334014
20
-25
10
-376.99774946334009
20
-15
10
-379.2477494633402
20
-25
10
-376.99774946334009
20
-35
0
LWPOLYLINE
5
839
100
AcDbEntity
8
0
100
AcDbPolyline
90
4
70
1
43
0.0
10
-374.74774946334014
20
5
10
-376.99774946334009
20
15
10
-379.2477494633402
20
5
10
-376.99774946334009
20
-5
0
LWPOLYLINE
5
840
100
AcDbEntity
8
0
100
AcDbPolyline
90
4
70
1
43
0.0
10
330.37387473167018
20
-35.000000000000007
10
332.62387473167018
20
-25
10
330.37387473167018
20
-15.000000000000009
10
328.12387473167013
20
-25
0
LWPOLYLINE
5
841
100
AcDbEntity
8
0
100
AcDbPolyline
90
4
70
1
43
0.0
10
172.24999999999997
20
-5
10
174.49999999999994
20
5
10
172.24999999999994
20
15
10
170
20
5
0
LWPOLYLINE
5
842
100
AcDbEntity
8
0
100
AcDbPolyline
90
4
70
1
43
0.0
10
-346.24774946334009
20
35
10
-348.49774946334003
20
45
10
-350.74774946334009
20
35
10
-348.49774946334003
20
25
0
LWPOLYLINE
5
843
100
AcDbEntity
8
0
100
AcDbPolyline
90
4
70
1
43
0.0
10
282.87387473167024
20
-35.000000000000007
10
285.12387473167018
20
-25
10
282.87387473167024
20
-15.000000000000009
10
280.62387473167018
20
-25
0
LWPOLYLINE
5
844
100
AcDbEntity
8
0
100
AcDbPolyline
90
4
70
1
43
0.0
10
-346.24774946334009
20
5
10
-348.49774946334003
20
15
10
-350.74774946334009
20
5
10
-348.49774946334003
20
-5
0
LWPOLYLINE
5
845
100
AcDbEntity
8
0
100
AcDbPolyline
90
4
70
1
43
0.0
10
-393.7477494633402
20
5
10
-395.99774946334014
20
15
10
-398.24774946334026
20
5
10
-395.99774946334014
20
-5
0
LWPOLYLINE
5
846
100
AcDbEntity
8
0
100
AcDbPolyline
90
4
70
1
43
0.0
10
330.37387473167018
20
24.999999999999993
10
332.62387473167018
20
35
10
330.37387473167018
20
44.999999999999993
10
328.12387473167013
20
35
0
LWPOLYLINE
5
847
100
AcDbEntity
8
0
100
AcDbPolyline
90
4
70
1
43
0.0
10
273.37387473167024
20
24.999999999999993
10
275.62387473167018
20
35
10
273.37387473167024
20
44.999999999999993
10
271.12387473167024
20
35
0
LWPOLYLINE
5
848
100
AcDbEntity
8
0
100
AcDbPolyline
90
4
70
1
43
0.0
10
263.87387473167024
20
-5.0000000000000089
10
266.12387473167024
20
5
10
263.87387473167024
20
14.999999999999991
10
261.62387473167024
20
5
0
LWPOLYLINE
5
849
100
AcDbEntity
8
0
100
AcDbPolyline
90
4
70
1
43
0.0
10
191.24999999999997
20
-5
10
193.49999999999994
20
5
10
191.24999999999994
20
15
10
189
20
5
0
LWPOLYLINE
5
850
100
AcDbEntity
8
0
100
AcDbPolyline
90
4
70
1
43
0.0
10
181.74999999999997
20
-5
10
184
20
5
10
181.74999999999997
20
15
10
179.49999999999994
20
5
0
LWPOLYLINE
5
851
100
AcDbEntity
8
0
100
AcDbPolyline
90
4
70
1
43
0.0
10
-365.24774946334014
20
35
10
-367.49774946334009
20
45
10
-369.74774946334014
20
35
10
-367.49774946334009
20
25
0
LWPOLYLINE
5
852
100
AcDbEntity
8
0
100
AcDbPolyline
90
4
70
1
43
0.0
10
153.24999999999994
20
-5
10
155.49999999999997
20
5
10
153.24999999999994
20
15
10
150.99999999999997
20
5
0
LWPOLYLINE
5
853
100
AcDbEntity
8
0
100
AcDbPolyline
90
4
70
1
43
0.0
10
-384.2477494633402
20
5
10
-386.49774946334014
20
15
10
-388.7477494633402
20
5
10
-386.49774946334014
20
-5
0
LWPOLYLINE
5
854
100
AcDbEntity
8
0
100
AcDbPolyline
90
4
70
1
43
0.0
10
-365.24774946334014
20
5
10
-367.49774946334009
20
15
10
-369.74774946334014
20
5
10
-367.49774946334009
20
-5
0
LWPOLYLINE
5
855
100
AcDbEntity
8
0
100
AcDbPolyline
90
4
70
1
43
0.0
10
301.87387473167018
20
-35.000000000000007
10
304.12387473167018
20
-25
10
301.87387473167018
20
-15.000000000000009
10
299.62387473167018
20
-25
0
LWPOLYLINE
5
856
100
AcDbEntity
8
0
100
AcDbPolyline
90
4
70
1
43
0.0
10
-384.2477494633402
20
-25
10
-386.49774946334014
20
-15
10
-388.7477494633402
20
-25
10
-386.49774946334014
20
-35
0
LWPOLYLINE
5
857
100
AcDbEntity
8
0
100
AcDbPolyline
90
4
70
1
43
0.0
10
-393.7477494633402
20
-25
10
-395.99774946334014
20
-15
10
-398.24774946334026
20
-25
10
-395.99774946334014
20
-35
0
LWPOLYLINE
5
858
100
AcDbEntity
8
0
100
AcDbPolyline
90
4
70
1
43
0.0
10
-365.24774946334014
20
-25
10
-367.49774946334009
20
-15
10
-369.74774946334014
20
-25
10
-367.49774946334009
20
-35
0
LWPOLYLINE
5
859
100
AcDbEntity
8
0
100
AcDbPolyline
90
4
70
1
43
0.0
10
311.37387473167018
20
-5.0000000000000089
10
313.62387473167018
20
5
10
311.37387473167018
20
14.999999999999991
10
309.12387473167018
20
5
0
LWPOLYLINE
5
860
100
AcDbEntity
8
0
100
AcDbPolyline
90
4
70
1
43
0.0
10
-147.37387473167024
20
-35
10
-145.12387473167024
20
-25
10
-147.37387473167024
20
-15
10
-149.62387473167027
20
-25
0
LWPOLYLINE
5
861
100
AcDbEntity
8
0
100
AcDbPolyline
90
4
70
1
43
0.0
10
-61.87387473167032
20
-5
10
-59.623874731670305
20
5
10
-61.87387473167032
20
15
10
-64.123874731670327
20
5
0
LWPOLYLINE
5
862
100
AcDbEntity
8
0
100
AcDbPolyline
90
4
70
1
43
0.0
10
-156.87387473167024
20
25
10
-154.62387473167024
20
35
10
-156.87387473167024
20
45
10
-159.12387473167027
20
35
0
LWPOLYLINE
5
863
100
AcDbEntity
8
0
100
AcDbPolyline
90
4
70
1
43
0.0
10
-80.873874731670298
20
-5
10
-78.623874731670298
20
5
10
-80.873874731670298
20
15
10
-83.123874731670327
20
5
0
LWPOLYLINE
5
864
100
AcDbEntity
8
0
100
AcDbPolyline
90
4
70
1
43
0.0
10
-109.37387473167028
20
-5
10
-107.12387473167027
20
5
10
-109.37387473167028
20
15
10
-111.6238747316703
20
5
0
LWPOLYLINE
5
865
100
AcDbEntity
8
0
100
AcDbPolyline
90
4
70
1
43
0.0
10
-71.373874731670313
20
25
10
-69.123874731670298
20
35
10
-71.373874731670313
20
45
10
-73.623874731670327
20
35
0
LWPOLYLINE
5
866
100
AcDbEntity
8
0
100
AcDbPolyline
90
4
70
1
43
0.0
10
-118.87387473167027
20
-35
10
-116.62387473167027
20
-25
10
-118.87387473167027
20
-15
10
-121.1238747316703
20
-25
0
LWPOLYLINE
5
867
100
AcDbEntity
8
0
100
AcDbPolyline
90
4
70
1
43
0.0
10
96.249999999999986
20
-35
10
98.499999999999972
20
-25
10
96.249999999999972
20
-15
10
93.999999999999986
20
-25
0
LWPOLYLINE
5
868
100
AcDbEntity
8
0
100
AcDbPolyline
90
4
70
1
43
0.0
10
-175.87387473167024
20
-5
10
-173.62387473167021
20
5
10
-175.87387473167024
20
15
10
-178.12387473167024
20
5
0
LWPOLYLINE
5
869
100
AcDbEntity
8
0
100
AcDbPolyline
90
4
70
1
43
0.0
10
77.249999999999986
20
-35
10
79.5
20
-25
10
77.249999999999986
20
-15
10
74.999999999999986
20
-25
0
LWPOLYLINE
5
870
100
AcDbEntity
8
0
100
AcDbPolyline
90
4
70
1
43
0.0
10
77.249999999999986
20
25
10
79.5
20
35
10
77.249999999999986
20
45
10
74.999999999999986
20
35
0
LWPOLYLINE
5
871
100
AcDbEntity
8
0
100
AcDbPolyline
90
4
70
1
43
0.0
10
-128.37387473167027
20
-5
10
-126.12387473167026
20
5
10
-128.37387473167027
20
15
10
-130.6238747316703
20
5
0
LWPOLYLINE
5
872
100
AcDbEntity
8
0
100
AcDbPolyline
90
4
70
1
43
0.0
10
-137.87387473167027
20
-5
10
-135.62387473167024
20
5
10
-137.87387473167027
20
15
10
-140.12387473167027
20
5
0
LWPOLYLINE
5
873
100
AcDbEntity
8
0
100
AcDbPolyline
90
4
70
1
43
0.0
10
-317.74774946333997
20
35
10
-319.99774946333991
20
45
10
-322.24774946334003
20
35
10
-319.99774946333991
20
25
0
LWPOLYLINE
5
874
100
AcDbEntity
8
0
100
AcDbPolyline
90
4
70
1
43
0.0
10
-308.24774946333997
20
35
10
-310.49774946333991
20
45
10
-312.74774946333997
20
35
10
-310.49774946333991
20
25
0
LWPOLYLINE
5
875
100
AcDbEntity
8
0
100
AcDbPolyline
90
4
70
1
43
0.0
10
-279.74774946333986
20
35
10
-281.9977494633398
20
45
10
-284.24774946333991
20
35
10
-281.9977494633398
20
25
0
LWPOLYLINE
5
876
100
AcDbEntity
8
0
100
AcDbPolyline
90
4
70
1
43
0.0
10
86.749999999999972
20
-5
10
88.999999999999986
20
5
10
86.749999999999972
20
15
10
84.499999999999972
20
5
0
LWPOLYLINE
5
877
100
AcDbEntity
8
0
100
AcDbPolyline
90
4
70
1
43
0.0
10
-317.74774946333997
20
5
10
-319.99774946333991
20
15
10
-322.24774946334003
20
5
10
-319.99774946333991
20
-5
0
LWPOLYLINE
5
878
100
AcDbEntity
8
0
100
AcDbPolyline
90
4
70
1
43
0.0
10
58.249999999999993
20
-5
10
60.5
20
5
10
58.249999999999993
20
15
10
56
20
5
0
LWPOLYLINE
5
879
100
AcDbEntity
8
0
100
AcDbPolyline
90
4
70
1
43
0.0
10
143.74999999999997
20
-35
10
145.99999999999997
20
-25
10
143.74999999999997
20
-15
10
141.49999999999997
20
-25
0
LWPOLYLINE
5
880
100
AcDbEntity
8
0
100
AcDbPolyline
90
4
70
1
43
0.0
10
-270.24774946333986
20
35
10
-272.4977494633398
20
45
10
-274.74774946333986
20
35
10
-272.4977494633398
20
25
0
LWPOLYLINE
5
881
100
AcDbEntity
8
0
100
AcDbPolyline
90
4
70
1
43
0.0
10
-336.74774946334003
20
5
10
-338.99774946333997
20
15
10
-341.24774946334009
20
5
10
-338.99774946333997
20
-5
0
LWPOLYLINE
5
882
100
AcDbEntity
8
0
100
AcDbPolyline
90
4
70
1
43
0.0
10
-270.24774946333986
20
5
10
-272.4977494633398
20
15
10
-274.74774946333986
20
5
10
-272.4977494633398
20
-5
0
LWPOLYLINE
5
883
100
AcDbEntity
8
0
100
AcDbPolyline
90
4
70
1
43
0.0
10
162.74999999999994
20
25
10
164.99999999999997
20
35
10
162.74999999999994
20
45
10
160.49999999999997
20
35
0
LWPOLYLINE
5
884
100
AcDbEntity
8
0
100
AcDbPolyline
90
4
70
1
43
0.0
10
181.74999999999997
20
25
10
184
20
35
10
181.74999999999997
20
45
10
179.49999999999994
20
35
0
LWPOLYLINE
5
885
100
AcDbEntity
8
0
100
AcDbPolyline
90
4
70
1
43
0.0
10
-384.2477494633402
20
35
10
-386.49774946334014
20
45
10
-388.7477494633402
20
35
10
-386.49774946334014
20
25
0
LWPOLYLINE
5
886
100
AcDbEntity
8
0
100
AcDbPolyline
90
4
70
1
43
0.0
10
-374.74774946334014
20
35
10
-376.99774946334009
20
45
10
-379.2477494633402
20
35
10
-376.99774946334009
20
25
0
LWPOLYLINE
5
887
100
AcDbEntity
8
0
100
AcDbPolyline
90
4
70
1
43
0.0
10
-403.24774946334026
20
35
10
-405.4977494633402
20
45
10
-407.74774946334026
20
35
10
-405.4977494633402
20
25
0
LWPOLYLINE
5
888
100
AcDbEntity
8
0
100
AcDbPolyline
90
4
70
1
43
0.0
10
-61.87387473167032
20
-35
10
-59.623874731670305
20
-25
10
-61.87387473167032
20
-15
10
-64.123874731670327
20
-25
0
LWPOLYLINE
5
889
100
AcDbEntity
8
0
100
AcDbPolyline
90
4
70
1
43
0.0
10
-90.373874731670298
20
25
10
-88.123874731670284
20
35
10
-90.373874731670298
20
45
10
-92.623874731670313
20
35
0
LWPOLYLINE
5
890
100
AcDbEntity
8
0
100
AcDbPolyline
90
4
70
1
43
0.0
10
-90.373874731670298
20
-35
10
-88.123874731670284
20
-25
10
-90.373874731670298
20
-15
10
-92.623874731670313
20
-25
0
LWPOLYLINE
5
891
100
AcDbEntity
8
0
100
AcDbPolyline
90
4
70
1
43
0.0
10
301.87387473167018
20
24.999999999999993
10
304.12387473167018
20
35
10
301.87387473167018
20
44.999999999999993
10
299.62387473167018
20
35
0
LWPOLYLINE
5
892
100
AcDbEntity
8
0
100
AcDbPolyline
90
4
70
1
43
0.0
10
368.37387473167013
20
-5.0000000000000089
10
370.62387473167013
20
5
10
368.37387473167013
20
14.999999999999991
10
366.12387473167013
20
5
0
LWPOLYLINE
5
893
100
AcDbEntity
8
0
100
AcDbPolyline
90
4
70
1
43
0.0
10
339.87387473167018
20
-35.000000000000007
10
342.12387473167013
20
-25
10
339.87387473167018
20
-15.000000000000009
10
337.62387473167018
20
-25
0
LWPOLYLINE
5
894
100
AcDbEntity
8
0
100
AcDbPolyline
90
4
70
1
43
0.0
10
406.37387473167007
20
-35.000000000000007
10
408.62387473167013
20
-25
10
406.37387473167007
20
-15.000000000000009
10
404.12387473167007
20
-25
0
LWPOLYLINE
5
895
100
AcDbEntity
8
0
100
AcDbPolyline
90
4
70
1
43
0.0
10
415.87387473167013
20
-5.0000000000000089
10
418.12387473167007
20
5
10
415.87387473167013
20
14.999999999999991
10
413.62387473167013
20
5
0
LWPOLYLINE
5
896
100
AcDbEntity
8
0
100
AcDbPolyline
90
4
70
1
43
0.0
10
349.37387473167018
20
-5.0000000000000089
10
351.62387473167018
20
5
10
349.37387473167018
20
14.999999999999991
10
347.12387473167018
20
5
0
LWPOLYLINE
5
897
100
AcDbEntity
8
0
100
AcDbPolyline
90
4
70
1
43
0.0
10
368.37387473167013
20
24.999999999999993
10
370.62387473167013
20
35
10
368.37387473167013
20
44.999999999999993
10
366.12387473167013
20
35
0
LWPOLYLINE
5
898
100
AcDbEntity
8
0
100
AcDbPolyline
90
4
70
1
43
0.0
10
358.87387473167018
20
24.999999999999993
10
361.12387473167018
20
35
10
358.87387473167024
20
44.999999999999993
10
356.62387473167018
20
35
0
LWPOLYLINE
5
899
100
AcDbEntity
8
0
100
AcDbPolyline
90
4
70
1
43
0.0
10
396.87387473167013
20
24.999999999999993
10
399.12387473167018
20
35
10
396.87387473167018
20
44.999999999999993
10
394.62387473167013
20
35
0
LWPOLYLINE
5
900
100
AcDbEntity
8
0
100
AcDbPolyline
90
4
70
1
43
0.0
10
377.87387473167018
20
-35.000000000000007
10
380.12387473167007
20
-25
10
377.87387473167018
20
-15.000000000000009
10
375.62387473167013
20
-25
0
LWPOLYLINE
5
901
100
AcDbEntity
8
0
100
AcDbPolyline
90
4
70
1
43
0.0
10
349.37387473167018
20
-35.000000000000007
10
351.62387473167018
20
-25
10
349.37387473167018
20
-15.000000000000009
10
347.12387473167018
20
-25
0
LWPOLYLINE
5
902
100
AcDbEntity
8
0
100
AcDbPolyline
90
4
70
1
43
0.0
10
415.87387473167013
20
24.999999999999993
10
418.12387473167007
20
35
10
415.87387473167013
20
44.999999999999993
10
413.62387473167013
20
35
0
LWPOLYLINE
5
903
100
AcDbEntity
8
0
100
AcDbPolyline
90
4
70
1
43
0.0
10
377.87387473167018
20
24.999999999999993
10
380.12387473167007
20
35
10
377.87387473167018
20
44.999999999999993
10
375.62387473167013
20
35
0
LWPOLYLINE
5
904
100
AcDbEntity
8
0
100
AcDbPolyline
90
4
70
1
43
0.0
10
358.87387473167018
20
-35.000000000000007
10
361.12387473167018
20
-25
10
358.87387473167024
20
-15.000000000000009
10
356.62387473167018
20
-25
0
LWPOLYLINE
5
905
100
AcDbEntity
8
0
100
AcDbPolyline
90
4
70
1
43
0.0
10
-109.37387473167028
20
25
10
-107.12387473167027
20
35
10
-109.37387473167028
20
45
10
-111.6238747316703
20
35
0
LWPOLYLINE
5
906
100
AcDbEntity
8
0
100
AcDbPolyline
90
4
70
1
43
0.0
10
-52.373874731670327
20
-35
10
-50.123874731670313
20
-25
10
-52.373874731670327
20
-15
10
-54.623874731670341
20
-25
0
LWPOLYLINE
5
907
100
AcDbEntity
8
0
100
AcDbPolyline
90
4
70
1
43
0.0
10
-71.373874731670313
20
-35
10
-69.123874731670298
20
-25
10
-71.373874731670313
20
-15
10
-73.623874731670327
20
-25
0
LWPOLYLINE
5
908
100
AcDbEntity
8
0
100
AcDbPolyline
90
4
70
1
43
0.0
10
-289.24774946333991
20
-25
10
-291.49774946333986
20
-15
10
-293.74774946333991
20
-25
10
-291.49774946333986
20
-35
0
LWPOLYLINE
5
909
100
AcDbEntity
8
0
100
AcDbPolyline
90
4
70
1
43
0.0
10
191.24999999999997
20
25
10
193.49999999999994
20
35
10
191.24999999999994
20
45
10
189
20
35
0
LWPOLYLINE
5
910
100
AcDbEntity
8
0
100
AcDbPolyline
90
4
70
1
43
0.0
10
115.24999999999999
20
-5
10
117.49999999999999
20
5
10
115.24999999999999
20
15
10
112.99999999999999
20
5
0
LWPOLYLINE
5
911
100
AcDbEntity
8
0
100
AcDbPolyline
90
4
70
1
43
0.0
10
-298.74774946333991
20
-25
10
-300.99774946333986
20
-15
10
-303.24774946333997
20
-25
10
-300.99774946333986
20
-35
0
LWPOLYLINE
5
912
100
AcDbEntity
8
0
100
AcDbPolyline
90
4
70
1
43
0.0
10
-308.24774946333997
20
-25
10
-310.49774946333991
20
-15
10
-312.74774946333997
20
-25
10
-310.49774946333991
20
-35
0
LWPOLYLINE
5
913
100
AcDbEntity
8
0
100
AcDbPolyline
90
4
70
1
43
0.0
10
115.24999999999999
20
-35
10
117.49999999999999
20
-25
10
115.24999999999999
20
-15
10
112.99999999999999
20
-25
0
LWPOLYLINE
5
914
100
AcDbEntity
8
0
100
AcDbPolyline
90
4
70
1
43
0.0
10
-327.24774946334003
20
5
10
-329.49774946333997
20
15
10
-331.74774946334003
20
5
10
-329.49774946333997
20
-5
0
LWPOLYLINE
5
915
100
AcDbEntity
8
0
100
AcDbPolyline
90
4
70
1
43
0.0
10
48.75
20
-5
10
51
20
5
10
48.749999999999993
20
15
10
46.5
20
5
0
LWPOLYLINE
5
916
100
AcDbEntity
8
0
100
AcDbPolyline
90
4
70
1
43
0.0
10
-308.24774946333997
20
5
10
-310.49774946333991
20
15
10
-312.74774946333997
20
5
10
-310.49774946333991
20
-5
0
LWPOLYLINE
5
917
100
AcDbEntity
8
0
100
AcDbPolyline
90
4
70
1
43
0.0
10
96.249999999999986
20
-5
10
98.499999999999972
20
5
10
96.249999999999972
20
15
10
93.999999999999986
20
5
0
LWPOLYLINE
5
918
100
AcDbEntity
8
0
100
AcDbPolyline
90
4
70
1
43
0.0
10
162.74999999999994
20
-35
10
164.99999999999997
20
-25
10
162.74999999999994
20
-15
10
160.49999999999997
20
-25
0
LWPOLYLINE
5
919
100
AcDbEntity
8
0
100
AcDbPolyline
90
4
70
1
43
0.0
10
172.24999999999997
20
-35
10
174.49999999999994
20
-25
10
172.24999999999994
20
-15
10
170
20
-25
0
LWPOLYLINE
5
920
100
AcDbEntity
8
0
100
AcDbPolyline
90
4
70
1
43
0.0
10
124.74999999999997
20
-35
10
126.99999999999997
20
-25
10
124.74999999999997
20
-15
10
122.49999999999999
20
-25
0
LWPOLYLINE
5
921
100
AcDbEntity
8
0
100
AcDbPolyline
90
4
70
1
43
0.0
10
67.749999999999986
20
-5
10
70
20
5
10
67.75
20
15
10
65.499999999999986
20
5
0
LWPOLYLINE
5
922
100
AcDbEntity
8
0
100
AcDbPolyline
90
4
70
1
43
0.0
10
48.75
20
25
10
51
20
35
10
48.749999999999993
20
45
10
46.5
20
35
0
LWPOLYLINE
5
923
100
AcDbEntity
8
0
100
AcDbPolyline
90
4
70
1
43
0.0
10
-118.87387473167027
20
-5
10
-116.62387473167027
20
5
10
-118.87387473167027
20
15
10
-121.1238747316703
20
5
0
LWPOLYLINE
5
924
100
AcDbEntity
8
0
100
AcDbPolyline
90
4
70
1
43
0.0
10
86.749999999999972
20
25
10
88.999999999999986
20
35
10
86.749999999999972
20
45
10
84.499999999999972
20
35
0
LWPOLYLINE
5
925
100
AcDbEntity
8
0
100
AcDbPolyline
90
4
70
1
43
0.0
10
-327.24774946334003
20
35
10
-329.49774946333997
20
45
10
-331.74774946334003
20
35
10
-329.49774946333997
20
25
0
LWPOLYLINE
5
926
100
AcDbEntity
8
0
100
AcDbPolyline
90
4
70
1
43
0.0
10
67.749999999999986
20
-35
10
70
20
-25
10
67.75
20
-15
10
65.499999999999986
20
-25
0
LWPOLYLINE
5
927
100
AcDbEntity
8
0
100
AcDbPolyline
90
4
70
1
43
0.0
10
-185.37387473167024
20
-35
10
-183.12387473167021
20
-25
10
-185.37387473167024
20
-15
10
-187.62387473167024
20
-25
0
LWPOLYLINE
5
928
100
AcDbEntity
8
0
100
AcDbPolyline
90
4
70
1
43
0.0
10
-175.87387473167024
20
-35
10
-173.62387473167021
20
-25
10
-175.87387473167024
20
-15
10
-178.12387473167024
20
-25
0
LWPOLYLINE
5
929
100
AcDbEntity
8
0
100
AcDbPolyline
90
4
70
1
43
0.0
10
105.75
20
-35
10
107.99999999999999
20
-25
10
105.75
20
-15
10
103.5
20
-25
0
LWPOLYLINE
5
930
100
AcDbEntity
8
0
100
AcDbPolyline
90
4
70
1
43
0.0
10
-71.373874731670313
20
-5
10
-69.123874731670298
20
5
10
-71.373874731670313
20
15
10
-73.623874731670327
20
5
0
LWPOLYLINE
5
931
100
AcDbEntity
8
0
100
AcDbPolyline
90
4
70
1
43
0.0
10
-137.87387473167027
20
25
10
-135.62387473167024
20
35
10
-137.87387473167027
20
45
10
-140.12387473167027
20
35
0
LWPOLYLINE
5
932
100
AcDbEntity
8
0
100
AcDbPolyline
90
4
70
1
43
0.0
10
-185.37387473167024
20
25
10
-183.12387473167021
20
35
10
-185.37387473167024
20
45
10
-187.62387473167024
20
35
0
LWPOLYLINE
5
933
100
AcDbEntity
8
0
100
AcDbPolyline
90
4
70
1
43
0.0
10
-99.873874731670298
20
-5
10
-97.62387473167027
20
5
10
-99.873874731670298
20
15
10
-102.1238747316703
20
5
0
LWPOLYLINE
5
934
100
AcDbEntity
8
0
100
AcDbPolyline
90
4
70
1
43
0.0
10
-33.373874731670341
20
25
10
-31.123874731670327
20
35
10
-33.373874731670341
20
45
10
-35.623874731670355
20
35
0
LWPOLYLINE
5
935
100
AcDbEntity
8
0
100
AcDbPolyline
90
4
70
1
43
0.0
10
-61.87387473167032
20
25
10
-59.623874731670305
20
35
10
-61.87387473167032
20
45
10
-64.123874731670327
20
35
0
LWPOLYLINE
5
936
100
AcDbEntity
8
0
100
AcDbPolyline
90
4
70
1
43
0.0
10
-128.37387473167027
20
-35
10
-126.12387473167026
20
-25
10
-128.37387473167027
20
-15
10
-130.6238747316703
20
-25
0
LWPOLYLINE
5
937
100
AcDbEntity
8
0
100
AcDbPolyline
90
4
70
1
43
0.0
10
263.87387473167024
20
-35.000000000000007
10
266.12387473167024
20
-25
10
263.87387473167024
20
-15.000000000000009
10
261.62387473167024
20
-25
0
LWPOLYLINE
5
938
100
AcDbEntity
8
0
100
AcDbPolyline
90
4
70
1
43
0.0
10
292.37387473167024
20
-5.0000000000000089
10
294.62387473167018
20
5
10
292.37387473167024
20
14.999999999999991
10
290.12387473167018
20
5
0
LWPOLYLINE
5
939
100
AcDbEntity
8
0
100
AcDbPolyline
90
4
70
1
43
0.0
10
320.87387473167018
20
-5.0000000000000089
10
323.12387473167018
20
5
10
320.8738747316703
20
14.999999999999991
10
318.62387473167018
20
5
0
LWPOLYLINE
5
940
100
AcDbEntity
8
0
100
AcDbPolyline
90
4
70
1
43
0.0
10
282.87387473167024
20
-5.0000000000000089
10
285.12387473167018
20
5
10
282.87387473167024
20
14.999999999999991
10
280.62387473167018
20
5
0
LWPOLYLINE
5
941
100
AcDbEntity
8
0
100
AcDbPolyline
90
4
70
1
43
0.0
10
-355.74774946334009
20
5
10
-357.99774946334003
20
15
10
-360.24774946334014
20
5
10
-357.99774946334003
20
-5
0
LWPOLYLINE
5
942
100
AcDbEntity
8
0
100
AcDbPolyline
90
4
70
1
43
0.0
10
263.87387473167024
20
24.999999999999993
10
266.12387473167024
20
35
10
263.87387473167024
20
44.999999999999993
10
261.62387473167024
20
35
0
LWPOLYLINE
5
943
100
AcDbEntity
8
0
100
AcDbPolyline
90
4
70
1
43
0.0
10
143.74999999999997
20
-5
10
145.99999999999997
20
5
10
143.74999999999997
20
15
10
141.49999999999997
20
5
0
LWPOLYLINE
5
944
100
AcDbEntity
8
0
100
AcDbPolyline
90
4
70
1
43
0.0
10
-355.74774946334009
20
35
10
-357.99774946334003
20
45
10
-360.24774946334014
20
35
10
-357.99774946334003
20
25
0
LWPOLYLINE
5
945
100
AcDbEntity
8
0
100
AcDbPolyline
90
4
70
1
43
0.0
10
-355.74774946334009
20
-25
10
-357.99774946334003
20
-15
10
-360.24774946334014
20
-25
10
-357.99774946334003
20
-35
0
LWPOLYLINE
5
946
100
AcDbEntity
8
0
100
AcDbPolyline
90
4
70
1
43
0.0
10
162.74999999999994
20
-5
10
164.99999999999997
20
5
10
162.74999999999994
20
15
10
160.49999999999997
20
5
0
LWPOLYLINE
5
947
100
AcDbEntity
8
0
100
AcDbPolyline
90
4
70
1
43
0.0
10
-403.24774946334026
20
5
10
-405.4977494633402
20
15
10
-407.74774946334026
20
5
10
-405.4977494633402
20
-5
0
LWPOLYLINE
5
948
100
AcDbEntity
8
0
100
AcDbPolyline
90
4
70
1
43
0.0
10
282.87387473167024
20
24.999999999999993
10
285.12387473167018
20
35
10
282.87387473167024
20
44.999999999999993
10
280.62387473167018
20
35
0
LWPOLYLINE
5
949
100
AcDbEntity
8
0
100
AcDbPolyline
90
4
70
1
43
0.0
10
292.37387473167024
20
24.999999999999993
10
294.62387473167018
20
35
10
292.37387473167024
20
44.999999999999993
10
290.12387473167018
20
35
0
LWPOLYLINE
5
950
100
AcDbEntity
8
0
100
AcDbPolyline
90
4
70
1
43
0.0
10
320.87387473167018
20
24.999999999999993
10
323.12387473167018
20
35
10
320.8738747316703
20
44.999999999999993
10
318.62387473167018
20
35
0
LWPOLYLINE
5
951
100
AcDbEntity
8
0
100
AcDbPolyline
90
4
70
1
43
0.0
10
311.37387473167018
20
-35.000000000000007
10
313.62387473167018
20
-25
10
311.37387473167018
20
-15.000000000000009
10
309.12387473167018
20
-25
0
LWPOLYLINE
5
952
100
AcDbEntity
8
0
100
AcDbPolyline
90
4
70
1
43
0.0
10
292.37387473167024
20
-35.000000000000007
10
294.62387473167018
20
-25
10
292.37387473167024
20
-15.000000000000009
10
290.12387473167018
20
-25
0
LWPOLYLINE
5
953
100
AcDbEntity
8
0
100
AcDbPolyline
90
4
70
1
43
0.0
10
134.24999999999997
20
-5
10
136.49999999999997
20
5
10
134.24999999999997
20
15
10
131.99999999999997
20
5
0
LWPOLYLINE
5
954
100
AcDbEntity
8
0
100
AcDbPolyline
90
4
70
1
43
0.0
10
-412.74774946334026
20
5
10
-414.9977494633402
20
15
10
-417.24774946334031
20
5
10
-414.9977494633402
20
-5
0
LWPOLYLINE
5
955
100
AcDbEntity
8
0
100
AcDbPolyline
90
4
70
1
43
0.0
10
124.74999999999997
20
-5
10
126.99999999999997
20
5
10
124.74999999999997
20
15
10
122.49999999999999
20
5
0
LWPOLYLINE
5
956
100
AcDbEntity
8
0
100
AcDbPolyline
90
4
70
1
43
0.0
10
320.87387473167018
20
-35.000000000000007
10
323.12387473167018
20
-25
10
320.8738747316703
20
-15.000000000000009
10
318.62387473167018
20
-25
0
LWPOLYLINE
5
957
100
AcDbEntity
8
0
100
AcDbPolyline
90
4
70
1
43
0.0
10
-346.24774946334009
20
-25
10
-348.49774946334003
20
-15
10
-350.74774946334009
20
-25
10
-348.49774946334003
20
-35
0
LWPOLYLINE
5
958
100
AcDbEntity
8
0
100
AcDbPolyline
90
4
70
1
43
0.0
10
330.37387473167018
20
-5.0000000000000089
10
332.62387473167018
20
5
10
330.37387473167018
20
14.999999999999991
10
328.12387473167013
20
5
0
LWPOLYLINE
5
959
100
AcDbEntity
8
0
100
AcDbPolyline
90
4
70
1
43
0.0
10
-414.9977494633402
20
45
10
-417.24774946334031
20
35
10
-414.9977494633402
20
25
10
-412.74774946334026
20
35
0
LWPOLYLINE
5
960
100
AcDbEntity
8
0
100
AcDbPolyline
90
4
70
1
43
0.0
10
-403.24774946334026
20
-25
10
-405.4977494633402
20
-15
10
-407.74774946334026
20
-25
10
-405.4977494633402
20
-35
0
LWPOLYLINE
5
961
100
AcDbEntity
8
0
100
AcDbPolyline
90
4
70
1
43
0.0
10
301.87387473167018
20
-5.0000000000000089
10
304.12387473167018
20
5
10
301.87387473167018
20
14.999999999999991
10
299.62387473167018
20
5
0
LWPOLYLINE
5
962
100
AcDbEntity
8
0
100
AcDbPolyline
90
4
70
1
43
0.0
10
-175.87387473167024
20
25
10
-173.62387473167021
20
35
10
-175.87387473167024
20
45
10
-178.12387473167024
20
35
0
LWPOLYLINE
5
963
100
AcDbEntity
8
0
100
AcDbPolyline
90
4
70
1
43
0.0
10
-166.37387473167024
20
25
10
-164.12387473167024
20
35
10
-166.37387473167024
20
45
10
-168.62387473167024
20
35
0
LWPOLYLINE
5
964
100
AcDbEntity
8
0
100
AcDbPolyline
90
4
70
1
43
0.0
10
-90.373874731670298
20
-5
10
-88.123874731670284
20
5
10
-90.373874731670298
20
15
10
-92.623874731670313
20
5
0
LWPOLYLINE
5
965
100
AcDbEntity
8
0
100
AcDbPolyline
90
4
70
1
43
0.0
10
-52.373874731670327
20
-5
10
-50.123874731670313
20
5
10
-52.373874731670327
20
15
10
-54.623874731670341
20
5
0
LWPOLYLINE
5
966
100
AcDbEntity
8
0
100
AcDbPolyline
90
4
70
1
43
0.0
10
-147.37387473167024
20
25
10
-145.12387473167024
20
35
10
-147.37387473167024
20
45
10
-149.62387473167027
20
35
0
LWPOLYLINE
5
967
100
AcDbEntity
8
0
100
AcDbPolyline
90
4
70
1
43
0.0
10
-128.37387473167027
20
25
10
-126.12387473167026
20
35
10
-128.37387473167027
20
45
10
-130.6238747316703
20
35
0
LWPOLYLINE
5
968
100
AcDbEntity
8
0
100
AcDbPolyline
90
4
70
1
43
0.0
10
39.25
20
25
10
41.5
20
35
10
39.25
20
45
10
37
20
35
0
LWPOLYLINE
5
969
100
AcDbEntity
8
0
100
AcDbPolyline
90
4
70
1
43
0.0
10
-156.87387473167024
20
-35
10
-154.62387473167024
20
-25
10
-156.87387473167024
20
-15
10
-159.12387473167027
20
-25
0
LWPOLYLINE
5
970
100
AcDbEntity
8
0
100
AcDbPolyline
90
4
70
1
43
0.0
10
-156.87387473167024
20
-5
10
-154.62387473167024
20
5
10
-156.87387473167024
20
15
10
-159.12387473167027
20
5
0
LWPOLYLINE
5
971
100
AcDbEntity
8
0
100
AcDbPolyline
90
4
70
1
43
0.0
10
67.749999999999986
20
25
10
70
20
35
10
67.75
20
45
10
65.499999999999986
20
35
0
LWPOLYLINE
5
972
100
AcDbEntity
8
0
100
AcDbPolyline
90
4
70
1
43
0.0
10
-336.74774946334003
20
35
10
-338.99774946333997
20
45
10
-341.24774946334009
20
35
10
-338.99774946333997
20
25
0
LWPOLYLINE
5
973
100
AcDbEntity
8
0
100
AcDbPolyline
90
4
70
1
43
0.0
10
58.249999999999993
20
25
10
60.5
20
35
10
58.249999999999993
20
45
10
56
20
35
0
LWPOLYLINE
5
974
100
AcDbEntity
8
0
100
AcDbPolyline
90
4
70
1
43
0.0
10
58.249999999999993
20
-35
10
60.5
20
-25
10
58.249999999999993
20
-15
10
56
20
-25
0
LWPOLYLINE
5
975
100
AcDbEntity
8
0
100
AcDbPolyline
90
4
70
1
43
0.0
10
105.75
20
25
10
107.99999999999999
20
35
10
105.75
20
45
10
103.5
20
35
0
LWPOLYLINE
5
976
100
AcDbEntity
8
0
100
AcDbPolyline
90
4
70
1
43
0.0
10
181.74999999999997
20
-35
10
184
20
-25
10
181.74999999999997
20
-15
10
179.49999999999994
20
-25
0
LWPOLYLINE
5
977
100
AcDbEntity
8
0
100
AcDbPolyline
90
4
70
1
43
0.0
10
-260.7477494633398
20
5
10
-262.99774946333974
20
15
10
-265.24774946333986
20
5
10
-262.99774946333974
20
-5
0
LWPOLYLINE
5
978
100
AcDbEntity
8
0
100
AcDbPolyline
90
4
70
1
43
0.0
10
39.25
20
-5
10
41.5
20
5
10
39.25
20
15
10
37
20
5
0
LWPOLYLINE
5
979
100
AcDbEntity
8
0
100
AcDbPolyline
90
4
70
1
43
0.0
10
191.24999999999997
20
-35
10
193.49999999999994
20
-25
10
191.24999999999994
20
-15
10
189
20
-25
0
LWPOLYLINE
5
980
100
AcDbEntity
8
0
100
AcDbPolyline
90
4
70
1
43
0.0
10
-298.74774946333991
20
5
10
-300.99774946333986
20
15
10
-303.24774946333997
20
5
10
-300.99774946333986
20
-5
0
LWPOLYLINE
5
981
100
AcDbEntity
8
0
100
AcDbPolyline
90
4
70
1
43
0.0
10
-289.24774946333991
20
35
10
-291.49774946333986
20
45
10
-293.74774946333991
20
35
10
-291.49774946333986
20
25
0
LWPOLYLINE
5
982
100
AcDbEntity
8
0
100
AcDbPolyline
90
4
70
1
43
0.0
10
-298.74774946333991
20
35
10
-300.99774946333986
20
45
10
-303.24774946333997
20
35
10
-300.99774946333986
20
25
0
LWPOLYLINE
5
983
100
AcDbEntity
8
0
100
AcDbPolyline
90
4
70
1
43
0.0
10
105.75
20
-5
10
107.99999999999999
20
5
10
105.75
20
15
10
103.5
20
5
0
LWPOLYLINE
5
984
100
AcDbEntity
8
0
100
AcDbPolyline
90
4
70
1
43
0.0
10
-279.74774946333986
20
-25
10
-281.9977494633398
20
-15
10
-284.24774946333991
20
-25
10
-281.9977494633398
20
-35
0
LWPOLYLINE
5
985
100
AcDbEntity
8
0
100
AcDbPolyline
90
4
70
1
43
0.0
10
153.24999999999994
20
25
10
155.49999999999997
20
35
10
153.24999999999994
20
45
10
150.99999999999997
20
35
0
LWPOLYLINE
5
986
100
AcDbEntity
8
0
100
AcDbPolyline
90
4
70
1
43
0.0
10
-393.7477494633402
20
35
10
-395.99774946334014
20
45
10
-398.24774946334026
20
35
10
-395.99774946334014
20
25
0
LWPOLYLINE
5
987
100
AcDbEntity
8
0
100
AcDbPolyline
90
4
70
1
43
0.0
10
143.74999999999997
20
25
10
145.99999999999997
20
35
10
143.74999999999997
20
45
10
141.49999999999997
20
35
0
LWPOLYLINE
5
988
100
AcDbEntity
8
0
100
AcDbPolyline
90
4
70
1
43
0.0
10
-336.74774946334003
20
-25
10
-338.99774946333997
20
-15
10
-341.24774946334009
20
-25
10
-338.99774946333997
20
-35
0
LWPOLYLINE
5
989
100
AcDbEntity
8
0
100
AcDbPolyline
90
4
70
1
43
0.0
10
124.74999999999997
20
25
10
126.99999999999997
20
35
10
124.74999999999997
20
45
10
122.49999999999999
20
35
0
LWPOLYLINE
5
990
100
AcDbEntity
8
0
100
AcDbPolyline
90
4
70
1
43
0.0
10
-80.873874731670298
20
-35
10
-78.623874731670298
20
-25
10
-80.873874731670298
20
-15
10
-83.123874731670327
20
-25
0
LWPOLYLINE
5
991
100
AcDbEntity
8
0
100
AcDbPolyline
90
4
70
1
43
0.0
10
-42.873874731670334
20
-35
10
-40.62387473167032
20
-25
10
-42.873874731670334
20
-15
10
-45.123874731670348
20
-25
0
LWPOLYLINE
5
992
100
AcDbEntity
8
0
100
AcDbPolyline
90
4
70
1
43
0.0
10
-109.37387473167028
20
-35
10
-107.12387473167027
20
-25
10
-109.37387473167028
20
-15
10
-111.6238747316703
20
-25
0
LWPOLYLINE
5
993
100
AcDbEntity
8
0
100
AcDbPolyline
90
4
70
1
43
0.0
10
377.87387473167018
20
-5.0000000000000089
10
380.12387473167007
20
5
10
377.87387473167018
20
14.999999999999991
10
375.62387473167013
20
5
0
LWPOLYLINE
5
994
100
AcDbEntity
8
0
100
AcDbPolyline
90
4
70
1
43
0.0
10
396.87387473167013
20
-35.000000000000007
10
399.12387473167018
20
-25
10
396.87387473167018
20
-15.000000000000009
10
394.62387473167013
20
-25
0
LWPOLYLINE
5
995
100
AcDbEntity
8
0
100
AcDbPolyline
90
4
70
1
43
0.0
10
339.87387473167018
20
-5.0000000000000089
10
342.12387473167013
20
5
10
339.87387473167018
20
14.999999999999991
10
337.62387473167018
20
5
0
LWPOLYLINE
5
996
100
AcDbEntity
8
0
100
AcDbPolyline
90
4
70
1
43
0.0
10
406.37387473167007
20
-5.0000000000000089
10
408.62387473167013
20
5
10
406.37387473167007
20
14.999999999999991
10
404.12387473167007
20
5
0
LWPOLYLINE
5
997
100
AcDbEntity
8
0
100
AcDbPolyline
90
4
70
1
43
0.0
10
387.37387473167018
20
-5.0000000000000089
10
389.62387473167013
20
5
10
387.37387473167018
20
14.999999999999991
10
385.12387473167018
20
5
0
LWPOLYLINE
5
998
100
AcDbEntity
8
0
100
AcDbPolyline
90
4
70
1
43
0.0
10
406.37387473167007
20
24.999999999999993
10
408.62387473167013
20
35
10
406.37387473167007
20
44.999999999999993
10
404.12387473167007
20
35
0
LWPOLYLINE
5
999
100
AcDbEntity
8
0
100
AcDbPolyline
90
4
70
1
43
0.0
10
339.87387473167018
20
24.999999999999993
10
342.12387473167013
20
35
10
339.87387473167018
20
44.999999999999993
10
337.62387473167018
20
35
0
LWPOLYLINE
5
1000
100
AcDbEntity
8
0
100
AcDbPolyline
90
4
70
1
43
0.0
10
325.62387473167018
20
10
10
327.87387473167018
20
20
10
325.62387473167018
20
29.999999999999993
10
323.3738747316703
20
20
0
LWPOLYLINE
5
1001
100
AcDbEntity
8
0
100
AcDbPolyline
90
4
70
1
43
0.0
10
259.12387473167024
20
-20
10
261.37387473167018
20
-10
10
259.12387473167024
20
-8.8817841970012523e-15
10
256.8738747316703
20
-10
0
LWPOLYLINE
5
1002
100
AcDbEntity
8
0
100
AcDbPolyline
90
4
70
1
43
0.0
10
268.62387473167024
20
-20
10
270.87387473167018
20
-10
10
268.62387473167024
20
-8.8817841970012523e-15
10
266.3738747316703
20
-10
0
LWPOLYLINE
5
1003
100
AcDbEntity
8
0
100
AcDbPolyline
90
4
70
1
43
0.0
10
158
20
10
10
160.25000000000003
20
20
10
158.00000000000003
20
30
10
155.75
20
20
0
LWPOLYLINE
5
1004
100
AcDbEntity
8
0
100
AcDbPolyline
90
4
70
1
43
0.0
10
297.12387473167018
20
10
10
299.37387473167013
20
20
10
297.12387473167018
20
29.999999999999993
10
294.87387473167024
20
20
0
LWPOLYLINE
5
1005
100
AcDbEntity
8
0
100
AcDbPolyline
90
4
70
1
43
0.0
10
186.50000000000003
20
10
10
188.75000000000003
20
20
10
186.50000000000006
20
30
10
184.25000000000006
20
20
0
LWPOLYLINE
5
1006
100
AcDbEntity
8
0
100
AcDbPolyline
90
4
70
1
43
0.0
10
158
20
-20
10
160.25000000000003
20
-10
10
158.00000000000003
20
0
10
155.75
20
-10
0
LWPOLYLINE
5
1007
100
AcDbEntity
8
0
100
AcDbPolyline
90
4
70
1
43
0.0
10
-369.99774946334003
20
20
10
-372.24774946334003
20
30
10
-374.49774946334003
20
20
10
-372.24774946334003
20
10
0
LWPOLYLINE
5
1008
100
AcDbEntity
8
0
100
AcDbPolyline
90
4
70
1
43
0.0
10
186.50000000000003
20
-20
10
188.75000000000003
20
-10
10
186.50000000000006
20
0
10
184.25000000000006
20
-10
0
LWPOLYLINE
5
1009
100
AcDbEntity
8
0
100
AcDbPolyline
90
4
70
1
43
0.0
10
129.50000000000003
20
10
10
131.75000000000003
20
20
10
129.5
20
30
10
127.25000000000003
20
20
0
LWPOLYLINE
5
1010
100
AcDbEntity
8
0
100
AcDbPolyline
90
4
70
1
43
0.0
10
167.50000000000003
20
-20
10
169.75
20
-10
10
167.5
20
0
10
165.25000000000006
20
-10
0
LWPOLYLINE
5
1011
100
AcDbEntity
8
0
100
AcDbPolyline
90
4
70
1
43
0.0
10
382.62387473167007
20
10
10
384.87387473167007
20
20
10
382.62387473167007
20
29.999999999999993
10
380.37387473167018
20
20
0
LWPOLYLINE
5
1012
100
AcDbEntity
8
0
100
AcDbPolyline
90
4
70
1
43
0.0
10
392.12387473167013
20
10
10
394.37387473167007
20
20
10
392.12387473167013
20
29.999999999999993
10
389.87387473167018
20
20
0
LWPOLYLINE
5
1013
100
AcDbEntity
8
0
100
AcDbPolyline
90
4
70
1
43
0.0
10
335.12387473167018
20
-20
10
337.37387473167013
20
-10
10
335.12387473167018
20
-8.8817841970012523e-15
10
332.87387473167024
20
-10
0
LWPOLYLINE
5
1014
100
AcDbEntity
8
0
100
AcDbPolyline
90
4
70
1
43
0.0
10
-331.99774946333991
20
20
10
-334.24774946333991
20
30
10
-336.49774946333991
20
20
10
-334.24774946333991
20
10
0
LWPOLYLINE
5
1015
100
AcDbEntity
8
0
100
AcDbPolyline
90
4
70
1
43
0.0
10
-312.9977494633398
20
20
10
-315.24774946333986
20
30
10
-317.49774946333986
20
20
10
-315.24774946333986
20
10
0
LWPOLYLINE
5
1016
100
AcDbEntity
8
0
100
AcDbPolyline
90
4
70
1
43
0.0
10
-171.12387473167024
20
-20.000000000000004
10
-168.87387473167024
20
-10
10
-171.12387473167024
20
1.7763568394002505e-14
10
-173.37387473167024
20
-10
0
LWPOLYLINE
5
1017
100
AcDbEntity
8
0
100
AcDbPolyline
90
4
70
1
43
0.0
10
-152.12387473167027
20
-20.000000000000004
10
-149.87387473167024
20
-10
10
-152.12387473167027
20
1.7763568394002505e-14
10
-154.37387473167024
20
-10
0
LWPOLYLINE
5
1018
100
AcDbEntity
8
0
100
AcDbPolyline
90
4
70
1
43
0.0
10
-76.123874731670327
20
9.9999999999999964
10
-73.873874731670313
20
20
10
-76.123874731670327
20
30.000000000000018
10
-78.373874731670298
20
20
0
LWPOLYLINE
5
1019
100
AcDbEntity
8
0
100
AcDbPolyline
90
4
70
1
43
0.0
10
-38.123874731670355
20
9.9999999999999964
10
-35.873874731670341
20
20
10
-38.123874731670355
20
30.000000000000018
10
-40.373874731670334
20
20
0
LWPOLYLINE
5
1020
100
AcDbEntity
8
0
100
AcDbPolyline
90
4
70
1
43
0.0
10
-95.123874731670313
20
9.9999999999999964
10
-92.873874731670298
20
20
10
-95.123874731670313
20
30.000000000000018
10
-97.373874731670298
20
20
0
LWPOLYLINE
5
1021
100
AcDbEntity
8
0
100
AcDbPolyline
90
4
70
1
43
0.0
10
-66.623874731670327
20
9.9999999999999964
10
-64.373874731670327
20
20
10
-66.623874731670327
20
30.000000000000018
10
-68.873874731670313
20
20
0
LWPOLYLINE
5
1022
100
AcDbEntity
8
0
100
AcDbPolyline
90
4
70
1
43
0.0
10
110.5
20
10
10
112.75000000000003
20
20
10
110.50000000000003
20
30
10
108.25000000000001
20
20
0
LWPOLYLINE
5
1023
100
AcDbEntity
8
0
100
AcDbPolyline
90
4
70
1
43
0.0
10
-407.99774946334014
20
20
10
-410.24774946334014
20
30
10
-412.49774946334014
20
20
10
-410.24774946334014
20
10
0
LWPOLYLINE
5
1024
100
AcDbEntity
8
0
100
AcDbPolyline
90
4
70
1
43
0.0
10
34.5
20
-20
10
36.75
20
-10
10
34.5
20
0
10
32.250000000000007
20
-10
0
LWPOLYLINE
5
1025
100
AcDbEntity
8
0
100
AcDbPolyline
90
4
70
1
43
0.0
10
-265.49774946333969
20
-10
10
-267.74774946333969
20
0
10
-269.99774946333969
20
-10
10
-267.74774946333969
20
-20
0
LWPOLYLINE
5
1026
100
AcDbEntity
8
0
100
AcDbPolyline
90
4
70
1
43
0.0
10
-331.99774946333991
20
-10
10
-334.24774946333991
20
0
10
-336.49774946333991
20
-10
10
-334.24774946333991
20
-20
0
LWPOLYLINE
5
1027
100
AcDbEntity
8
0
100
AcDbPolyline
90
4
70
1
43
0.0
10
34.5
20
10
10
36.75
20
20
10
34.5
20
30
10
32.250000000000007
20
20
0
LWPOLYLINE
5
1028
100
AcDbEntity
8
0
100
AcDbPolyline
90
4
70
1
43
0.0
10
110.5
20
-20
10
112.75000000000003
20
-10
10
110.50000000000003
20
0
10
108.25000000000001
20
-10
0
LWPOLYLINE
5
1029
100
AcDbEntity
8
0
100
AcDbPolyline
90
4
70
1
43
0.0
10
-293.9977494633398
20
-10
10
-296.2477494633398
20
0
10
-298.4977494633398
20
-10
10
-296.2477494633398
20
-20
0
LWPOLYLINE
5
1030
100
AcDbEntity
8
0
100
AcDbPolyline
90
4
70
1
43
0.0
10
63.000000000000007
20
10
10
65.25
20
20
10
63.000000000000007
20
30
10
60.750000000000014
20
20
0
LWPOLYLINE
5
1031
100
AcDbEntity
8
0
100
AcDbPolyline
90
4
70
1
43
0.0
10
-388.99774946334003
20
20
10
-391.24774946334009
20
30
10
-393.49774946334009
20
20
10
-391.24774946334009
20
10
0
LWPOLYLINE
5
1032
100
AcDbEntity
8
0
100
AcDbPolyline
90
4
70
1
43
0.0
10
-322.49774946333986
20
-10
10
-324.74774946333986
20
0
10
-326.99774946333991
20
-10
10
-324.74774946333986
20
-20
0
LWPOLYLINE
5
1033
100
AcDbEntity
8
0
100
AcDbPolyline
90
4
70
1
43
0.0
10
-274.99774946333969
20
-10
10
-277.24774946333974
20
0
10
-279.49774946333974
20
-10
10
-277.24774946333974
20
-20
0
LWPOLYLINE
5
1034
100
AcDbEntity
8
0
100
AcDbPolyline
90
4
70
1
43
0.0
10
-274.99774946333969
20
20
10
-277.24774946333974
20
30
10
-279.49774946333974
20
20
10
-277.24774946333974
20
10
0
LWPOLYLINE
5
1035
100
AcDbEntity
8
0
100
AcDbPolyline
90
4
70
1
43
0.0
10
44
20
10
10
46.25
20
20
10
44
20
30
10
41.750000000000007
20
20
0
LWPOLYLINE
5
1036
100
AcDbEntity
8
0
100
AcDbPolyline
90
4
70
1
43
0.0
10
72.500000000000014
20
10
10
74.750000000000014
20
20
10
72.500000000000014
20
30
10
70.250000000000014
20
20
0
LWPOLYLINE
5
1037
100
AcDbEntity
8
0
100
AcDbPolyline
90
4
70
1
43
0.0
10
101.00000000000001
20
-20
10
103.25000000000001
20
-10
10
101.00000000000001
20
0
10
98.750000000000014
20
-10
0
LWPOLYLINE
5
1038
100
AcDbEntity
8
0
100
AcDbPolyline
90
4
70
1
43
0.0
10
-417.49774946334014
20
20
10
-419.74774946334014
20
30
10
-421.99774946334014
20
20
10
-419.74774946334014
20
10
0
LWPOLYLINE
5
1039
100
AcDbEntity
8
0
100
AcDbPolyline
90
4
70
1
43
0.0
10
-104.6238747316703
20
-20.000000000000004
10
-102.3738747316703
20
-10
10
-104.6238747316703
20
1.7763568394002505e-14
10
-106.87387473167028
20
-10
0
LWPOLYLINE
5
1040
100
AcDbEntity
8
0
100
AcDbPolyline
90
4
70
1
43
0.0
10
-85.623874731670327
20
9.9999999999999964
10
-83.373874731670298
20
20
10
-85.623874731670327
20
30.000000000000018
10
-87.873874731670298
20
20
0
LWPOLYLINE
5
1041
100
AcDbEntity
8
0
100
AcDbPolyline
90
4
70
1
43
0.0
10
-95.123874731670313
20
-20.000000000000004
10
-92.873874731670298
20
-10
10
-95.123874731670313
20
1.7763568394002505e-14
10
-97.373874731670298
20
-10
0
LWPOLYLINE
5
1042
100
AcDbEntity
8
0
100
AcDbPolyline
90
4
70
1
43
0.0
10
-47.623874731670348
20
9.9999999999999964
10
-45.373874731670334
20
20
10
-47.623874731670348
20
30.000000000000018
10
-49.873874731670327
20
20
0
LWPOLYLINE
5
1043
100
AcDbEntity
8
0
100
AcDbPolyline
90
4
70
1
43
0.0
10
-180.62387473167024
20
9.9999999999999964
10
-178.37387473167024
20
20
10
-180.62387473167024
20
30.000000000000018
10
-182.87387473167024
20
20
0
LWPOLYLINE
5
1044
100
AcDbEntity
8
0
100
AcDbPolyline
90
4
70
1
43
0.0
10
-142.62387473167027
20
9.9999999999999964
10
-140.37387473167027
20
20
10
-142.62387473167027
20
30.000000000000018
10
-144.87387473167024
20
20
0
LWPOLYLINE
5
1045
100
AcDbEntity
8
0
100
AcDbPolyline
90
4
70
1
43
0.0
10
-133.1238747316703
20
9.9999999999999964
10
-130.87387473167027
20
20
10
-133.1238747316703
20
30.000000000000018
10
-135.37387473167027
20
20
0
LWPOLYLINE
5
1046
100
AcDbEntity
8
0
100
AcDbPolyline
90
4
70
1
43
0.0
10
-123.6238747316703
20
9.9999999999999964
10
-121.37387473167027
20
20
10
-123.6238747316703
20
30.000000000000018
10
-125.87387473167027
20
20
0
LWPOLYLINE
5
1047
100
AcDbEntity
8
0
100
AcDbPolyline
90
4
70
1
43
0.0
10
-123.6238747316703
20
-20.000000000000004
10
-121.37387473167027
20
-10
10
-123.6238747316703
20
1.7763568394002505e-14
10
-125.87387473167027
20
-10
0
LWPOLYLINE
5
1048
100
AcDbEntity
8
0
100
AcDbPolyline
90
4
70
1
43
0.0
10
-293.9977494633398
20
20
10
-296.2477494633398
20
30
10
-298.4977494633398
20
20
10
-296.2477494633398
20
10
0
LWPOLYLINE
5
1049
100
AcDbEntity
8
0
100
AcDbPolyline
90
4
70
1
43
0.0
10
-284.49774946333974
20
20
10
-286.74774946333974
20
30
10
-288.9977494633398
20
20
10
-286.74774946333974
20
10
0
LWPOLYLINE
5
1050
100
AcDbEntity
8
0
100
AcDbPolyline
90
4
70
1
43
0.0
10
344.62387473167013
20
10
10
346.87387473167007
20
20
10
344.62387473167013
20
29.999999999999993
10
342.37387473167018
20
20
0
LWPOLYLINE
5
1051
100
AcDbEntity
8
0
100
AcDbPolyline
90
4
70
1
43
0.0
10
363.62387473167018
20
-20
10
365.87387473167013
20
-10
10
363.62387473167018
20
-8.8817841970012523e-15
10
361.37387473167024
20
-10
0
LWPOLYLINE
5
1052
100
AcDbEntity
8
0
100
AcDbPolyline
90
4
70
1
43
0.0
10
354.12387473167018
20
10
10
356.37387473167007
20
20
10
354.12387473167018
20
29.999999999999993
10
351.87387473167018
20
20
0
LWPOLYLINE
5
1053
100
AcDbEntity
8
0
100
AcDbPolyline
90
4
70
1
43
0.0
10
335.12387473167018
20
10
10
337.37387473167013
20
20
10
335.12387473167018
20
29.999999999999993
10
332.87387473167024
20
20
0
LWPOLYLINE
5
1054
100
AcDbEntity
8
0
100
AcDbPolyline
90
4
70
1
43
0.0
10
401.62387473167018
20
-20
10
403.87387473167007
20
-10
10
401.62387473167018
20
-8.8817841970012523e-15
10
399.37387473167018
20
-10
0
LWPOLYLINE
5
1055
100
AcDbEntity
8
0
100
AcDbPolyline
90
4
70
1
43
0.0
10
411.12387473167013
20
10
10
413.37387473167007
20
20
10
411.12387473167013
20
29.999999999999993
10
408.87387473167018
20
20
0
LWPOLYLINE
5
1056
100
AcDbEntity
8
0
100
AcDbPolyline
90
4
70
1
43
0.0
10
-350.99774946333991
20
-10
10
-353.24774946333997
20
0
10
-355.49774946333997
20
-10
10
-353.24774946333997
20
-20
0
LWPOLYLINE
5
1057
100
AcDbEntity
8
0
100
AcDbPolyline
90
4
70
1
43
0.0
10
139.00000000000003
20
-20
10
141.25000000000003
20
-10
10
139.00000000000003
20
0
10
136.75000000000003
20
-10
0
LWPOLYLINE
5
1058
100
AcDbEntity
8
0
100
AcDbPolyline
90
4
70
1
43
0.0
10
148.5
20
10
10
150.75000000000003
20
20
10
148.50000000000003
20
30
10
146.25000000000003
20
20
0
LWPOLYLINE
5
1059
100
AcDbEntity
8
0
100
AcDbPolyline
90
4
70
1
43
0.0
10
177.00000000000003
20
-20
10
179.25000000000006
20
-10
10
177.00000000000003
20
0
10
174.75
20
-10
0
LWPOLYLINE
5
1060
100
AcDbEntity
8
0
100
AcDbPolyline
90
4
70
1
43
0.0
10
-369.99774946334003
20
-10
10
-372.24774946334003
20
0
10
-374.49774946334003
20
-10
10
-372.24774946334003
20
-20
0
LWPOLYLINE
5
1061
100
AcDbEntity
8
0
100
AcDbPolyline
90
4
70
1
43
0.0
10
-407.99774946334014
20
-10
10
-410.24774946334014
20
0
10
-412.49774946334014
20
-10
10
-410.24774946334014
20
-20
0
LWPOLYLINE
5
1062
100
AcDbEntity
8
0
100
AcDbPolyline
90
4
70
1
43
0.0
10
-388.99774946334003
20
-10
10
-391.24774946334009
20
0
10
-393.49774946334009
20
-10
10
-391.24774946334009
20
-20
0
LWPOLYLINE
5
1063
100
AcDbEntity
8
0
100
AcDbPolyline
90
4
70
1
43
0.0
10
120
20
10
10
122.25000000000001
20
20
10
120.00000000000001
20
30
10
117.75
20
20
0
LWPOLYLINE
5
1064
100
AcDbEntity
8
0
100
AcDbPolyline
90
4
70
1
43
0.0
10
259.12387473167024
20
10
10
261.37387473167018
20
20
10
259.12387473167024
20
29.999999999999993
10
256.8738747316703
20
20
0
LWPOLYLINE
5
1065
100
AcDbEntity
8
0
100
AcDbPolyline
90
4
70
1
43
0.0
10
325.62387473167018
20
-20
10
327.87387473167018
20
-10
10
325.62387473167018
20
-8.8817841970012523e-15
10
323.3738747316703
20
-10
0
LWPOLYLINE
5
1066
100
AcDbEntity
8
0
100
AcDbPolyline
90
4
70
1
43
0.0
10
278.12387473167018
20
10
10
280.37387473167018
20
20
10
278.12387473167018
20
29.999999999999993
10
275.8738747316703
20
20
0
LWPOLYLINE
5
1067
100
AcDbEntity
8
0
100
AcDbPolyline
90
4
70
1
43
0.0
10
297.12387473167018
20
-20
10
299.37387473167013
20
-10
10
297.12387473167018
20
-8.8817841970012523e-15
10
294.87387473167024
20
-10
0
ENDSEC
0
SECTION
2
OBJECTS
0
DICTIONARY
5
C
100
AcDbDictionary
3
ACAD_GROUP
350
D
3
ACAD_MLINESTYLE
350
17
0
DICTIONARY
5
D
100
AcDbDictionary
0
DICTIONARY
5
1A
330
C
100
AcDbDictionary
0
DICTIONARY
5
17
100
AcDbDictionary
0
ENDSEC
0
EOF
