0
SECTION
2
HEADER
9
$INSUNITS
70
4
9
$ACADVER
1
AC1014
9
$HANDSEED
5
FFFF
0
ENDSEC
0
SECTION
2
TABLES
0
TABLE
2
VPORT
5
8
100
AcDbSymbolTable
0
ENDTAB
0
TABLE
2
LTYPE
5
5
100
AcDbSymbolTable
0
LTYPE
5
14
100
AcDbSymbolTableRecord
100
AcDbLinetypeTableRecord
2
BYBLOCK
70
0
0
LTYPE
5
15
100
AcDbSymbolTableRecord
100
AcDbLinetypeTableRecord
2
BYLAYER
70
0
0
ENDTAB
0
TABLE
2
LAYER
5
2
100
AcDbSymbolTable
70
2
0
LAYER
5
50
100
AcDbSymbolTableRecord
100
AcDbLayerTableRecord
2
0
70
0
6
CONTINUOUS
0
ENDTAB
0
TABLE
2
STYLE
5
3
100
AcDbSymbolTable
70
1
0
STYLE
5
11
100
AcDbSymbolTableRecord
100
AcDbTextStyleTableRecord
2
STANDARD
70
0
0
ENDTAB
0
TABLE
2
VIEW
5
6
100
AcDbSymbolTable
70
0
0
ENDTAB
0
TABLE
2
UCS
5
7
100
AcDbSymbolTable
70
0
0
ENDTAB
0
TABLE
2
APPID
5
9
100
AcDbSymbolTable
70
2
0
APPID
5
12
100
AcDbSymbolTableRecord
100
AcDbRegAppTableRecord
2
ACAD
70
0
0
ENDTAB
0
TABLE
2
DIMSTYLE
5
A
100
AcDbSymbolTable
70
1
0
ENDTAB
0
TABLE
2
BLOCK_RECORD
5
1
100
AcDbSymbolTable
70
1
0
BLOCK_RECORD
5
1F
100
AcDbSymbolTableRecord
100
AcDbBlockTableRecord
2
*MODEL_SPACE
0
BLOCK_RECORD
5
1B
100
AcDbSymbolTableRecord
100
AcDbBlockTableRecord
2
*PAPER_SPACE
0
ENDTAB
0
ENDSEC
0
SECTION
2
BLOCKS
0
BLOCK
5
20
100
AcDbEntity
100
AcDbBlockBegin
2
*MODEL_SPACE
0
ENDBLK
5
21
100
AcDbEntity
100
AcDbBlockEnd
0
BLOCK
5
1C
100
AcDbEntity
100
AcDbBlockBegin
2
*PAPER_SPACE
0
ENDBLK
5
1D
100
AcDbEntity
100
AcDbBlockEnd
0
ENDSEC
0
SECTION
2
ENTITIES
0
LWPOLYLINE
5
100
100
AcDbEntity
8
0
100
AcDbPolyline
90
4
70
1
43
0.0
10
234.62387473167018
20
-19.999999999999996
10
234.62387473167024
20
-10
10
214.62387473167018
20
-10
10
214.62387473167018
20
-19.999999999999993
0
LWPOLYLINE
5
101
100
AcDbEntity
8
0
100
AcDbPolyline
90
4
70
1
43
0.0
10
-234.62387473167018
20
-20
10
-214.62387473167018
20
-19.999999999999996
10
-214.62387473167018
20
-10
10
-234.62387473167024
20
-10
0
LWPOLYLINE
5
102
100
AcDbEntity
8
0
100
AcDbPolyline
90
4
70
1
43
0.0
10
-395.99774946334043
20
-85
10
-393.74774946334037
20
-75
10
-395.99774946334043
20
-65
10
-398.24774946334037
20
-75
0
LWPOLYLINE
5
103
100
AcDbEntity
8
0
100
AcDbPolyline
90
4
70
1
43
0.0
10
-414.99774946334048
20
-55
10
-412.74774946334043
20
-45
10
-414.99774946334048
20
-34.999999999999993
10
-417.24774946334043
20
-45
0
LWPOLYLINE
5
104
100
AcDbEntity
8
0
100
AcDbPolyline
90
4
70
1
43
0.0
10
-272.49774946334009
20
-55
10
-270.24774946333997
20
-45
10
-272.49774946334009
20
-34.999999999999993
10
-274.74774946334003
20
-45
0
LWPOLYLINE
5
105
100
AcDbEntity
8
0
100
AcDbPolyline
90
4
70
1
43
0.0
10
-376.99774946334037
20
-24.999999999999996
10
-374.74774946334031
20
-15
10
-376.99774946334037
20
-4.9999999999999956
10
-379.24774946334031
20
-15
0
LWPOLYLINE
5
106
100
AcDbEntity
8
0
100
AcDbPolyline
90
4
70
1
43
0.0
10
-414.99774946334048
20
-85
10
-412.74774946334043
20
-75
10
-414.99774946334048
20
-65
10
-417.24774946334043
20
-75
0
LWPOLYLINE
5
107
100
AcDbEntity
8
0
100
AcDbPolyline
90
4
70
1
43
0.0
10
-417.24774946334043
20
-15
10
-414.99774946334048
20
-24.999999999999996
10
-412.74774946334043
20
-15
10
-414.99774946334048
20
-4.9999999999999956
0
LWPOLYLINE
5
108
100
AcDbEntity
8
0
100
AcDbPolyline
90
4
70
1
43
0.0
10
-319.9977494633402
20
-55
10
-317.74774946334014
20
-45
10
-319.9977494633402
20
-34.999999999999993
10
-322.24774946334014
20
-45
0
LWPOLYLINE
5
109
100
AcDbEntity
8
0
100
AcDbPolyline
90
4
70
1
43
0.0
10
-329.49774946334026
20
-55
10
-327.24774946334014
20
-45
10
-329.49774946334026
20
-34.999999999999993
10
-331.7477494633402
20
-45
0
LWPOLYLINE
5
110
100
AcDbEntity
8
0
100
AcDbPolyline
90
4
70
1
43
0.0
10
-300.99774946334014
20
-24.999999999999996
10
-298.74774946334009
20
-15
10
-300.99774946334014
20
-4.9999999999999956
10
-303.24774946334009
20
-15
0
LWPOLYLINE
5
111
100
AcDbEntity
8
0
100
AcDbPolyline
90
4
70
1
43
0.0
10
-291.49774946334014
20
-24.999999999999996
10
-289.24774946334003
20
-15
10
-291.49774946334014
20
-4.9999999999999956
10
-293.74774946334009
20
-15
0
LWPOLYLINE
5
112
100
AcDbEntity
8
0
100
AcDbPolyline
90
4
70
1
43
0.0
10
-83.123874731670355
20
-15
10
-80.873874731670298
20
-25
10
-78.623874731670256
20
-15
10
-80.873874731670298
20
-5
0
LWPOLYLINE
5
113
100
AcDbEntity
8
0
100
AcDbPolyline
90
4
70
1
43
0.0
10
-45.123874731670384
20
-15
10
-42.873874731670334
20
-25
10
-40.623874731670284
20
-15
10
-42.873874731670334
20
-5
0
LWPOLYLINE
5
114
100
AcDbEntity
8
0
100
AcDbPolyline
90
4
70
1
43
0.0
10
-149.6238747316703
20
-75
10
-147.37387473167024
20
-85
10
-145.12387473167021
20
-75
10
-147.37387473167024
20
-65
0
LWPOLYLINE
5
115
100
AcDbEntity
8
0
100
AcDbPolyline
90
4
70
1
43
0.0
10
-121.12387473167033
20
-15
10
-118.87387473167027
20
-25
10
-116.62387473167023
20
-15
10
-118.87387473167027
20
-5
0
LWPOLYLINE
5
116
100
AcDbEntity
8
0
100
AcDbPolyline
90
4
70
1
43
0.0
10
-140.1238747316703
20
-75
10
-137.87387473167027
20
-85
10
-135.62387473167021
20
-75
10
-137.87387473167027
20
-65
0
LWPOLYLINE
5
117
100
AcDbEntity
8
0
100
AcDbPolyline
90
4
70
1
43
0.0
10
-187.62387473167027
20
-75
10
-185.37387473167024
20
-85
10
-183.12387473167018
20
-75
10
-185.37387473167024
20
-65
0
LWPOLYLINE
5
118
100
AcDbEntity
8
0
100
AcDbPolyline
90
4
70
1
43
0.0
10
-102.12387473167034
20
-15
10
-99.873874731670298
20
-25
10
-97.623874731670242
20
-15
10
-99.873874731670298
20
-5
0
LWPOLYLINE
5
119
100
AcDbEntity
8
0
100
AcDbPolyline
90
4
70
1
43
0.0
10
-140.1238747316703
20
-15
10
-137.87387473167027
20
-25
10
-135.62387473167021
20
-15
10
-137.87387473167027
20
-5
0
LWPOLYLINE
5
120
100
AcDbEntity
8
0
100
AcDbPolyline
90
4
70
1
43
0.0
10
-130.62387473167033
20
-45
10
-128.37387473167027
20
-55
10
-126.12387473167021
20
-45
10
-128.37387473167027
20
-35
0
LWPOLYLINE
5
121
100
AcDbEntity
8
0
100
AcDbPolyline
90
4
70
1
43
0.0
10
-92.623874731670355
20
-45
10
-90.373874731670298
20
-55
10
-88.123874731670242
20
-45
10
-90.373874731670298
20
-35
0
LWPOLYLINE
5
122
100
AcDbEntity
8
0
100
AcDbPolyline
90
4
70
1
43
0.0
10
-92.623874731670355
20
-15
10
-90.373874731670298
20
-25
10
-88.123874731670242
20
-15
10
-90.373874731670298
20
-5
0
LWPOLYLINE
5
123
100
AcDbEntity
8
0
100
AcDbPolyline
90
4
70
1
43
0.0
10
-130.62387473167033
20
-75
10
-128.37387473167027
20
-85
10
-126.12387473167021
20
-75
10
-128.37387473167027
20
-65
0
LWPOLYLINE
5
124
100
AcDbEntity
8
0
100
AcDbPolyline
90
4
70
1
43
0.0
10
263.87387473167024
20
-25
10
266.12387473167024
20
-15
10
263.87387473167024
20
-5.0000000000000044
10
261.62387473167024
20
-15
0
LWPOLYLINE
5
125
100
AcDbEntity
8
0
100
AcDbPolyline
90
4
70
1
43
0.0
10
189.00000000000006
20
-15
10
191.25000000000003
20
-25
10
193.5
20
-15
10
191.25
20
-5
0
LWPOLYLINE
5
126
100
AcDbEntity
8
0
100
AcDbPolyline
90
4
70
1
43
0.0
10
141.50000000000003
20
-15
10
143.75000000000003
20
-25
10
146.00000000000003
20
-15
10
143.75000000000003
20
-5
0
LWPOLYLINE
5
127
100
AcDbEntity
8
0
100
AcDbPolyline
90
4
70
1
43
0.0
10
179.50000000000003
20
-15
10
181.75000000000006
20
-25
10
184.00000000000006
20
-15
10
181.75000000000006
20
-5
0
LWPOLYLINE
5
128
100
AcDbEntity
8
0
100
AcDbPolyline
90
4
70
1
43
0.0
10
160.50000000000006
20
-15
10
162.75000000000003
20
-25
10
165
20
-15
10
162.75
20
-5
0
LWPOLYLINE
5
129
100
AcDbEntity
8
0
100
AcDbPolyline
90
4
70
1
43
0.0
10
347.1238747316703
20
-45
10
349.37387473167018
20
-55
10
351.62387473167018
20
-45
10
349.37387473167018
20
-35.000000000000007
0
LWPOLYLINE
5
130
100
AcDbEntity
8
0
100
AcDbPolyline
90
4
70
1
43
0.0
10
366.12387473167018
20
-45
10
368.37387473167013
20
-55
10
370.62387473167018
20
-45
10
368.37387473167013
20
-35.000000000000007
0
LWPOLYLINE
5
131
100
AcDbEntity
8
0
100
AcDbPolyline
90
4
70
1
43
0.0
10
385.12387473167024
20
-45
10
387.37387473167018
20
-55
10
389.62387473167013
20
-45
10
387.37387473167018
20
-35.000000000000007
0
LWPOLYLINE
5
132
100
AcDbEntity
8
0
100
AcDbPolyline
90
4
70
1
43
0.0
10
290.12387473167024
20
-45
10
292.37387473167024
20
-55
10
294.62387473167024
20
-45
10
292.37387473167024
20
-35.000000000000007
0
LWPOLYLINE
5
133
100
AcDbEntity
8
0
100
AcDbPolyline
90
4
70
1
43
0.0
10
271.12387473167024
20
-75
10
273.37387473167024
20
-85
10
275.62387473167024
20
-75
10
273.37387473167024
20
-65
0
LWPOLYLINE
5
134
100
AcDbEntity
8
0
100
AcDbPolyline
90
4
70
1
43
0.0
10
280.62387473167024
20
-75
10
282.87387473167024
20
-85
10
285.12387473167024
20
-75
10
282.87387473167024
20
-65
0
LWPOLYLINE
5
135
100
AcDbEntity
8
0
100
AcDbPolyline
90
4
70
1
43
0.0
10
309.12387473167024
20
-45
10
311.37387473167018
20
-55
10
313.62387473167024
20
-45
10
311.37387473167018
20
-35.000000000000007
0
LWPOLYLINE
5
136
100
AcDbEntity
8
0
100
AcDbPolyline
90
4
70
1
43
0.0
10
404.12387473167018
20
-75
10
406.37387473167007
20
-85
10
408.62387473167018
20
-75
10
406.37387473167007
20
-65
0
LWPOLYLINE
5
137
100
AcDbEntity
8
0
100
AcDbPolyline
90
4
70
1
43
0.0
10
-35.623874731670391
20
-45
10
-33.373874731670341
20
-55
10
-31.123874731670291
20
-45
10
-33.373874731670341
20
-35
0
LWPOLYLINE
5
138
100
AcDbEntity
8
0
100
AcDbPolyline
90
4
70
1
43
0.0
10
-102.12387473167034
20
-75
10
-99.873874731670298
20
-85
10
-97.623874731670242
20
-75
10
-99.873874731670298
20
-65
0
LWPOLYLINE
5
139
100
AcDbEntity
8
0
100
AcDbPolyline
90
4
70
1
43
0.0
10
-73.623874731670355
20
-75
10
-71.373874731670313
20
-85
10
-69.12387473167027
20
-75
10
-71.373874731670313
20
-65
0
LWPOLYLINE
5
140
100
AcDbEntity
8
0
100
AcDbPolyline
90
4
70
1
43
0.0
10
39.25
20
-25
10
41.5
20
-15
10
39.25
20
-5
10
37
20
-15
0
LWPOLYLINE
5
141
100
AcDbEntity
8
0
100
AcDbPolyline
90
4
70
1
43
0.0
10
103.50000000000001
20
-75
10
105.75000000000001
20
-85
10
108
20
-75
10
105.75000000000001
20
-65
0
LWPOLYLINE
5
142
100
AcDbEntity
8
0
100
AcDbPolyline
90
4
70
1
43
0.0
10
160.50000000000006
20
-45
10
162.75000000000003
20
-55
10
165
20
-45
10
162.75
20
-35
0
LWPOLYLINE
5
143
100
AcDbEntity
8
0
100
AcDbPolyline
90
4
70
1
43
0.0
10
179.50000000000003
20
-75
10
181.75000000000006
20
-85
10
184.00000000000006
20
-75
10
181.75000000000006
20
-65
0
LWPOLYLINE
5
144
100
AcDbEntity
8
0
100
AcDbPolyline
90
4
70
1
43
0.0
10
56.000000000000007
20
-45
10
58.25
20
-55
10
60.500000000000007
20
-45
10
58.25
20
-35
0
LWPOLYLINE
5
145
100
AcDbEntity
8
0
100
AcDbPolyline
90
4
70
1
43
0.0
10
56.000000000000007
20
-15
10
58.25
20
-25
10
60.500000000000007
20
-15
10
58.25
20
-5
0
LWPOLYLINE
5
146
100
AcDbEntity
8
0
100
AcDbPolyline
90
4
70
1
43
0.0
10
75.000000000000014
20
-45
10
77.25
20
-55
10
79.500000000000014
20
-45
10
77.25
20
-35
0
LWPOLYLINE
5
147
100
AcDbEntity
8
0
100
AcDbPolyline
90
4
70
1
43
0.0
10
75.000000000000014
20
-15
10
77.25
20
-25
10
79.500000000000014
20
-15
10
77.25
20
-5
0
LWPOLYLINE
5
148
100
AcDbEntity
8
0
100
AcDbPolyline
90
4
70
1
43
0.0
10
46.5
20
-45
10
48.75
20
-55
10
51.000000000000007
20
-45
10
48.75
20
-35
0
LWPOLYLINE
5
149
100
AcDbEntity
8
0
100
AcDbPolyline
90
4
70
1
43
0.0
10
160.50000000000006
20
-75
10
162.75000000000003
20
-85
10
165
20
-75
10
162.75
20
-65
0
LWPOLYLINE
5
150
100
AcDbEntity
8
0
100
AcDbPolyline
90
4
70
1
43
0.0
10
385.12387473167024
20
-15
10
387.37387473167018
20
-25
10
389.62387473167013
20
-15
10
387.37387473167018
20
-5.0000000000000044
0
LWPOLYLINE
5
151
100
AcDbEntity
8
0
100
AcDbPolyline
90
4
70
1
43
0.0
10
375.62387473167018
20
-15
10
377.87387473167018
20
-25
10
380.12387473167018
20
-15
10
377.87387473167018
20
-5.0000000000000044
0
LWPOLYLINE
5
152
100
AcDbEntity
8
0
100
AcDbPolyline
90
4
70
1
43
0.0
10
347.1238747316703
20
-15
10
349.37387473167018
20
-25
10
351.62387473167018
20
-15
10
349.37387473167018
20
-5.0000000000000044
0
LWPOLYLINE
5
153
100
AcDbEntity
8
0
100
AcDbPolyline
90
4
70
1
43
0.0
10
404.12387473167018
20
-15
10
406.37387473167007
20
-25
10
408.62387473167018
20
-15
10
406.37387473167007
20
-5.0000000000000044
0
LWPOLYLINE
5
154
100
AcDbEntity
8
0
100
AcDbPolyline
90
4
70
1
43
0.0
10
366.12387473167018
20
-15
10
368.37387473167013
20
-25
10
370.62387473167018
20
-15
10
368.37387473167013
20
-5.0000000000000044
0
LWPOLYLINE
5
155
100
AcDbEntity
8
0
100
AcDbPolyline
90
4
70
1
43
0.0
10
280.62387473167024
20
-15
10
282.87387473167024
20
-25
10
285.12387473167024
20
-15
10
282.87387473167024
20
-5.0000000000000044
0
LWPOLYLINE
5
156
100
AcDbEntity
8
0
100
AcDbPolyline
90
4
70
1
43
0.0
10
113.00000000000003
20
-75
10
115.25000000000003
20
-85
10
117.50000000000001
20
-75
10
115.25
20
-65
0
LWPOLYLINE
5
157
100
AcDbEntity
8
0
100
AcDbPolyline
90
4
70
1
43
0.0
10
151.00000000000003
20
-45
10
153.25000000000003
20
-55
10
155.50000000000003
20
-45
10
153.25
20
-35
0
LWPOLYLINE
5
158
100
AcDbEntity
8
0
100
AcDbPolyline
90
4
70
1
43
0.0
10
103.50000000000001
20
-15
10
105.75000000000001
20
-25
10
108
20
-15
10
105.75000000000001
20
-5
0
LWPOLYLINE
5
159
100
AcDbEntity
8
0
100
AcDbPolyline
90
4
70
1
43
0.0
10
37
20
-75
10
39.25
20
-85
10
41.5
20
-75
10
39.25
20
-65
0
LWPOLYLINE
5
160
100
AcDbEntity
8
0
100
AcDbPolyline
90
4
70
1
43
0.0
10
46.5
20
-15
10
48.75
20
-25
10
51.000000000000007
20
-15
10
48.75
20
-5
0
LWPOLYLINE
5
161
100
AcDbEntity
8
0
100
AcDbPolyline
90
4
70
1
43
0.0
10
94
20
-15
10
96.25
20
-25
10
98.500000000000014
20
-15
10
96.250000000000014
20
-5
0
LWPOLYLINE
5
162
100
AcDbEntity
8
0
100
AcDbPolyline
90
4
70
1
43
0.0
10
141.50000000000003
20
-75
10
143.75000000000003
20
-85
10
146.00000000000003
20
-75
10
143.75000000000003
20
-65
0
LWPOLYLINE
5
163
100
AcDbEntity
8
0
100
AcDbPolyline
90
4
70
1
43
0.0
10
-83.123874731670355
20
-75
10
-80.873874731670298
20
-85
10
-78.623874731670256
20
-75
10
-80.873874731670298
20
-65
0
LWPOLYLINE
5
164
100
AcDbEntity
8
0
100
AcDbPolyline
90
4
70
1
43
0.0
10
75.000000000000014
20
-75
10
77.25
20
-85
10
79.500000000000014
20
-75
10
77.25
20
-65
0
LWPOLYLINE
5
165
100
AcDbEntity
8
0
100
AcDbPolyline
90
4
70
1
43
0.0
10
-45.123874731670384
20
-45
10
-42.873874731670334
20
-55
10
-40.623874731670284
20
-45
10
-42.873874731670334
20
-35
0
LWPOLYLINE
5
166
100
AcDbEntity
8
0
100
AcDbPolyline
90
4
70
1
43
0.0
10
-45.123874731670384
20
-75
10
-42.873874731670334
20
-85
10
-40.623874731670284
20
-75
10
-42.873874731670334
20
-65
0
LWPOLYLINE
5
167
100
AcDbEntity
8
0
100
AcDbPolyline
90
4
70
1
43
0.0
10
56.000000000000007
20
-75
10
58.25
20
-85
10
60.500000000000007
20
-75
10
58.25
20
-65
0
LWPOLYLINE
5
168
100
AcDbEntity
8
0
100
AcDbPolyline
90
4
70
1
43
0.0
10
328.12387473167018
20
-45
10
330.37387473167018
20
-55
10
332.62387473167024
20
-45
10
330.37387473167018
20
-35.000000000000007
0
LWPOLYLINE
5
169
100
AcDbEntity
8
0
100
AcDbPolyline
90
4
70
1
43
0.0
10
337.62387473167024
20
-15
10
339.87387473167018
20
-25
10
342.12387473167018
20
-15
10
339.87387473167018
20
-5.0000000000000044
0
LWPOLYLINE
5
170
100
AcDbEntity
8
0
100
AcDbPolyline
90
4
70
1
43
0.0
10
356.62387473167018
20
-75
10
358.87387473167018
20
-85
10
361.12387473167018
20
-75
10
358.87387473167018
20
-65
0
LWPOLYLINE
5
171
100
AcDbEntity
8
0
100
AcDbPolyline
90
4
70
1
43
0.0
10
394.62387473167013
20
-75
10
396.87387473167013
20
-85
10
399.12387473167018
20
-75
10
396.87387473167013
20
-65
0
LWPOLYLINE
5
172
100
AcDbEntity
8
0
100
AcDbPolyline
90
4
70
1
43
0.0
10
413.62387473167018
20
-45
10
415.87387473167013
20
-55
10
418.12387473167013
20
-45
10
415.87387473167013
20
-35.000000000000007
0
LWPOLYLINE
5
173
100
AcDbEntity
8
0
100
AcDbPolyline
90
4
70
1
43
0.0
10
394.62387473167013
20
-45
10
396.87387473167013
20
-55
10
399.12387473167018
20
-45
10
396.87387473167013
20
-35.000000000000007
0
LWPOLYLINE
5
174
100
AcDbEntity
8
0
100
AcDbPolyline
90
4
70
1
43
0.0
10
385.12387473167024
20
-75
10
387.37387473167018
20
-85
10
389.62387473167013
20
-75
10
387.37387473167018
20
-65
0
LWPOLYLINE
5
175
100
AcDbEntity
8
0
100
AcDbPolyline
90
4
70
1
43
0.0
10
328.12387473167018
20
-15
10
330.37387473167018
20
-25
10
332.62387473167024
20
-15
10
330.37387473167018
20
-5.0000000000000044
0
LWPOLYLINE
5
176
100
AcDbEntity
8
0
100
AcDbPolyline
90
4
70
1
43
0.0
10
413.62387473167018
20
-15
10
415.87387473167013
20
-25
10
418.12387473167013
20
-15
10
415.87387473167013
20
-5.0000000000000044
0
LWPOLYLINE
5
177
100
AcDbEntity
8
0
100
AcDbPolyline
90
4
70
1
43
0.0
10
318.62387473167024
20
-75
10
320.87387473167018
20
-85
10
323.12387473167018
20
-75
10
320.87387473167018
20
-65
0
LWPOLYLINE
5
178
100
AcDbEntity
8
0
100
AcDbPolyline
90
4
70
1
43
0.0
10
328.12387473167018
20
-75
10
330.37387473167018
20
-85
10
332.62387473167024
20
-75
10
330.37387473167018
20
-65
0
LWPOLYLINE
5
179
100
AcDbEntity
8
0
100
AcDbPolyline
90
4
70
1
43
0.0
10
151.00000000000003
20
-15
10
153.25000000000003
20
-25
10
155.50000000000003
20
-15
10
153.25
20
-5
0
LWPOLYLINE
5
180
100
AcDbEntity
8
0
100
AcDbPolyline
90
4
70
1
43
0.0
10
141.50000000000003
20
-45
10
143.75000000000003
20
-55
10
146.00000000000003
20
-45
10
143.75000000000003
20
-35
0
LWPOLYLINE
5
181
100
AcDbEntity
8
0
100
AcDbPolyline
90
4
70
1
43
0.0
10
337.62387473167024
20
-75
10
339.87387473167018
20
-85
10
342.12387473167018
20
-75
10
339.87387473167018
20
-65
0
LWPOLYLINE
5
182
100
AcDbEntity
8
0
100
AcDbPolyline
90
4
70
1
43
0.0
10
-281.99774946334009
20
-85
10
-279.74774946334003
20
-75
10
-281.99774946334009
20
-65
10
-284.24774946334003
20
-75
0
LWPOLYLINE
5
183
100
AcDbEntity
8
0
100
AcDbPolyline
90
4
70
1
43
0.0
10
-272.49774946334009
20
-85
10
-270.24774946333997
20
-75
10
-272.49774946334009
20
-65
10
-274.74774946334003
20
-75
0
LWPOLYLINE
5
184
100
AcDbEntity
8
0
100
AcDbPolyline
90
4
70
1
43
0.0
10
-178.1238747316703
20
-45
10
-175.87387473167024
20
-55
10
-173.62387473167018
20
-45
10
-175.87387473167024
20
-35
0
LWPOLYLINE
5
185
100
AcDbEntity
8
0
100
AcDbPolyline
90
4
70
1
43
0.0
10
-149.6238747316703
20
-15
10
-147.37387473167024
20
-25
10
-145.12387473167021
20
-15
10
-147.37387473167024
20
-5
0
LWPOLYLINE
5
186
100
AcDbEntity
8
0
100
AcDbPolyline
90
4
70
1
43
0.0
10
-159.1238747316703
20
-45
10
-156.87387473167024
20
-55
10
-154.62387473167018
20
-45
10
-156.87387473167024
20
-35
0
LWPOLYLINE
5
187
100
AcDbEntity
8
0
100
AcDbPolyline
90
4
70
1
43
0.0
10
-338.99774946334026
20
-85
10
-336.7477494633402
20
-75
10
-338.99774946334026
20
-65
10
-341.2477494633402
20
-75
0
LWPOLYLINE
5
188
100
AcDbEntity
8
0
100
AcDbPolyline
90
4
70
1
43
0.0
10
-262.99774946334003
20
-85
10
-260.74774946333997
20
-75
10
-262.99774946334003
20
-65
10
-265.24774946333997
20
-75
0
LWPOLYLINE
5
189
100
AcDbEntity
8
0
100
AcDbPolyline
90
4
70
1
43
0.0
10
-310.4977494633402
20
-85
10
-308.24774946334009
20
-75
10
-310.4977494633402
20
-65
10
-312.74774946334014
20
-75
0
LWPOLYLINE
5
190
100
AcDbEntity
8
0
100
AcDbPolyline
90
4
70
1
43
0.0
10
-319.9977494633402
20
-85
10
-317.74774946334014
20
-75
10
-319.9977494633402
20
-65
10
-322.24774946334014
20
-75
0
LWPOLYLINE
5
191
100
AcDbEntity
8
0
100
AcDbPolyline
90
4
70
1
43
0.0
10
-300.99774946334014
20
-85
10
-298.74774946334009
20
-75
10
-300.99774946334014
20
-65
10
-303.24774946334009
20
-75
0
LWPOLYLINE
5
192
100
AcDbEntity
8
0
100
AcDbPolyline
90
4
70
1
43
0.0
10
-35.623874731670391
20
-15
10
-33.373874731670341
20
-25
10
-31.123874731670291
20
-15
10
-33.373874731670341
20
-5
0
LWPOLYLINE
5
193
100
AcDbEntity
8
0
100
AcDbPolyline
90
4
70
1
43
0.0
10
-102.12387473167034
20
-45
10
-99.873874731670298
20
-55
10
-97.623874731670242
20
-45
10
-99.873874731670298
20
-35
0
LWPOLYLINE
5
194
100
AcDbEntity
8
0
100
AcDbPolyline
90
4
70
1
43
0.0
10
-395.99774946334043
20
-55
10
-393.74774946334037
20
-45
10
-395.99774946334043
20
-34.999999999999993
10
-398.24774946334037
20
-45
0
LWPOLYLINE
5
195
100
AcDbEntity
8
0
100
AcDbPolyline
90
4
70
1
43
0.0
10
-405.49774946334048
20
-24.999999999999996
10
-403.24774946334037
20
-15
10
-405.49774946334048
20
-4.9999999999999956
10
-407.74774946334043
20
-15
0
LWPOLYLINE
5
196
100
AcDbEntity
8
0
100
AcDbPolyline
90
4
70
1
43
0.0
10
-376.99774946334037
20
-55
10
-374.74774946334031
20
-45
10
-376.99774946334037
20
-34.999999999999993
10
-379.24774946334031
20
-45
0
LWPOLYLINE
5
197
100
AcDbEntity
8
0
100
AcDbPolyline
90
4
70
1
43
0.0
10
-310.4977494633402
20
-55
10
-308.24774946334009
20
-45
10
-310.4977494633402
20
-34.999999999999993
10
-312.74774946334014
20
-45
0
LWPOLYLINE
5
198
100
AcDbEntity
8
0
100
AcDbPolyline
90
4
70
1
43
0.0
10
-291.49774946334014
20
-55
10
-289.24774946334003
20
-45
10
-291.49774946334014
20
-34.999999999999993
10
-293.74774946334009
20
-45
0
LWPOLYLINE
5
199
100
AcDbEntity
8
0
100
AcDbPolyline
90
4
70
1
43
0.0
10
-348.49774946334031
20
-24.999999999999996
10
-346.2477494633402
20
-15
10
-348.49774946334031
20
-4.9999999999999956
10
-350.74774946334026
20
-15
0
LWPOLYLINE
5
200
100
AcDbEntity
8
0
100
AcDbPolyline
90
4
70
1
43
0.0
10
-357.99774946334031
20
-24.999999999999996
10
-355.74774946334026
20
-15
10
-357.99774946334031
20
-4.9999999999999956
10
-360.24774946334026
20
-15
0
LWPOLYLINE
5
201
100
AcDbEntity
8
0
100
AcDbPolyline
90
4
70
1
43
0.0
10
-367.49774946334037
20
-55
10
-365.24774946334026
20
-45
10
-367.49774946334037
20
-34.999999999999993
10
-369.74774946334031
20
-45
0
LWPOLYLINE
5
202
100
AcDbEntity
8
0
100
AcDbPolyline
90
4
70
1
43
0.0
10
-405.49774946334048
20
-55
10
-403.24774946334037
20
-45
10
-405.49774946334048
20
-34.999999999999993
10
-407.74774946334043
20
-45
0
LWPOLYLINE
5
203
100
AcDbEntity
8
0
100
AcDbPolyline
90
4
70
1
43
0.0
10
-386.49774946334043
20
-85
10
-384.24774946334031
20
-75
10
-386.49774946334043
20
-65
10
-388.74774946334037
20
-75
0
LWPOLYLINE
5
204
100
AcDbEntity
8
0
100
AcDbPolyline
90
4
70
1
43
0.0
10
-142.62387473167024
20
-40
10
-140.3738747316703
20
-30
10
-142.62387473167027
20
-20
10
-144.8738747316703
20
-30
0
LWPOLYLINE
5
205
100
AcDbEntity
8
0
100
AcDbPolyline
90
4
70
1
43
0.0
10
-190.12387473167021
20
-70
10
-187.87387473167027
20
-60
10
-190.12387473167024
20
-50
10
-192.37387473167024
20
-60
0
LWPOLYLINE
5
206
100
AcDbEntity
8
0
100
AcDbPolyline
90
4
70
1
43
0.0
10
148.50000000000006
20
-40
10
150.75000000000003
20
-30
10
148.5
20
-19.999999999999996
10
146.25000000000003
20
-30
0
LWPOLYLINE
5
207
100
AcDbEntity
8
0
100
AcDbPolyline
90
4
70
1
43
0.0
10
129.50000000000006
20
-40
10
131.75
20
-30
10
129.50000000000003
20
-19.999999999999996
10
127.25000000000006
20
-30
0
LWPOLYLINE
5
208
100
AcDbEntity
8
0
100
AcDbPolyline
90
4
70
1
43
0.0
10
110.50000000000004
20
-40
10
112.75000000000003
20
-30
10
110.5
20
-19.999999999999996
10
108.25000000000003
20
-30
0
LWPOLYLINE
5
209
100
AcDbEntity
8
0
100
AcDbPolyline
90
4
70
1
43
0.0
10
335.12400000000002
20
-40
10
337.37399999999991
20
-30
10
335.12399999999991
20
-20
10
332.87399999999991
20
-30
0
LWPOLYLINE
5
210
100
AcDbEntity
8
0
100
AcDbPolyline
90
4
70
1
43
0.0
10
139.00000000000006
20
-70
10
141.25000000000003
20
-60
10
139.00000000000003
20
-50
10
136.75000000000006
20
-60
0
LWPOLYLINE
5
211
100
AcDbEntity
8
0
100
AcDbPolyline
90
4
70
1
43
0.0
10
401.62399999999991
20
-70
10
403.87399999999985
20
-60
10
401.62399999999985
20
-50
10
399.3739999999998
20
-60
0
LWPOLYLINE
5
212
100
AcDbEntity
8
0
100
AcDbPolyline
90
4
70
1
43
0.0
10
278.12400000000002
20
-40
10
280.37399999999997
20
-30
10
278.12399999999997
20
-20
10
275.87399999999997
20
-30
0
LWPOLYLINE
5
213
100
AcDbEntity
8
0
100
AcDbPolyline
90
4
70
1
43
0.0
10
287.62400000000002
20
-70
10
289.87399999999991
20
-60
10
287.62399999999997
20
-50
10
285.37399999999997
20
-60
0
LWPOLYLINE
5
214
100
AcDbEntity
8
0
100
AcDbPolyline
90
4
70
1
43
0.0
10
316.12399999999997
20
-70
10
318.37399999999991
20
-60
10
316.12399999999991
20
-50
10
313.87399999999991
20
-60
0
LWPOLYLINE
5
215
100
AcDbEntity
8
0
100
AcDbPolyline
90
4
70
1
43
0.0
10
129.50000000000006
20
-70
10
131.75
20
-60
10
129.50000000000003
20
-50
10
127.25000000000006
20
-60
0
LWPOLYLINE
5
216
100
AcDbEntity
8
0
100
AcDbPolyline
90
4
70
1
43
0.0
10
297.12399999999997
20
-40
10
299.37399999999991
20
-30
10
297.12399999999997
20
-20
10
294.87399999999991
20
-30
0
LWPOLYLINE
5
217
100
AcDbEntity
8
0
100
AcDbPolyline
90
4
70
1
43
0.0
10
306.62399999999997
20
-40
10
308.87399999999991
20
-30
10
306.62399999999997
20
-20
10
304.37399999999991
20
-30
0
LWPOLYLINE
5
218
100
AcDbEntity
8
0
100
AcDbPolyline
90
4
70
1
43
0.0
10
287.62400000000002
20
-40
10
289.87399999999991
20
-30
10
287.62399999999997
20
-20
10
285.37399999999997
20
-30
0
LWPOLYLINE
5
219
100
AcDbEntity
8
0
100
AcDbPolyline
90
4
70
1
43
0.0
10
186.50000000000006
20
-70
10
188.75000000000003
20
-60
10
186.50000000000003
20
-50
10
184.25000000000006
20
-60
0
LWPOLYLINE
5
220
100
AcDbEntity
8
0
100
AcDbPolyline
90
4
70
1
43
0.0
10
268.62400000000002
20
-40
10
270.87399999999997
20
-30
10
268.62399999999997
20
-20
10
266.37399999999997
20
-30
0
LWPOLYLINE
5
221
100
AcDbEntity
8
0
100
AcDbPolyline
90
4
70
1
43
0.0
10
-400.74774946334037
20
-39.999999999999957
10
-398.49774946334037
20
-29.999999999999961
10
-400.74774946334037
20
-19.999999999999961
10
-402.99774946334037
20
-29.999999999999961
0
LWPOLYLINE
5
222
100
AcDbEntity
8
0
100
AcDbPolyline
90
4
70
1
43
0.0
10
-372.24774946334031
20
-69.999999999999972
10
-369.99774946334026
20
-59.999999999999964
10
-372.24774946334031
20
-49.999999999999964
10
-374.49774946334031
20
-59.999999999999964
0
LWPOLYLINE
5
223
100
AcDbEntity
8
0
100
AcDbPolyline
90
4
70
1
43
0.0
10
-391.24774946334037
20
-69.999999999999972
10
-388.99774946334037
20
-59.999999999999964
10
-391.24774946334037
20
-49.999999999999964
10
-393.49774946334037
20
-59.999999999999964
0
LWPOLYLINE
5
224
100
AcDbEntity
8
0
100
AcDbPolyline
90
4
70
1
43
0.0
10
-315.24774946334014
20
-69.999999999999972
10
-312.99774946334014
20
-59.999999999999964
10
-315.24774946334014
20
-49.999999999999964
10
-317.49774946334014
20
-59.999999999999964
0
LWPOLYLINE
5
225
100
AcDbEntity
8
0
100
AcDbPolyline
90
4
70
1
43
0.0
10
-267.74774946333997
20
-39.999999999999957
10
-265.49774946333997
20
-29.999999999999961
10
-267.74774946333997
20
-19.999999999999961
10
-269.99774946334003
20
-29.999999999999961
0
LWPOLYLINE
5
226
100
AcDbEntity
8
0
100
AcDbPolyline
90
4
70
1
43
0.0
10
-334.2477494633402
20
-39.999999999999957
10
-331.99774946334014
20
-29.999999999999961
10
-334.2477494633402
20
-19.999999999999961
10
-336.4977494633402
20
-29.999999999999961
0
LWPOLYLINE
5
227
100
AcDbEntity
8
0
100
AcDbPolyline
90
4
70
1
43
0.0
10
-324.74774946334014
20
-39.999999999999957
10
-322.49774946334014
20
-29.999999999999961
10
-324.74774946334014
20
-19.999999999999961
10
-326.99774946334014
20
-29.999999999999961
0
LWPOLYLINE
5
228
100
AcDbEntity
8
0
100
AcDbPolyline
90
4
70
1
43
0.0
10
-343.7477494633402
20
-39.999999999999957
10
-341.4977494633402
20
-29.999999999999961
10
-343.7477494633402
20
-19.999999999999961
10
-345.99774946334026
20
-29.999999999999961
0
LWPOLYLINE
5
229
100
AcDbEntity
8
0
100
AcDbPolyline
90
4
70
1
43
0.0
10
34.500000000000036
20
-40
10
36.75
20
-30
10
34.5
20
-19.999999999999996
10
32.250000000000021
20
-30
0
LWPOLYLINE
5
230
100
AcDbEntity
8
0
100
AcDbPolyline
90
4
70
1
43
0.0
10
63.000000000000043
20
-40
10
65.25
20
-30
10
63.000000000000007
20
-19.999999999999996
10
60.750000000000028
20
-30
0
LWPOLYLINE
5
231
100
AcDbEntity
8
0
100
AcDbPolyline
90
4
70
1
43
0.0
10
82.000000000000043
20
-40
10
84.25
20
-30
10
82.000000000000014
20
-19.999999999999996
10
79.750000000000028
20
-30
0
LWPOLYLINE
5
232
100
AcDbEntity
8
0
100
AcDbPolyline
90
4
70
1
43
0.0
10
-47.623874731670313
20
-70
10
-45.373874731670369
20
-60
10
-47.623874731670348
20
-50
10
-49.873874731670362
20
-60
0
LWPOLYLINE
5
233
100
AcDbEntity
8
0
100
AcDbPolyline
90
4
70
1
43
0.0
10
-76.123874731670298
20
-70
10
-73.873874731670355
20
-60
10
-76.123874731670327
20
-50
10
-78.373874731670341
20
-60
0
LWPOLYLINE
5
234
100
AcDbEntity
8
0
100
AcDbPolyline
90
4
70
1
43
0.0
10
-38.12387473167032
20
-40
10
-35.873874731670377
20
-30
10
-38.123874731670355
20
-20
10
-40.373874731670369
20
-30
0
LWPOLYLINE
5
235
100
AcDbEntity
8
0
100
AcDbPolyline
90
4
70
1
43
0.0
10
-85.623874731670284
20
-40
10
-83.373874731670341
20
-30
10
-85.623874731670327
20
-20
10
-87.873874731670327
20
-30
0
LWPOLYLINE
5
236
100
AcDbEntity
8
0
100
AcDbPolyline
90
4
70
1
43
0.0
10
-133.12387473167024
20
-70
10
-130.8738747316703
20
-60
10
-133.1238747316703
20
-50
10
-135.3738747316703
20
-60
0
LWPOLYLINE
5
237
100
AcDbEntity
8
0
100
AcDbPolyline
90
4
70
1
43
0.0
10
-152.12387473167024
20
-70
10
-149.8738747316703
20
-60
10
-152.12387473167027
20
-50
10
-154.3738747316703
20
-60
0
LWPOLYLINE
5
238
100
AcDbEntity
8
0
100
AcDbPolyline
90
4
70
1
43
0.0
10
-66.623874731670298
20
-40
10
-64.373874731670355
20
-30
10
-66.623874731670327
20
-20
10
-68.873874731670355
20
-30
0
LWPOLYLINE
5
239
100
AcDbEntity
8
0
100
AcDbPolyline
90
4
70
1
43
0.0
10
34.500000000000036
20
-70
10
36.75
20
-60
10
34.5
20
-50
10
32.250000000000021
20
-60
0
LWPOLYLINE
5
240
100
AcDbEntity
8
0
100
AcDbPolyline
90
4
70
1
43
0.0
10
44.000000000000043
20
-70
10
46.25
20
-60
10
44
20
-50
10
41.750000000000028
20
-60
0
LWPOLYLINE
5
241
100
AcDbEntity
8
0
100
AcDbPolyline
90
4
70
1
43
0.0
10
-123.62387473167026
20
-40
10
-121.37387473167031
20
-30
10
-123.6238747316703
20
-20
10
-125.8738747316703
20
-30
0
LWPOLYLINE
5
242
100
AcDbEntity
8
0
100
AcDbPolyline
90
4
70
1
43
0.0
10
-114.12387473167027
20
-40
10
-111.87387473167033
20
-30
10
-114.1238747316703
20
-20
10
-116.37387473167031
20
-30
0
LWPOLYLINE
5
243
100
AcDbEntity
8
0
100
AcDbPolyline
90
4
70
1
43
0.0
10
-142.62387473167024
20
-70
10
-140.3738747316703
20
-60
10
-142.62387473167027
20
-50
10
-144.8738747316703
20
-60
0
LWPOLYLINE
5
244
100
AcDbEntity
8
0
100
AcDbPolyline
90
4
70
1
43
0.0
10
-76.123874731670298
20
-40
10
-73.873874731670355
20
-30
10
-76.123874731670327
20
-20
10
-78.373874731670341
20
-30
0
LWPOLYLINE
5
245
100
AcDbEntity
8
0
100
AcDbPolyline
90
4
70
1
43
0.0
10
-114.12387473167027
20
-70
10
-111.87387473167033
20
-60
10
-114.1238747316703
20
-50
10
-116.37387473167031
20
-60
0
LWPOLYLINE
5
246
100
AcDbEntity
8
0
100
AcDbPolyline
90
4
70
1
43
0.0
10
-66.623874731670298
20
-70
10
-64.373874731670355
20
-60
10
-66.623874731670327
20
-50
10
-68.873874731670355
20
-60
0
LWPOLYLINE
5
247
100
AcDbEntity
8
0
100
AcDbPolyline
90
4
70
1
43
0.0
10
91.500000000000057
20
-40
10
93.75
20
-30
10
91.500000000000028
20
-19.999999999999996
10
89.250000000000043
20
-30
0
LWPOLYLINE
5
248
100
AcDbEntity
8
0
100
AcDbPolyline
90
4
70
1
43
0.0
10
53.500000000000043
20
-40
10
55.75
20
-30
10
53.500000000000007
20
-19.999999999999996
10
51.250000000000028
20
-30
0
LWPOLYLINE
5
249
100
AcDbEntity
8
0
100
AcDbPolyline
90
4
70
1
43
0.0
10
-296.24774946334009
20
-39.999999999999957
10
-293.99774946334003
20
-29.999999999999961
10
-296.24774946334009
20
-19.999999999999961
10
-298.49774946334009
20
-29.999999999999961
0
LWPOLYLINE
5
250
100
AcDbEntity
8
0
100
AcDbPolyline
90
4
70
1
43
0.0
10
-305.74774946334009
20
-39.999999999999957
10
-303.49774946334009
20
-29.999999999999961
10
-305.74774946334009
20
-19.999999999999961
10
-307.99774946334014
20
-29.999999999999961
0
LWPOLYLINE
5
251
100
AcDbEntity
8
0
100
AcDbPolyline
90
4
70
1
43
0.0
10
-343.7477494633402
20
-69.999999999999972
10
-341.4977494633402
20
-59.999999999999964
10
-343.7477494633402
20
-49.999999999999964
10
-345.99774946334026
20
-59.999999999999964
0
LWPOLYLINE
5
252
100
AcDbEntity
8
0
100
AcDbPolyline
90
4
70
1
43
0.0
10
-296.24774946334009
20
-69.999999999999972
10
-293.99774946334003
20
-59.999999999999964
10
-296.24774946334009
20
-49.999999999999964
10
-298.49774946334009
20
-59.999999999999964
0
LWPOLYLINE
5
253
100
AcDbEntity
8
0
100
AcDbPolyline
90
4
70
1
43
0.0
10
-362.74774946334026
20
-69.999999999999972
10
-360.49774946334026
20
-59.999999999999964
10
-362.74774946334026
20
-49.999999999999964
10
-364.99774946334026
20
-59.999999999999964
0
LWPOLYLINE
5
254
100
AcDbEntity
8
0
100
AcDbPolyline
90
4
70
1
43
0.0
10
-391.24774946334037
20
-39.999999999999957
10
-388.99774946334037
20
-29.999999999999961
10
-391.24774946334037
20
-19.999999999999961
10
-393.49774946334037
20
-29.999999999999961
0
LWPOLYLINE
5
255
100
AcDbEntity
8
0
100
AcDbPolyline
90
4
70
1
43
0.0
10
-381.74774946334031
20
-69.999999999999972
10
-379.49774946334031
20
-59.999999999999964
10
-381.74774946334031
20
-49.999999999999964
10
-383.99774946334037
20
-59.999999999999964
0
LWPOLYLINE
5
256
100
AcDbEntity
8
0
100
AcDbPolyline
90
4
70
1
43
0.0
10
297.12399999999997
20
-70
10
299.37399999999991
20
-60
10
297.12399999999997
20
-50
10
294.87399999999991
20
-60
0
LWPOLYLINE
5
257
100
AcDbEntity
8
0
100
AcDbPolyline
90
4
70
1
43
0.0
10
411.12399999999991
20
-70
10
413.37399999999991
20
-60
10
411.12399999999985
20
-50
10
408.87399999999985
20
-60
0
LWPOLYLINE
5
258
100
AcDbEntity
8
0
100
AcDbPolyline
90
4
70
1
43
0.0
10
354.12399999999991
20
-40
10
356.37399999999985
20
-30
10
354.12399999999991
20
-20
10
351.8739999999998
20
-30
0
LWPOLYLINE
5
259
100
AcDbEntity
8
0
100
AcDbPolyline
90
4
70
1
43
0.0
10
363.62399999999991
20
-70
10
365.87399999999991
20
-60
10
363.62399999999985
20
-50
10
361.37399999999985
20
-60
0
LWPOLYLINE
5
260
100
AcDbEntity
8
0
100
AcDbPolyline
90
4
70
1
43
0.0
10
177.00000000000006
20
-70
10
179.25000000000006
20
-60
10
177.00000000000003
20
-50
10
174.75000000000006
20
-60
0
LWPOLYLINE
5
261
100
AcDbEntity
8
0
100
AcDbPolyline
90
4
70
1
43
0.0
10
382.62399999999991
20
-70
10
384.87399999999985
20
-60
10
382.62399999999991
20
-50
10
380.37399999999991
20
-60
0
LWPOLYLINE
5
262
100
AcDbEntity
8
0
100
AcDbPolyline
90
4
70
1
43
0.0
10
335.12400000000002
20
-70
10
337.37399999999991
20
-60
10
335.12399999999991
20
-50
10
332.87399999999991
20
-60
0
LWPOLYLINE
5
263
100
AcDbEntity
8
0
100
AcDbPolyline
90
4
70
1
43
0.0
10
167.50000000000006
20
-70
10
169.75
20
-60
10
167.50000000000003
20
-50
10
165.25000000000006
20
-60
0
LWPOLYLINE
5
264
100
AcDbEntity
8
0
100
AcDbPolyline
90
4
70
1
43
0.0
10
392.12399999999991
20
-40
10
394.3739999999998
20
-30
10
392.12399999999991
20
-20
10
389.8739999999998
20
-30
0
LWPOLYLINE
5
265
100
AcDbEntity
8
0
100
AcDbPolyline
90
4
70
1
43
0.0
10
373.12399999999997
20
-70
10
375.37399999999991
20
-60
10
373.12399999999991
20
-50
10
370.87399999999991
20
-60
0
LWPOLYLINE
5
266
100
AcDbEntity
8
0
100
AcDbPolyline
90
4
70
1
43
0.0
10
259.12400000000002
20
-40
10
261.37399999999997
20
-30
10
259.12399999999997
20
-20
10
256.87399999999997
20
-30
0
LWPOLYLINE
5
267
100
AcDbEntity
8
0
100
AcDbPolyline
90
4
70
1
43
0.0
10
110.50000000000004
20
-70
10
112.75000000000003
20
-60
10
110.5
20
-50
10
108.25000000000003
20
-60
0
LWPOLYLINE
5
268
100
AcDbEntity
8
0
100
AcDbPolyline
90
4
70
1
43
0.0
10
139.00000000000006
20
-40
10
141.25000000000003
20
-30
10
139.00000000000003
20
-19.999999999999996
10
136.75000000000006
20
-30
0
LWPOLYLINE
5
269
100
AcDbEntity
8
0
100
AcDbPolyline
90
4
70
1
43
0.0
10
186.50000000000006
20
-40
10
188.75000000000003
20
-30
10
186.50000000000003
20
-19.999999999999996
10
184.25000000000006
20
-30
0
LWPOLYLINE
5
270
100
AcDbEntity
8
0
100
AcDbPolyline
90
4
70
1
43
0.0
10
158.00000000000006
20
-40
10
160.25000000000003
20
-30
10
158
20
-19.999999999999996
10
155.75000000000003
20
-30
0
LWPOLYLINE
5
271
100
AcDbEntity
8
0
100
AcDbPolyline
90
4
70
1
43
0.0
10
-171.12387473167021
20
-40
10
-168.87387473167027
20
-30
10
-171.12387473167024
20
-20
10
-173.37387473167027
20
-30
0
LWPOLYLINE
5
272
100
AcDbEntity
8
0
100
AcDbPolyline
90
4
70
1
43
0.0
10
-180.62387473167021
20
-40
10
-178.37387473167027
20
-30
10
-180.62387473167024
20
-20
10
-182.87387473167027
20
-30
0
LWPOLYLINE
5
273
100
AcDbEntity
8
0
100
AcDbPolyline
90
4
70
1
43
0.0
10
-180.62387473167021
20
-70
10
-178.37387473167027
20
-60
10
-180.62387473167024
20
-50
10
-182.87387473167027
20
-60
0
LWPOLYLINE
5
274
100
AcDbEntity
8
0
100
AcDbPolyline
90
4
70
1
43
0.0
10
-286.74774946334003
20
-69.999999999999972
10
-284.49774946334003
20
-59.999999999999964
10
-286.74774946334003
20
-49.999999999999964
10
-288.99774946334003
20
-59.999999999999964
0
LWPOLYLINE
5
275
100
AcDbEntity
8
0
100
AcDbPolyline
90
4
70
1
43
0.0
10
-419.74774946334043
20
-39.999999999999957
10
-417.49774946334043
20
-29.999999999999961
10
-419.74774946334043
20
-19.999999999999961
10
-421.99774946334048
20
-29.999999999999961
0
LWPOLYLINE
5
276
100
AcDbEntity
8
0
100
AcDbPolyline
90
4
70
1
43
0.0
10
-267.74774946333997
20
-69.999999999999972
10
-265.49774946333997
20
-59.999999999999964
10
-267.74774946333997
20
-49.999999999999964
10
-269.99774946334003
20
-59.999999999999964
0
LWPOLYLINE
5
277
100
AcDbEntity
8
0
100
AcDbPolyline
90
4
70
1
43
0.0
10
-277.24774946334003
20
-69.999999999999972
10
-274.99774946334003
20
-59.999999999999964
10
-277.24774946334003
20
-49.999999999999964
10
-279.49774946334003
20
-59.999999999999964
0
LWPOLYLINE
5
278
100
AcDbEntity
8
0
100
AcDbPolyline
90
4
70
1
43
0.0
10
-161.62387473167024
20
-40
10
-159.3738747316703
20
-30
10
-161.62387473167027
20
-20
10
-163.87387473167027
20
-30
0
LWPOLYLINE
5
279
100
AcDbEntity
8
0
100
AcDbPolyline
90
4
70
1
43
0.0
10
-190.12387473167021
20
-40
10
-187.87387473167027
20
-30
10
-190.12387473167024
20
-20
10
-192.37387473167024
20
-30
0
LWPOLYLINE
5
280
100
AcDbEntity
8
0
100
AcDbPolyline
90
4
70
1
43
0.0
10
-133.12387473167024
20
-40
10
-130.8738747316703
20
-30
10
-133.1238747316703
20
-20
10
-135.3738747316703
20
-30
0
LWPOLYLINE
5
281
100
AcDbEntity
8
0
100
AcDbPolyline
90
4
70
1
43
0.0
10
167.50000000000006
20
-40
10
169.75
20
-30
10
167.50000000000003
20
-19.999999999999996
10
165.25000000000006
20
-30
0
LWPOLYLINE
5
282
100
AcDbEntity
8
0
100
AcDbPolyline
90
4
70
1
43
0.0
10
177.00000000000006
20
-40
10
179.25000000000006
20
-30
10
177.00000000000003
20
-19.999999999999996
10
174.75000000000006
20
-30
0
LWPOLYLINE
5
283
100
AcDbEntity
8
0
100
AcDbPolyline
90
4
70
1
43
0.0
10
120.00000000000003
20
-40
10
122.25000000000001
20
-30
10
120
20
-19.999999999999996
10
117.75000000000003
20
-30
0
LWPOLYLINE
5
284
100
AcDbEntity
8
0
100
AcDbPolyline
90
4
70
1
43
0.0
10
120.00000000000003
20
-70
10
122.25000000000001
20
-60
10
120
20
-50
10
117.75000000000003
20
-60
0
LWPOLYLINE
5
285
100
AcDbEntity
8
0
100
AcDbPolyline
90
4
70
1
43
0.0
10
148.50000000000006
20
-70
10
150.75000000000003
20
-60
10
148.5
20
-50
10
146.25000000000003
20
-60
0
LWPOLYLINE
5
286
100
AcDbEntity
8
0
100
AcDbPolyline
90
4
70
1
43
0.0
10
325.62399999999997
20
-70
10
327.87399999999991
20
-60
10
325.62399999999991
20
-50
10
323.37399999999991
20
-60
0
LWPOLYLINE
5
287
100
AcDbEntity
8
0
100
AcDbPolyline
90
4
70
1
43
0.0
10
306.62399999999997
20
-70
10
308.87399999999991
20
-60
10
306.62399999999997
20
-50
10
304.37399999999991
20
-60
0
LWPOLYLINE
5
288
100
AcDbEntity
8
0
100
AcDbPolyline
90
4
70
1
43
0.0
10
373.12399999999997
20
-40
10
375.37399999999991
20
-30
10
373.12399999999991
20
-20
10
370.87399999999991
20
-30
0
LWPOLYLINE
5
289
100
AcDbEntity
8
0
100
AcDbPolyline
90
4
70
1
43
0.0
10
401.62399999999991
20
-40
10
403.87399999999985
20
-30
10
401.62399999999985
20
-20
10
399.3739999999998
20
-30
0
LWPOLYLINE
5
290
100
AcDbEntity
8
0
100
AcDbPolyline
90
4
70
1
43
0.0
10
392.12399999999991
20
-70
10
394.3739999999998
20
-60
10
392.12399999999991
20
-50
10
389.8739999999998
20
-60
0
LWPOLYLINE
5
291
100
AcDbEntity
8
0
100
AcDbPolyline
90
4
70
1
43
0.0
10
363.62399999999991
20
-40
10
365.87399999999991
20
-30
10
363.62399999999985
20
-20
10
361.37399999999985
20
-30
0
LWPOLYLINE
5
292
100
AcDbEntity
8
0
100
AcDbPolyline
90
4
70
1
43
0.0
10
411.12399999999991
20
-40
10
413.37399999999991
20
-30
10
411.12399999999985
20
-20
10
408.87399999999985
20
-30
0
LWPOLYLINE
5
293
100
AcDbEntity
8
0
100
AcDbPolyline
90
4
70
1
43
0.0
10
158.00000000000006
20
-70
10
160.25000000000003
20
-60
10
158
20
-50
10
155.75000000000003
20
-60
0
LWPOLYLINE
5
294
100
AcDbEntity
8
0
100
AcDbPolyline
90
4
70
1
43
0.0
10
316.12399999999997
20
-40
10
318.37399999999991
20
-30
10
316.12399999999991
20
-20
10
313.87399999999991
20
-30
0
LWPOLYLINE
5
295
100
AcDbEntity
8
0
100
AcDbPolyline
90
4
70
1
43
0.0
10
325.62399999999997
20
-40
10
327.87399999999991
20
-30
10
325.62399999999991
20
-20
10
323.37399999999991
20
-30
0
LWPOLYLINE
5
296
100
AcDbEntity
8
0
100
AcDbPolyline
90
4
70
1
43
0.0
10
-381.74774946334031
20
-39.999999999999957
10
-379.49774946334031
20
-29.999999999999961
10
-381.74774946334031
20
-19.999999999999961
10
-383.99774946334037
20
-29.999999999999961
0
LWPOLYLINE
5
297
100
AcDbEntity
8
0
100
AcDbPolyline
90
4
70
1
43
0.0
10
-410.24774946334043
20
-69.999999999999972
10
-407.99774946334037
20
-59.999999999999964
10
-410.24774946334043
20
-49.999999999999964
10
-412.49774946334043
20
-59.999999999999964
0
LWPOLYLINE
5
298
100
AcDbEntity
8
0
100
AcDbPolyline
90
4
70
1
43
0.0
10
-419.74774946334043
20
-69.999999999999972
10
-417.49774946334043
20
-59.999999999999964
10
-419.74774946334043
20
-49.999999999999964
10
-421.99774946334048
20
-59.999999999999964
0
LWPOLYLINE
5
299
100
AcDbEntity
8
0
100
AcDbPolyline
90
4
70
1
43
0.0
10
-362.74774946334026
20
-39.999999999999957
10
-360.49774946334026
20
-29.999999999999961
10
-362.74774946334026
20
-19.999999999999961
10
-364.99774946334026
20
-29.999999999999961
0
LWPOLYLINE
5
300
100
AcDbEntity
8
0
100
AcDbPolyline
90
4
70
1
43
0.0
10
-324.74774946334014
20
-69.999999999999972
10
-322.49774946334014
20
-59.999999999999964
10
-324.74774946334014
20
-49.999999999999964
10
-326.99774946334014
20
-59.999999999999964
0
LWPOLYLINE
5
301
100
AcDbEntity
8
0
100
AcDbPolyline
90
4
70
1
43
0.0
10
-286.74774946334003
20
-39.999999999999957
10
-284.49774946334003
20
-29.999999999999961
10
-286.74774946334003
20
-19.999999999999961
10
-288.99774946334003
20
-29.999999999999961
0
LWPOLYLINE
5
302
100
AcDbEntity
8
0
100
AcDbPolyline
90
4
70
1
43
0.0
10
82.000000000000043
20
-70
10
84.25
20
-60
10
82.000000000000014
20
-50
10
79.750000000000028
20
-60
0
LWPOLYLINE
5
303
100
AcDbEntity
8
0
100
AcDbPolyline
90
4
70
1
43
0.0
10
101.00000000000006
20
-40
10
103.25000000000001
20
-30
10
101.00000000000001
20
-19.999999999999996
10
98.750000000000028
20
-30
0
LWPOLYLINE
5
304
100
AcDbEntity
8
0
100
AcDbPolyline
90
4
70
1
43
0.0
10
-38.12387473167032
20
-70
10
-35.873874731670377
20
-60
10
-38.123874731670355
20
-50
10
-40.373874731670369
20
-60
0
LWPOLYLINE
5
305
100
AcDbEntity
8
0
100
AcDbPolyline
90
4
70
1
43
0.0
10
72.500000000000043
20
-70
10
74.75
20
-60
10
72.500000000000014
20
-50
10
70.250000000000028
20
-60
0
LWPOLYLINE
5
306
100
AcDbEntity
8
0
100
AcDbPolyline
90
4
70
1
43
0.0
10
44.000000000000043
20
-40
10
46.25
20
-30
10
44
20
-19.999999999999996
10
41.750000000000028
20
-30
0
LWPOLYLINE
5
307
100
AcDbEntity
8
0
100
AcDbPolyline
90
4
70
1
43
0.0
10
-57.123874731670305
20
-70
10
-54.873874731670362
20
-60
10
-57.123874731670341
20
-50
10
-59.373874731670355
20
-60
0
LWPOLYLINE
5
308
100
AcDbEntity
8
0
100
AcDbPolyline
90
4
70
1
43
0.0
10
-85.623874731670284
20
-70
10
-83.373874731670341
20
-60
10
-85.623874731670327
20
-50
10
-87.873874731670327
20
-60
0
LWPOLYLINE
5
309
100
AcDbEntity
8
0
100
AcDbPolyline
90
4
70
1
43
0.0
10
-47.623874731670313
20
-40
10
-45.373874731670369
20
-30
10
-47.623874731670348
20
-20
10
-49.873874731670362
20
-30
0
LWPOLYLINE
5
310
100
AcDbEntity
8
0
100
AcDbPolyline
90
4
70
1
43
0.0
10
-161.62387473167024
20
-70
10
-159.3738747316703
20
-60
10
-161.62387473167027
20
-50
10
-163.87387473167027
20
-60
0
LWPOLYLINE
5
311
100
AcDbEntity
8
0
100
AcDbPolyline
90
4
70
1
43
0.0
10
-95.12387473167027
20
-40
10
-92.873874731670327
20
-30
10
-95.123874731670313
20
-20
10
-97.373874731670327
20
-30
0
LWPOLYLINE
5
312
100
AcDbEntity
8
0
100
AcDbPolyline
90
4
70
1
43
0.0
10
-123.62387473167026
20
-70
10
-121.37387473167031
20
-60
10
-123.6238747316703
20
-50
10
-125.8738747316703
20
-60
0
LWPOLYLINE
5
313
100
AcDbEntity
8
0
100
AcDbPolyline
90
4
70
1
43
0.0
10
63.000000000000043
20
-70
10
65.25
20
-60
10
63.000000000000007
20
-50
10
60.750000000000028
20
-60
0
LWPOLYLINE
5
314
100
AcDbEntity
8
0
100
AcDbPolyline
90
4
70
1
43
0.0
10
53.500000000000043
20
-70
10
55.75
20
-60
10
53.500000000000007
20
-50
10
51.250000000000028
20
-60
0
LWPOLYLINE
5
315
100
AcDbEntity
8
0
100
AcDbPolyline
90
4
70
1
43
0.0
10
-104.62387473167027
20
-40
10
-102.37387473167033
20
-30
10
-104.6238747316703
20
-20
10
-106.87387473167033
20
-30
0
LWPOLYLINE
5
316
100
AcDbEntity
8
0
100
AcDbPolyline
90
4
70
1
43
0.0
10
-57.123874731670305
20
-40
10
-54.873874731670362
20
-30
10
-57.123874731670341
20
-20
10
-59.373874731670355
20
-30
0
LWPOLYLINE
5
317
100
AcDbEntity
8
0
100
AcDbPolyline
90
4
70
1
43
0.0
10
-104.62387473167027
20
-70
10
-102.37387473167033
20
-60
10
-104.6238747316703
20
-50
10
-106.87387473167033
20
-60
0
LWPOLYLINE
5
318
100
AcDbEntity
8
0
100
AcDbPolyline
90
4
70
1
43
0.0
10
-95.12387473167027
20
-70
10
-92.873874731670327
20
-60
10
-95.123874731670313
20
-50
10
-97.373874731670327
20
-60
0
LWPOLYLINE
5
319
100
AcDbEntity
8
0
100
AcDbPolyline
90
4
70
1
43
0.0
10
91.500000000000057
20
-70
10
93.75
20
-60
10
91.500000000000028
20
-50
10
89.250000000000043
20
-60
0
LWPOLYLINE
5
320
100
AcDbEntity
8
0
100
AcDbPolyline
90
4
70
1
43
0.0
10
101.00000000000006
20
-70
10
103.25000000000001
20
-60
10
101.00000000000001
20
-50
10
98.750000000000028
20
-60
0
LWPOLYLINE
5
321
100
AcDbEntity
8
0
100
AcDbPolyline
90
4
70
1
43
0.0
10
72.500000000000043
20
-40
10
74.75
20
-30
10
72.500000000000014
20
-19.999999999999996
10
70.250000000000028
20
-30
0
LWPOLYLINE
5
322
100
AcDbEntity
8
0
100
AcDbPolyline
90
4
70
1
43
0.0
10
-305.74774946334009
20
-69.999999999999972
10
-303.49774946334009
20
-59.999999999999964
10
-305.74774946334009
20
-49.999999999999964
10
-307.99774946334014
20
-59.999999999999964
0
LWPOLYLINE
5
323
100
AcDbEntity
8
0
100
AcDbPolyline
90
4
70
1
43
0.0
10
-277.24774946334003
20
-39.999999999999957
10
-274.99774946334003
20
-29.999999999999961
10
-277.24774946334003
20
-19.999999999999961
10
-279.49774946334003
20
-29.999999999999961
0
LWPOLYLINE
5
324
100
AcDbEntity
8
0
100
AcDbPolyline
90
4
70
1
43
0.0
10
-315.24774946334014
20
-39.999999999999957
10
-312.99774946334014
20
-29.999999999999961
10
-315.24774946334014
20
-19.999999999999961
10
-317.49774946334014
20
-29.999999999999961
0
LWPOLYLINE
5
325
100
AcDbEntity
8
0
100
AcDbPolyline
90
4
70
1
43
0.0
10
-334.2477494633402
20
-69.999999999999972
10
-331.99774946334014
20
-59.999999999999964
10
-334.2477494633402
20
-49.999999999999964
10
-336.4977494633402
20
-59.999999999999964
0
LWPOLYLINE
5
326
100
AcDbEntity
8
0
100
AcDbPolyline
90
4
70
1
43
0.0
10
-400.74774946334037
20
-69.999999999999972
10
-398.49774946334037
20
-59.999999999999964
10
-400.74774946334037
20
-49.999999999999964
10
-402.99774946334037
20
-59.999999999999964
0
LWPOLYLINE
5
327
100
AcDbEntity
8
0
100
AcDbPolyline
90
4
70
1
43
0.0
10
-372.24774946334031
20
-39.999999999999957
10
-369.99774946334026
20
-29.999999999999961
10
-372.24774946334031
20
-19.999999999999961
10
-374.49774946334031
20
-29.999999999999961
0
LWPOLYLINE
5
328
100
AcDbEntity
8
0
100
AcDbPolyline
90
4
70
1
43
0.0
10
-353.24774946334026
20
-39.999999999999957
10
-350.99774946334026
20
-29.999999999999961
10
-353.24774946334026
20
-19.999999999999961
10
-355.49774946334026
20
-29.999999999999961
0
LWPOLYLINE
5
329
100
AcDbEntity
8
0
100
AcDbPolyline
90
4
70
1
43
0.0
10
-353.24774946334026
20
-69.999999999999972
10
-350.99774946334026
20
-59.999999999999964
10
-353.24774946334026
20
-49.999999999999964
10
-355.49774946334026
20
-59.999999999999964
0
LWPOLYLINE
5
330
100
AcDbEntity
8
0
100
AcDbPolyline
90
4
70
1
43
0.0
10
344.62399999999997
20
-40
10
346.87399999999991
20
-30
10
344.62399999999997
20
-20
10
342.37399999999991
20
-30
0
LWPOLYLINE
5
331
100
AcDbEntity
8
0
100
AcDbPolyline
90
4
70
1
43
0.0
10
354.12399999999991
20
-70
10
356.37399999999985
20
-60
10
354.12399999999991
20
-50
10
351.8739999999998
20
-60
0
LWPOLYLINE
5
332
100
AcDbEntity
8
0
100
AcDbPolyline
90
4
70
1
43
0.0
10
259.12400000000002
20
-70
10
261.37399999999997
20
-60
10
259.12399999999997
20
-50
10
256.87399999999997
20
-60
0
LWPOLYLINE
5
333
100
AcDbEntity
8
0
100
AcDbPolyline
90
4
70
1
43
0.0
10
278.12400000000002
20
-70
10
280.37399999999997
20
-60
10
278.12399999999997
20
-50
10
275.87399999999997
20
-60
0
LWPOLYLINE
5
334
100
AcDbEntity
8
0
100
AcDbPolyline
90
4
70
1
43
0.0
10
382.62399999999991
20
-40
10
384.87399999999985
20
-30
10
382.62399999999991
20
-20
10
380.37399999999991
20
-30
0
LWPOLYLINE
5
335
100
AcDbEntity
8
0
100
AcDbPolyline
90
4
70
1
43
0.0
10
268.62400000000002
20
-70
10
270.87399999999997
20
-60
10
268.62399999999997
20
-50
10
266.37399999999997
20
-60
0
LWPOLYLINE
5
336
100
AcDbEntity
8
0
100
AcDbPolyline
90
4
70
1
43
0.0
10
344.62399999999997
20
-70
10
346.87399999999991
20
-60
10
344.62399999999997
20
-50
10
342.37399999999991
20
-60
0
LWPOLYLINE
5
337
100
AcDbEntity
8
0
100
AcDbPolyline
90
4
70
1
43
0.0
10
-152.12387473167024
20
-40
10
-149.8738747316703
20
-30
10
-152.12387473167027
20
-20
10
-154.3738747316703
20
-30
0
LWPOLYLINE
5
338
100
AcDbEntity
8
0
100
AcDbPolyline
90
4
70
1
43
0.0
10
-171.12387473167021
20
-70
10
-168.87387473167027
20
-60
10
-171.12387473167024
20
-50
10
-173.37387473167027
20
-60
0
LWPOLYLINE
5
339
100
AcDbEntity
8
0
100
AcDbPolyline
90
4
70
1
43
0.0
10
-410.24774946334043
20
-39.999999999999957
10
-407.99774946334037
20
-29.999999999999961
10
-410.24774946334043
20
-19.999999999999961
10
-412.49774946334043
20
-29.999999999999961
0
LWPOLYLINE
5
340
100
AcDbEntity
8
0
100
AcDbPolyline
90
4
70
1
43
0.0
10
-405.49774946334048
20
-85
10
-403.24774946334037
20
-75
10
-405.49774946334048
20
-65
10
-407.74774946334043
20
-75
0
LWPOLYLINE
5
341
100
AcDbEntity
8
0
100
AcDbPolyline
90
4
70
1
43
0.0
10
-348.49774946334031
20
-85
10
-346.2477494633402
20
-75
10
-348.49774946334031
20
-65
10
-350.74774946334026
20
-75
0
LWPOLYLINE
5
342
100
AcDbEntity
8
0
100
AcDbPolyline
90
4
70
1
43
0.0
10
-329.49774946334026
20
-24.999999999999996
10
-327.24774946334014
20
-15
10
-329.49774946334026
20
-4.9999999999999956
10
-331.7477494633402
20
-15
0
LWPOLYLINE
5
343
100
AcDbEntity
8
0
100
AcDbPolyline
90
4
70
1
43
0.0
10
-348.49774946334031
20
-55
10
-346.2477494633402
20
-45
10
-348.49774946334031
20
-34.999999999999993
10
-350.74774946334026
20
-45
0
LWPOLYLINE
5
344
100
AcDbEntity
8
0
100
AcDbPolyline
90
4
70
1
43
0.0
10
-367.49774946334037
20
-24.999999999999996
10
-365.24774946334026
20
-15
10
-367.49774946334037
20
-4.9999999999999956
10
-369.74774946334031
20
-15
0
LWPOLYLINE
5
345
100
AcDbEntity
8
0
100
AcDbPolyline
90
4
70
1
43
0.0
10
-357.99774946334031
20
-85
10
-355.74774946334026
20
-75
10
-357.99774946334031
20
-65
10
-360.24774946334026
20
-75
0
LWPOLYLINE
5
346
100
AcDbEntity
8
0
100
AcDbPolyline
90
4
70
1
43
0.0
10
-386.49774946334043
20
-24.999999999999996
10
-384.24774946334031
20
-15
10
-386.49774946334043
20
-4.9999999999999956
10
-388.74774946334037
20
-15
0
LWPOLYLINE
5
347
100
AcDbEntity
8
0
100
AcDbPolyline
90
4
70
1
43
0.0
10
-338.99774946334026
20
-55
10
-336.7477494633402
20
-45
10
-338.99774946334026
20
-34.999999999999993
10
-341.2477494633402
20
-45
0
LWPOLYLINE
5
348
100
AcDbEntity
8
0
100
AcDbPolyline
90
4
70
1
43
0.0
10
-272.49774946334009
20
-24.999999999999996
10
-270.24774946333997
20
-15
10
-272.49774946334009
20
-4.9999999999999956
10
-274.74774946334003
20
-15
0
LWPOLYLINE
5
349
100
AcDbEntity
8
0
100
AcDbPolyline
90
4
70
1
43
0.0
10
-338.99774946334026
20
-24.999999999999996
10
-336.7477494633402
20
-15
10
-338.99774946334026
20
-4.9999999999999956
10
-341.2477494633402
20
-15
0
LWPOLYLINE
5
350
100
AcDbEntity
8
0
100
AcDbPolyline
90
4
70
1
43
0.0
10
-64.123874731670369
20
-15
10
-61.87387473167032
20
-25
10
-59.62387473167027
20
-15
10
-61.87387473167032
20
-5
0
LWPOLYLINE
5
351
100
AcDbEntity
8
0
100
AcDbPolyline
90
4
70
1
43
0.0
10
-168.6238747316703
20
-45
10
-166.37387473167024
20
-55
10
-164.12387473167018
20
-45
10
-166.37387473167024
20
-35
0
LWPOLYLINE
5
352
100
AcDbEntity
8
0
100
AcDbPolyline
90
4
70
1
43
0.0
10
-149.6238747316703
20
-45
10
-147.37387473167024
20
-55
10
-145.12387473167021
20
-45
10
-147.37387473167024
20
-35
0
LWPOLYLINE
5
353
100
AcDbEntity
8
0
100
AcDbPolyline
90
4
70
1
43
0.0
10
-54.623874731670377
20
-15
10
-52.373874731670327
20
-25
10
-50.123874731670277
20
-15
10
-52.373874731670327
20
-5
0
LWPOLYLINE
5
354
100
AcDbEntity
8
0
100
AcDbPolyline
90
4
70
1
43
0.0
10
-329.49774946334026
20
-85
10
-327.24774946334014
20
-75
10
-329.49774946334026
20
-65
10
-331.7477494633402
20
-75
0
LWPOLYLINE
5
355
100
AcDbEntity
8
0
100
AcDbPolyline
90
4
70
1
43
0.0
10
-291.49774946334014
20
-85
10
-289.24774946334003
20
-75
10
-291.49774946334014
20
-65
10
-293.74774946334009
20
-75
0
LWPOLYLINE
5
356
100
AcDbEntity
8
0
100
AcDbPolyline
90
4
70
1
43
0.0
10
-159.1238747316703
20
-15
10
-156.87387473167024
20
-25
10
-154.62387473167018
20
-15
10
-156.87387473167024
20
-5
0
LWPOLYLINE
5
357
100
AcDbEntity
8
0
100
AcDbPolyline
90
4
70
1
43
0.0
10
-111.62387473167033
20
-15
10
-109.37387473167028
20
-25
10
-107.12387473167024
20
-15
10
-109.37387473167028
20
-5
0
LWPOLYLINE
5
358
100
AcDbEntity
8
0
100
AcDbPolyline
90
4
70
1
43
0.0
10
-73.623874731670355
20
-45
10
-71.373874731670313
20
-55
10
-69.12387473167027
20
-45
10
-71.373874731670313
20
-35
0
LWPOLYLINE
5
359
100
AcDbEntity
8
0
100
AcDbPolyline
90
4
70
1
43
0.0
10
-121.12387473167033
20
-45
10
-118.87387473167027
20
-55
10
-116.62387473167023
20
-45
10
-118.87387473167027
20
-35
0
LWPOLYLINE
5
360
100
AcDbEntity
8
0
100
AcDbPolyline
90
4
70
1
43
0.0
10
-140.1238747316703
20
-45
10
-137.87387473167027
20
-55
10
-135.62387473167021
20
-45
10
-137.87387473167027
20
-35
0
LWPOLYLINE
5
361
100
AcDbEntity
8
0
100
AcDbPolyline
90
4
70
1
43
0.0
10
-187.62387473167027
20
-45
10
-185.37387473167024
20
-55
10
-183.12387473167018
20
-45
10
-185.37387473167024
20
-35
0
LWPOLYLINE
5
362
100
AcDbEntity
8
0
100
AcDbPolyline
90
4
70
1
43
0.0
10
122.50000000000001
20
-15
10
124.75000000000001
20
-25
10
127.00000000000001
20
-15
10
124.75
20
-5
0
LWPOLYLINE
5
363
100
AcDbEntity
8
0
100
AcDbPolyline
90
4
70
1
43
0.0
10
113.00000000000003
20
-45
10
115.25000000000003
20
-55
10
117.50000000000001
20
-45
10
115.25
20
-35
0
LWPOLYLINE
5
364
100
AcDbEntity
8
0
100
AcDbPolyline
90
4
70
1
43
0.0
10
122.50000000000001
20
-45
10
124.75000000000001
20
-55
10
127.00000000000001
20
-45
10
124.75
20
-35
0
LWPOLYLINE
5
365
100
AcDbEntity
8
0
100
AcDbPolyline
90
4
70
1
43
0.0
10
309.12387473167024
20
-75
10
311.37387473167018
20
-85
10
313.62387473167024
20
-75
10
311.37387473167018
20
-65
0
LWPOLYLINE
5
366
100
AcDbEntity
8
0
100
AcDbPolyline
90
4
70
1
43
0.0
10
132
20
-15
10
134.25
20
-25
10
136.50000000000003
20
-15
10
134.25000000000003
20
-5
0
LWPOLYLINE
5
367
100
AcDbEntity
8
0
100
AcDbPolyline
90
4
70
1
43
0.0
10
318.62387473167024
20
-15
10
320.87387473167018
20
-25
10
323.12387473167018
20
-15
10
320.87387473167018
20
-5.0000000000000044
0
LWPOLYLINE
5
368
100
AcDbEntity
8
0
100
AcDbPolyline
90
4
70
1
43
0.0
10
375.62387473167018
20
-45
10
377.87387473167018
20
-55
10
380.12387473167018
20
-45
10
377.87387473167018
20
-35.000000000000007
0
LWPOLYLINE
5
369
100
AcDbEntity
8
0
100
AcDbPolyline
90
4
70
1
43
0.0
10
271.12387473167024
20
-45
10
273.37387473167024
20
-55
10
275.62387473167024
20
-45
10
273.37387473167024
20
-35.000000000000007
0
LWPOLYLINE
5
370
100
AcDbEntity
8
0
100
AcDbPolyline
90
4
70
1
43
0.0
10
280.62387473167024
20
-45
10
282.87387473167024
20
-55
10
285.12387473167024
20
-45
10
282.87387473167024
20
-35.000000000000007
0
LWPOLYLINE
5
371
100
AcDbEntity
8
0
100
AcDbPolyline
90
4
70
1
43
0.0
10
413.62387473167018
20
-75
10
415.87387473167013
20
-85
10
418.12387473167013
20
-75
10
415.87387473167013
20
-65
0
LWPOLYLINE
5
372
100
AcDbEntity
8
0
100
AcDbPolyline
90
4
70
1
43
0.0
10
299.62387473167024
20
-45
10
301.87387473167018
20
-55
10
304.12387473167024
20
-45
10
301.87387473167018
20
-35.000000000000007
0
LWPOLYLINE
5
373
100
AcDbEntity
8
0
100
AcDbPolyline
90
4
70
1
43
0.0
10
366.12387473167018
20
-75
10
368.37387473167013
20
-85
10
370.62387473167018
20
-75
10
368.37387473167013
20
-65
0
LWPOLYLINE
5
374
100
AcDbEntity
8
0
100
AcDbPolyline
90
4
70
1
43
0.0
10
261.62387473167024
20
-45
10
263.87387473167024
20
-55
10
266.12387473167024
20
-45
10
263.87387473167024
20
-35.000000000000007
0
LWPOLYLINE
5
375
100
AcDbEntity
8
0
100
AcDbPolyline
90
4
70
1
43
0.0
10
-54.623874731670377
20
-45
10
-52.373874731670327
20
-55
10
-50.123874731670277
20
-45
10
-52.373874731670327
20
-35
0
LWPOLYLINE
5
376
100
AcDbEntity
8
0
100
AcDbPolyline
90
4
70
1
43
0.0
10
-92.623874731670355
20
-75
10
-90.373874731670298
20
-85
10
-88.123874731670242
20
-75
10
-90.373874731670298
20
-65
0
LWPOLYLINE
5
377
100
AcDbEntity
8
0
100
AcDbPolyline
90
4
70
1
43
0.0
10
-64.123874731670369
20
-45
10
-61.87387473167032
20
-55
10
-59.62387473167027
20
-45
10
-61.87387473167032
20
-35
0
LWPOLYLINE
5
378
100
AcDbEntity
8
0
100
AcDbPolyline
90
4
70
1
43
0.0
10
94
20
-75
10
96.25
20
-85
10
98.500000000000014
20
-75
10
96.250000000000014
20
-65
0
LWPOLYLINE
5
379
100
AcDbEntity
8
0
100
AcDbPolyline
90
4
70
1
43
0.0
10
-64.123874731670369
20
-75
10
-61.87387473167032
20
-85
10
-59.62387473167027
20
-75
10
-61.87387473167032
20
-65
0
LWPOLYLINE
5
380
100
AcDbEntity
8
0
100
AcDbPolyline
90
4
70
1
43
0.0
10
170
20
-45
10
172.25
20
-55
10
174.50000000000003
20
-45
10
172.25
20
-35
0
LWPOLYLINE
5
381
100
AcDbEntity
8
0
100
AcDbPolyline
90
4
70
1
43
0.0
10
46.5
20
-75
10
48.75
20
-85
10
51.000000000000007
20
-75
10
48.75
20
-65
0
LWPOLYLINE
5
382
100
AcDbEntity
8
0
100
AcDbPolyline
90
4
70
1
43
0.0
10
151.00000000000003
20
-75
10
153.25000000000003
20
-85
10
155.50000000000003
20
-75
10
153.25
20
-65
0
LWPOLYLINE
5
383
100
AcDbEntity
8
0
100
AcDbPolyline
90
4
70
1
43
0.0
10
37
20
-45
10
39.25
20
-55
10
41.5
20
-45
10
39.25
20
-35
0
LWPOLYLINE
5
384
100
AcDbEntity
8
0
100
AcDbPolyline
90
4
70
1
43
0.0
10
103.50000000000001
20
-45
10
105.75000000000001
20
-55
10
108
20
-45
10
105.75000000000001
20
-35
0
LWPOLYLINE
5
385
100
AcDbEntity
8
0
100
AcDbPolyline
90
4
70
1
43
0.0
10
132
20
-75
10
134.25
20
-85
10
136.50000000000003
20
-75
10
134.25000000000003
20
-65
0
LWPOLYLINE
5
386
100
AcDbEntity
8
0
100
AcDbPolyline
90
4
70
1
43
0.0
10
94
20
-45
10
96.25
20
-55
10
98.500000000000014
20
-45
10
96.250000000000014
20
-35
0
LWPOLYLINE
5
387
100
AcDbEntity
8
0
100
AcDbPolyline
90
4
70
1
43
0.0
10
65.5
20
-45
10
67.75
20
-55
10
70.000000000000014
20
-45
10
67.75
20
-35
0
LWPOLYLINE
5
388
100
AcDbEntity
8
0
100
AcDbPolyline
90
4
70
1
43
0.0
10
290.12387473167024
20
-15
10
292.37387473167024
20
-25
10
294.62387473167024
20
-15
10
292.37387473167024
20
-5.0000000000000044
0
LWPOLYLINE
5
389
100
AcDbEntity
8
0
100
AcDbPolyline
90
4
70
1
43
0.0
10
394.62387473167013
20
-15
10
396.87387473167013
20
-25
10
399.12387473167018
20
-15
10
396.87387473167013
20
-5.0000000000000044
0
LWPOLYLINE
5
390
100
AcDbEntity
8
0
100
AcDbPolyline
90
4
70
1
43
0.0
10
271.12387473167024
20
-15
10
273.37387473167024
20
-25
10
275.62387473167024
20
-15
10
273.37387473167024
20
-5.0000000000000044
0
LWPOLYLINE
5
391
100
AcDbEntity
8
0
100
AcDbPolyline
90
4
70
1
43
0.0
10
299.62387473167024
20
-15
10
301.87387473167018
20
-25
10
304.12387473167024
20
-15
10
301.87387473167018
20
-5.0000000000000044
0
LWPOLYLINE
5
392
100
AcDbEntity
8
0
100
AcDbPolyline
90
4
70
1
43
0.0
10
356.62387473167018
20
-15
10
358.87387473167018
20
-25
10
361.12387473167018
20
-15
10
358.87387473167018
20
-5.0000000000000044
0
LWPOLYLINE
5
393
100
AcDbEntity
8
0
100
AcDbPolyline
90
4
70
1
43
0.0
10
189.00000000000006
20
-75
10
191.25000000000003
20
-85
10
193.5
20
-75
10
191.25
20
-65
0
LWPOLYLINE
5
394
100
AcDbEntity
8
0
100
AcDbPolyline
90
4
70
1
43
0.0
10
189.00000000000006
20
-45
10
191.25000000000003
20
-55
10
193.5
20
-45
10
191.25
20
-35
0
LWPOLYLINE
5
395
100
AcDbEntity
8
0
100
AcDbPolyline
90
4
70
1
43
0.0
10
170
20
-75
10
172.25
20
-85
10
174.50000000000003
20
-75
10
172.25
20
-65
0
LWPOLYLINE
5
396
100
AcDbEntity
8
0
100
AcDbPolyline
90
4
70
1
43
0.0
10
122.50000000000001
20
-75
10
124.75000000000001
20
-85
10
127.00000000000001
20
-75
10
124.75
20
-65
0
LWPOLYLINE
5
397
100
AcDbEntity
8
0
100
AcDbPolyline
90
4
70
1
43
0.0
10
65.5
20
-15
10
67.75
20
-25
10
70.000000000000014
20
-15
10
67.75
20
-5
0
LWPOLYLINE
5
398
100
AcDbEntity
8
0
100
AcDbPolyline
90
4
70
1
43
0.0
10
84.500000000000014
20
-45
10
86.75
20
-55
10
89.000000000000028
20
-45
10
86.75
20
-35
0
LWPOLYLINE
5
399
100
AcDbEntity
8
0
100
AcDbPolyline
90
4
70
1
43
0.0
10
84.500000000000014
20
-15
10
86.75
20
-25
10
89.000000000000028
20
-15
10
86.75
20
-5
0
LWPOLYLINE
5
400
100
AcDbEntity
8
0
100
AcDbPolyline
90
4
70
1
43
0.0
10
179.50000000000003
20
-45
10
181.75000000000006
20
-55
10
184.00000000000006
20
-45
10
181.75000000000006
20
-35
0
LWPOLYLINE
5
401
100
AcDbEntity
8
0
100
AcDbPolyline
90
4
70
1
43
0.0
10
84.500000000000014
20
-75
10
86.75
20
-85
10
89.000000000000028
20
-75
10
86.75
20
-65
0
LWPOLYLINE
5
402
100
AcDbEntity
8
0
100
AcDbPolyline
90
4
70
1
43
0.0
10
-35.623874731670391
20
-75
10
-33.373874731670341
20
-85
10
-31.123874731670291
20
-75
10
-33.373874731670341
20
-65
0
LWPOLYLINE
5
403
100
AcDbEntity
8
0
100
AcDbPolyline
90
4
70
1
43
0.0
10
65.5
20
-75
10
67.75
20
-85
10
70.000000000000014
20
-75
10
67.75
20
-65
0
LWPOLYLINE
5
404
100
AcDbEntity
8
0
100
AcDbPolyline
90
4
70
1
43
0.0
10
-54.623874731670377
20
-75
10
-52.373874731670327
20
-85
10
-50.123874731670277
20
-75
10
-52.373874731670327
20
-65
0
LWPOLYLINE
5
405
100
AcDbEntity
8
0
100
AcDbPolyline
90
4
70
1
43
0.0
10
-111.62387473167033
20
-75
10
-109.37387473167028
20
-85
10
-107.12387473167024
20
-75
10
-109.37387473167028
20
-65
0
LWPOLYLINE
5
406
100
AcDbEntity
8
0
100
AcDbPolyline
90
4
70
1
43
0.0
10
318.62387473167024
20
-45
10
320.87387473167018
20
-55
10
323.12387473167018
20
-45
10
320.87387473167018
20
-35.000000000000007
0
LWPOLYLINE
5
407
100
AcDbEntity
8
0
100
AcDbPolyline
90
4
70
1
43
0.0
10
375.62387473167018
20
-75
10
377.87387473167018
20
-85
10
380.12387473167018
20
-75
10
377.87387473167018
20
-65
0
LWPOLYLINE
5
408
100
AcDbEntity
8
0
100
AcDbPolyline
90
4
70
1
43
0.0
10
347.1238747316703
20
-75
10
349.37387473167018
20
-85
10
351.62387473167018
20
-75
10
349.37387473167018
20
-65
0
LWPOLYLINE
5
409
100
AcDbEntity
8
0
100
AcDbPolyline
90
4
70
1
43
0.0
10
290.12387473167024
20
-75
10
292.37387473167024
20
-85
10
294.62387473167024
20
-75
10
292.37387473167024
20
-65
0
LWPOLYLINE
5
410
100
AcDbEntity
8
0
100
AcDbPolyline
90
4
70
1
43
0.0
10
261.62387473167024
20
-75
10
263.87387473167024
20
-85
10
266.12387473167024
20
-75
10
263.87387473167024
20
-65
0
LWPOLYLINE
5
411
100
AcDbEntity
8
0
100
AcDbPolyline
90
4
70
1
43
0.0
10
337.62387473167024
20
-45
10
339.87387473167018
20
-55
10
342.12387473167018
20
-45
10
339.87387473167018
20
-35.000000000000007
0
LWPOLYLINE
5
412
100
AcDbEntity
8
0
100
AcDbPolyline
90
4
70
1
43
0.0
10
404.12387473167018
20
-45
10
406.37387473167007
20
-55
10
408.62387473167018
20
-45
10
406.37387473167007
20
-35.000000000000007
0
LWPOLYLINE
5
413
100
AcDbEntity
8
0
100
AcDbPolyline
90
4
70
1
43
0.0
10
356.62387473167018
20
-45
10
358.87387473167018
20
-55
10
361.12387473167018
20
-45
10
358.87387473167018
20
-35.000000000000007
0
LWPOLYLINE
5
414
100
AcDbEntity
8
0
100
AcDbPolyline
90
4
70
1
43
0.0
10
309.12387473167024
20
-15
10
311.37387473167018
20
-25
10
313.62387473167024
20
-15
10
311.37387473167018
20
-5.0000000000000044
0
LWPOLYLINE
5
415
100
AcDbEntity
8
0
100
AcDbPolyline
90
4
70
1
43
0.0
10
132
20
-45
10
134.25
20
-55
10
136.50000000000003
20
-45
10
134.25000000000003
20
-35
0
LWPOLYLINE
5
416
100
AcDbEntity
8
0
100
AcDbPolyline
90
4
70
1
43
0.0
10
299.62387473167024
20
-75
10
301.87387473167018
20
-85
10
304.12387473167024
20
-75
10
301.87387473167018
20
-65
0
LWPOLYLINE
5
417
100
AcDbEntity
8
0
100
AcDbPolyline
90
4
70
1
43
0.0
10
113.00000000000003
20
-15
10
115.25000000000003
20
-25
10
117.50000000000001
20
-15
10
115.25
20
-5
0
LWPOLYLINE
5
418
100
AcDbEntity
8
0
100
AcDbPolyline
90
4
70
1
43
0.0
10
170
20
-15
10
172.25
20
-25
10
174.50000000000003
20
-15
10
172.25
20
-5
0
LWPOLYLINE
5
419
100
AcDbEntity
8
0
100
AcDbPolyline
90
4
70
1
43
0.0
10
-178.1238747316703
20
-15
10
-175.87387473167024
20
-25
10
-173.62387473167018
20
-15
10
-175.87387473167024
20
-5
0
LWPOLYLINE
5
420
100
AcDbEntity
8
0
100
AcDbPolyline
90
4
70
1
43
0.0
10
-168.6238747316703
20
-15
10
-166.37387473167024
20
-25
10
-164.12387473167018
20
-15
10
-166.37387473167024
20
-5
0
LWPOLYLINE
5
421
100
AcDbEntity
8
0
100
AcDbPolyline
90
4
70
1
43
0.0
10
-183.12387473167018
20
-15
10
-185.37387473167024
20
-5
10
-187.62387473167027
20
-15
10
-185.37387473167024
20
-25
0
LWPOLYLINE
5
422
100
AcDbEntity
8
0
100
AcDbPolyline
90
4
70
1
43
0.0
10
-83.123874731670355
20
-45
10
-80.873874731670298
20
-55
10
-78.623874731670256
20
-45
10
-80.873874731670298
20
-35
0
LWPOLYLINE
5
423
100
AcDbEntity
8
0
100
AcDbPolyline
90
4
70
1
43
0.0
10
-159.1238747316703
20
-75
10
-156.87387473167024
20
-85
10
-154.62387473167018
20
-75
10
-156.87387473167024
20
-65
0
LWPOLYLINE
5
424
100
AcDbEntity
8
0
100
AcDbPolyline
90
4
70
1
43
0.0
10
-178.1238747316703
20
-75
10
-175.87387473167024
20
-85
10
-173.62387473167018
20
-75
10
-175.87387473167024
20
-65
0
LWPOLYLINE
5
425
100
AcDbEntity
8
0
100
AcDbPolyline
90
4
70
1
43
0.0
10
-262.99774946334003
20
-55
10
-260.74774946333997
20
-45
10
-262.99774946334003
20
-34.999999999999993
10
-265.24774946333997
20
-45
0
LWPOLYLINE
5
426
100
AcDbEntity
8
0
100
AcDbPolyline
90
4
70
1
43
0.0
10
-73.623874731670355
20
-15
10
-71.373874731670313
20
-25
10
-69.12387473167027
20
-15
10
-71.373874731670313
20
-5
0
LWPOLYLINE
5
427
100
AcDbEntity
8
0
100
AcDbPolyline
90
4
70
1
43
0.0
10
-121.12387473167033
20
-75
10
-118.87387473167027
20
-85
10
-116.62387473167023
20
-75
10
-118.87387473167027
20
-65
0
LWPOLYLINE
5
428
100
AcDbEntity
8
0
100
AcDbPolyline
90
4
70
1
43
0.0
10
-168.6238747316703
20
-75
10
-166.37387473167024
20
-85
10
-164.12387473167018
20
-75
10
-166.37387473167024
20
-65
0
LWPOLYLINE
5
429
100
AcDbEntity
8
0
100
AcDbPolyline
90
4
70
1
43
0.0
10
-130.62387473167033
20
-15
10
-128.37387473167027
20
-25
10
-126.12387473167021
20
-15
10
-128.37387473167027
20
-5
0
LWPOLYLINE
5
430
100
AcDbEntity
8
0
100
AcDbPolyline
90
4
70
1
43
0.0
10
-111.62387473167033
20
-45
10
-109.37387473167028
20
-55
10
-107.12387473167024
20
-45
10
-109.37387473167028
20
-35
0
LWPOLYLINE
5
431
100
AcDbEntity
8
0
100
AcDbPolyline
90
4
70
1
43
0.0
10
-310.4977494633402
20
-24.999999999999996
10
-308.24774946334009
20
-15
10
-310.4977494633402
20
-4.9999999999999956
10
-312.74774946334014
20
-15
0
LWPOLYLINE
5
432
100
AcDbEntity
8
0
100
AcDbPolyline
90
4
70
1
43
0.0
10
-281.99774946334009
20
-24.999999999999996
10
-279.74774946334003
20
-15
10
-281.99774946334009
20
-4.9999999999999956
10
-284.24774946334003
20
-15
0
LWPOLYLINE
5
433
100
AcDbEntity
8
0
100
AcDbPolyline
90
4
70
1
43
0.0
10
-367.49774946334037
20
-85
10
-365.24774946334026
20
-75
10
-367.49774946334037
20
-65
10
-369.74774946334031
20
-75
0
LWPOLYLINE
5
434
100
AcDbEntity
8
0
100
AcDbPolyline
90
4
70
1
43
0.0
10
-262.99774946334003
20
-24.999999999999996
10
-260.74774946333997
20
-15
10
-262.99774946334003
20
-4.9999999999999956
10
-265.24774946333997
20
-15
0
LWPOLYLINE
5
435
100
AcDbEntity
8
0
100
AcDbPolyline
90
4
70
1
43
0.0
10
-300.99774946334014
20
-55
10
-298.74774946334009
20
-45
10
-300.99774946334014
20
-34.999999999999993
10
-303.24774946334009
20
-45
0
LWPOLYLINE
5
436
100
AcDbEntity
8
0
100
AcDbPolyline
90
4
70
1
43
0.0
10
-281.99774946334009
20
-55
10
-279.74774946334003
20
-45
10
-281.99774946334009
20
-34.999999999999993
10
-284.24774946334003
20
-45
0
LWPOLYLINE
5
437
100
AcDbEntity
8
0
100
AcDbPolyline
90
4
70
1
43
0.0
10
-357.99774946334031
20
-55
10
-355.74774946334026
20
-45
10
-357.99774946334031
20
-34.999999999999993
10
-360.24774946334026
20
-45
0
LWPOLYLINE
5
438
100
AcDbEntity
8
0
100
AcDbPolyline
90
4
70
1
43
0.0
10
-376.99774946334037
20
-85
10
-374.74774946334031
20
-75
10
-376.99774946334037
20
-65
10
-379.24774946334031
20
-75
0
LWPOLYLINE
5
439
100
AcDbEntity
8
0
100
AcDbPolyline
90
4
70
1
43
0.0
10
-395.99774946334043
20
-24.999999999999996
10
-393.74774946334037
20
-15
10
-395.99774946334043
20
-4.9999999999999956
10
-398.24774946334037
20
-15
0
LWPOLYLINE
5
440
100
AcDbEntity
8
0
100
AcDbPolyline
90
4
70
1
43
0.0
10
-386.49774946334043
20
-55
10
-384.24774946334031
20
-45
10
-386.49774946334043
20
-34.999999999999993
10
-388.74774946334037
20
-45
0
LWPOLYLINE
5
441
100
AcDbEntity
8
0
100
AcDbPolyline
90
4
70
1
43
0.0
10
-319.9977494633402
20
-24.999999999999996
10
-317.74774946334014
20
-15
10
-319.9977494633402
20
-4.9999999999999956
10
-322.24774946334014
20
-15
0
LWPOLYLINE
5
442
100
AcDbEntity
8
0
100
AcDbPolyline
90
4
70
1
43
0.0
10
-10
20
-20
10
10
20
-20
10
10
20
-10
10
-10
20
-10
0
LINE
5
443
100
AcDbEntity
8
0
100
AcDbLine
10
-379.49774946334031
20
3.9968028886505635e-14
30
0
11
-381.74774946334031
21
-9.9999999999999609
31
0
0
LINE
5
444
100
AcDbEntity
8
0
100
AcDbLine
10
-381.74774946334031
20
-9.9999999999999609
30
0
11
-383.99774946334037
21
3.9968028886505635e-14
31
0
0
LINE
5
445
100
AcDbEntity
8
0
100
AcDbLine
10
-383.99774946334037
20
3.9968028886505635e-14
30
0
11
-388.99774946334037
21
3.9968028886505635e-14
31
0
0
LINE
5
446
100
AcDbEntity
8
0
100
AcDbLine
10
-388.99774946334037
20
3.9968028886505635e-14
30
0
11
-391.24774946334037
21
-9.9999999999999609
31
0
0
LINE
5
447
100
AcDbEntity
8
0
100
AcDbLine
10
-391.24774946334037
20
-9.9999999999999609
30
0
11
-393.49774946334037
21
3.9968028886505635e-14
31
0
0
LINE
5
448
100
AcDbEntity
8
0
100
AcDbLine
10
-393.49774946334037
20
3.9968028886505635e-14
30
0
11
-398.49774946334037
21
3.9968028886505635e-14
31
0
0
LINE
5
449
100
AcDbEntity
8
0
100
AcDbLine
10
-398.49774946334037
20
3.9968028886505635e-14
30
0
11
-400.74774946334037
21
-9.9999999999999609
31
0
0
LINE
5
450
100
AcDbEntity
8
0
100
AcDbLine
10
-400.74774946334037
20
-9.9999999999999609
30
0
11
-402.99774946334037
21
3.9968028886505635e-14
31
0
0
LINE
5
451
100
AcDbEntity
8
0
100
AcDbLine
10
-402.99774946334037
20
3.9968028886505635e-14
30
0
11
-407.99774946334037
21
3.9968028886505635e-14
31
0
0
LINE
5
452
100
AcDbEntity
8
0
100
AcDbLine
10
-407.99774946334037
20
3.9968028886505635e-14
30
0
11
-410.24774946334043
21
-9.9999999999999609
31
0
0
LINE
5
453
100
AcDbEntity
8
0
100
AcDbLine
10
-410.24774946334043
20
-9.9999999999999609
30
0
11
-412.49774946334043
21
3.9968028886505635e-14
31
0
0
LINE
5
454
100
AcDbEntity
8
0
100
AcDbLine
10
-412.49774946334043
20
3.9968028886505635e-14
30
0
11
-417.49774946334043
21
3.9968028886505635e-14
31
0
0
LINE
5
455
100
AcDbEntity
8
0
100
AcDbLine
10
-417.49774946334043
20
3.9968028886505635e-14
30
0
11
-419.74774946334043
21
-9.9999999999999609
31
0
0
LINE
5
456
100
AcDbEntity
8
0
100
AcDbLine
10
-419.74774946334043
20
-9.9999999999999609
30
0
11
-421.99774946334048
21
3.9968028886505635e-14
31
0
0
LINE
5
457
100
AcDbEntity
8
0
100
AcDbLine
10
-421.99774946334048
20
3.9968028886505635e-14
30
0
11
-449.24774946334026
21
0
31
0
0
LINE
5
458
100
AcDbEntity
8
0
100
AcDbLine
10
-449.24774946334026
20
0
30
0
11
-449.24774946334014
21
-9.9999999999960494
31
0
0
LINE
5
459
100
AcDbEntity
8
0
100
AcDbLine
10
-449.24774946334014
20
-9.9999999999960494
30
0
11
-439.24774946333912
21
-9.9999999999960956
31
0
0
LINE
5
460
100
AcDbEntity
8
0
100
AcDbLine
10
-439.24774946333912
20
-9.9999999999960956
30
0
11
-439.24774946333923
21
-19.999999999996096
31
0
0
LINE
5
461
100
AcDbEntity
8
0
100
AcDbLine
10
-439.24774946333923
20
-19.999999999996096
30
0
11
-449.24774946333997
21
-20.000000000003951
31
0
0
LINE
5
462
100
AcDbEntity
8
0
100
AcDbLine
10
-449.24774946333997
20
-20.000000000003951
30
0
11
-449.24774946334037
21
-30
31
0
0
LINE
5
463
100
AcDbEntity
8
0
100
AcDbLine
10
-449.24774946334037
20
-30
30
0
11
-444.24774946333389
21
-30.000000000004306
31
0
0
ARC
5
464
100
AcDbEntity
8
0
100
AcDbCircle
10
-439.91762235607996
20
-32.500000000000078
30
0
40
5.0000000764953629
210
0
220
0
230
1
100
AcDbArc
50
-150.00000050610902
51
150.00000050614551
0
LINE
5
465
100
AcDbEntity
8
0
100
AcDbLine
10
-444.24774946333224
20
-34.999999999998579
30
0
11
-449.24774946333969
21
-34.999999999999986
31
0
0
LINE
5
466
100
AcDbEntity
8
0
100
AcDbLine
10
-449.24774946333969
20
-34.999999999999986
30
0
11
-449.24774946333957
21
-64.999999999999986
31
0
0
LINE
5
467
100
AcDbEntity
8
0
100
AcDbLine
10
-449.24774946333957
20
-64.999999999999986
30
0
11
-444.24774946334111
21
-65.000000000000071
31
0
0
ARC
5
468
100
AcDbEntity
8
0
100
AcDbCircle
10
-439.91762235607996
20
-67.500000000000085
30
0
40
5.0000000764953612
210
0
220
0
230
1
100
AcDbArc
50
-150.00000050610907
51
150.0000005061448
0
LINE
5
469
100
AcDbEntity
8
0
100
AcDbLine
10
-444.24774946333224
20
-69.999999999998579
30
0
11
-449.24774946333969
21
-69.999999999999986
31
0
0
LINE
5
470
100
AcDbEntity
8
0
100
AcDbLine
10
-449.24774946333969
20
-69.999999999999986
30
0
11
-449.2477494633398
21
-99.999999999967343
31
0
0
LINE
5
471
100
AcDbEntity
8
0
100
AcDbLine
10
-449.2477494633398
20
-99.999999999967343
30
0
11
-434.2477494633398
21
-100.00000000003263
31
0
0
LINE
5
472
100
AcDbEntity
8
0
100
AcDbLine
10
-434.2477494633398
20
-100.00000000003263
30
0
11
-434.2477494633398
21
-95.000000000032628
31
0
0
ARC
5
473
100
AcDbEntity
8
0
100
AcDbCircle
10
-431.74774946319729
20
-90.669872984746036
30
0
40
4.9999999969227069
210
0
220
0
230
1
100
AcDbArc
50
-59.999999978253896
51
239.99999997775529
0
LINE
5
474
100
AcDbEntity
8
0
100
AcDbLine
10
-429.24774946309248
20
-95.000000000054371
30
0
11
-429.2477494631255
21
-100.0000000000544
31
0
0
LINE
5
475
100
AcDbEntity
8
0
100
AcDbLine
10
-429.2477494631255
20
-100.0000000000544
30
0
11
-419.74774946334043
21
-99.999999999999972
31
0
0
LINE
5
476
100
AcDbEntity
8
0
100
AcDbLine
10
-419.74774946334043
20
-99.999999999999972
30
0
11
-421.99774946334048
21
-89.999999999999972
31
0
0
LINE
5
477
100
AcDbEntity
8
0
100
AcDbLine
10
-421.99774946334048
20
-89.999999999999972
30
0
11
-419.74774946334043
21
-79.999999999999972
31
0
0
LINE
5
478
100
AcDbEntity
8
0
100
AcDbLine
10
-419.74774946334043
20
-79.999999999999972
30
0
11
-417.49774946334043
21
-89.999999999999972
31
0
0
LINE
5
479
100
AcDbEntity
8
0
100
AcDbLine
10
-417.49774946334043
20
-89.999999999999972
30
0
11
-419.74774946334043
21
-99.999999999999972
31
0
0
LINE
5
480
100
AcDbEntity
8
0
100
AcDbLine
10
-419.74774946334043
20
-99.999999999999972
30
0
11
-410.24774946334043
21
-99.999999999999972
31
0
0
LINE
5
481
100
AcDbEntity
8
0
100
AcDbLine
10
-410.24774946334043
20
-99.999999999999972
30
0
11
-412.49774946334043
21
-89.999999999999972
31
0
0
LINE
5
482
100
AcDbEntity
8
0
100
AcDbLine
10
-412.49774946334043
20
-89.999999999999972
30
0
11
-410.24774946334043
21
-79.999999999999972
31
0
0
LINE
5
483
100
AcDbEntity
8
0
100
AcDbLine
10
-410.24774946334043
20
-79.999999999999972
30
0
11
-407.99774946334037
21
-89.999999999999972
31
0
0
LINE
5
484
100
AcDbEntity
8
0
100
AcDbLine
10
-407.99774946334037
20
-89.999999999999972
30
0
11
-410.24774946334043
21
-99.999999999999972
31
0
0
LINE
5
485
100
AcDbEntity
8
0
100
AcDbLine
10
-410.24774946334043
20
-99.999999999999972
30
0
11
-400.74774946334037
21
-99.999999999999972
31
0
0
LINE
5
486
100
AcDbEntity
8
0
100
AcDbLine
10
-400.74774946334037
20
-99.999999999999972
30
0
11
-402.99774946334037
21
-89.999999999999972
31
0
0
LINE
5
487
100
AcDbEntity
8
0
100
AcDbLine
10
-402.99774946334037
20
-89.999999999999972
30
0
11
-400.74774946334037
21
-79.999999999999972
31
0
0
LINE
5
488
100
AcDbEntity
8
0
100
AcDbLine
10
-400.74774946334037
20
-79.999999999999972
30
0
11
-398.49774946334037
21
-89.999999999999972
31
0
0
LINE
5
489
100
AcDbEntity
8
0
100
AcDbLine
10
-398.49774946334037
20
-89.999999999999972
30
0
11
-400.74774946334037
21
-99.999999999999972
31
0
0
LINE
5
490
100
AcDbEntity
8
0
100
AcDbLine
10
-400.74774946334037
20
-99.999999999999972
30
0
11
-391.24774946334037
21
-99.999999999999972
31
0
0
LINE
5
491
100
AcDbEntity
8
0
100
AcDbLine
10
-391.24774946334037
20
-99.999999999999972
30
0
11
-393.49774946334037
21
-89.999999999999972
31
0
0
LINE
5
492
100
AcDbEntity
8
0
100
AcDbLine
10
-393.49774946334037
20
-89.999999999999972
30
0
11
-391.24774946334037
21
-79.999999999999972
31
0
0
LINE
5
493
100
AcDbEntity
8
0
100
AcDbLine
10
-391.24774946334037
20
-79.999999999999972
30
0
11
-388.99774946334037
21
-89.999999999999972
31
0
0
LINE
5
494
100
AcDbEntity
8
0
100
AcDbLine
10
-388.99774946334037
20
-89.999999999999972
30
0
11
-391.24774946334037
21
-99.999999999999972
31
0
0
LINE
5
495
100
AcDbEntity
8
0
100
AcDbLine
10
-391.24774946334037
20
-99.999999999999972
30
0
11
-381.74774946334031
21
-99.999999999999972
31
0
0
LINE
5
496
100
AcDbEntity
8
0
100
AcDbLine
10
-381.74774946334031
20
-99.999999999999972
30
0
11
-383.99774946334037
21
-89.999999999999972
31
0
0
LINE
5
497
100
AcDbEntity
8
0
100
AcDbLine
10
-383.99774946334037
20
-89.999999999999972
30
0
11
-381.74774946334031
21
-79.999999999999972
31
0
0
LINE
5
498
100
AcDbEntity
8
0
100
AcDbLine
10
-381.74774946334031
20
-79.999999999999972
30
0
11
-379.49774946334031
21
-89.999999999999972
31
0
0
LINE
5
499
100
AcDbEntity
8
0
100
AcDbLine
10
-379.49774946334031
20
-89.999999999999972
30
0
11
-381.74774946334031
21
-99.999999999999972
31
0
0
LINE
5
500
100
AcDbEntity
8
0
100
AcDbLine
10
-381.74774946334031
20
-99.999999999999972
30
0
11
-372.24774946334031
21
-99.999999999999972
31
0
0
LINE
5
501
100
AcDbEntity
8
0
100
AcDbLine
10
-372.24774946334031
20
-99.999999999999972
30
0
11
-374.49774946334031
21
-89.999999999999972
31
0
0
LINE
5
502
100
AcDbEntity
8
0
100
AcDbLine
10
-374.49774946334031
20
-89.999999999999972
30
0
11
-372.24774946334031
21
-79.999999999999972
31
0
0
LINE
5
503
100
AcDbEntity
8
0
100
AcDbLine
10
-372.24774946334031
20
-79.999999999999972
30
0
11
-369.99774946334026
21
-89.999999999999972
31
0
0
LINE
5
504
100
AcDbEntity
8
0
100
AcDbLine
10
-369.99774946334026
20
-89.999999999999972
30
0
11
-372.24774946334031
21
-99.999999999999972
31
0
0
LINE
5
505
100
AcDbEntity
8
0
100
AcDbLine
10
-372.24774946334031
20
-99.999999999999972
30
0
11
-362.74774946334026
21
-99.999999999999972
31
0
0
LINE
5
506
100
AcDbEntity
8
0
100
AcDbLine
10
-362.74774946334026
20
-99.999999999999972
30
0
11
-364.99774946334026
21
-89.999999999999972
31
0
0
LINE
5
507
100
AcDbEntity
8
0
100
AcDbLine
10
-364.99774946334026
20
-89.999999999999972
30
0
11
-362.74774946334026
21
-79.999999999999972
31
0
0
LINE
5
508
100
AcDbEntity
8
0
100
AcDbLine
10
-362.74774946334026
20
-79.999999999999972
30
0
11
-360.49774946334026
21
-89.999999999999972
31
0
0
LINE
5
509
100
AcDbEntity
8
0
100
AcDbLine
10
-360.49774946334026
20
-89.999999999999972
30
0
11
-362.74774946334026
21
-99.999999999999972
31
0
0
LINE
5
510
100
AcDbEntity
8
0
100
AcDbLine
10
-362.74774946334026
20
-99.999999999999972
30
0
11
-353.24774946334026
21
-99.999999999999972
31
0
0
LINE
5
511
100
AcDbEntity
8
0
100
AcDbLine
10
-353.24774946334026
20
-99.999999999999972
30
0
11
-355.49774946334026
21
-89.999999999999972
31
0
0
LINE
5
512
100
AcDbEntity
8
0
100
AcDbLine
10
-355.49774946334026
20
-89.999999999999972
30
0
11
-353.24774946334026
21
-79.999999999999972
31
0
0
LINE
5
513
100
AcDbEntity
8
0
100
AcDbLine
10
-353.24774946334026
20
-79.999999999999972
30
0
11
-350.99774946334026
21
-89.999999999999972
31
0
0
LINE
5
514
100
AcDbEntity
8
0
100
AcDbLine
10
-350.99774946334026
20
-89.999999999999972
30
0
11
-353.24774946334026
21
-99.999999999999972
31
0
0
LINE
5
515
100
AcDbEntity
8
0
100
AcDbLine
10
-353.24774946334026
20
-99.999999999999972
30
0
11
-343.7477494633402
21
-99.999999999999972
31
0
0
LINE
5
516
100
AcDbEntity
8
0
100
AcDbLine
10
-343.7477494633402
20
-99.999999999999972
30
0
11
-345.99774946334026
21
-89.999999999999972
31
0
0
LINE
5
517
100
AcDbEntity
8
0
100
AcDbLine
10
-345.99774946334026
20
-89.999999999999972
30
0
11
-343.7477494633402
21
-79.999999999999972
31
0
0
LINE
5
518
100
AcDbEntity
8
0
100
AcDbLine
10
-343.7477494633402
20
-79.999999999999972
30
0
11
-341.4977494633402
21
-89.999999999999972
31
0
0
LINE
5
519
100
AcDbEntity
8
0
100
AcDbLine
10
-341.4977494633402
20
-89.999999999999972
30
0
11
-343.7477494633402
21
-99.999999999999972
31
0
0
LINE
5
520
100
AcDbEntity
8
0
100
AcDbLine
10
-343.7477494633402
20
-99.999999999999972
30
0
11
-334.2477494633402
21
-99.999999999999972
31
0
0
LINE
5
521
100
AcDbEntity
8
0
100
AcDbLine
10
-334.2477494633402
20
-99.999999999999972
30
0
11
-336.4977494633402
21
-89.999999999999972
31
0
0
LINE
5
522
100
AcDbEntity
8
0
100
AcDbLine
10
-336.4977494633402
20
-89.999999999999972
30
0
11
-334.2477494633402
21
-79.999999999999972
31
0
0
LINE
5
523
100
AcDbEntity
8
0
100
AcDbLine
10
-334.2477494633402
20
-79.999999999999972
30
0
11
-331.99774946334014
21
-89.999999999999972
31
0
0
LINE
5
524
100
AcDbEntity
8
0
100
AcDbLine
10
-331.99774946334014
20
-89.999999999999972
30
0
11
-334.2477494633402
21
-99.999999999999972
31
0
0
LINE
5
525
100
AcDbEntity
8
0
100
AcDbLine
10
-334.2477494633402
20
-99.999999999999972
30
0
11
-324.74774946334014
21
-99.999999999999972
31
0
0
LINE
5
526
100
AcDbEntity
8
0
100
AcDbLine
10
-324.74774946334014
20
-99.999999999999972
30
0
11
-326.99774946334014
21
-89.999999999999972
31
0
0
LINE
5
527
100
AcDbEntity
8
0
100
AcDbLine
10
-326.99774946334014
20
-89.999999999999972
30
0
11
-324.74774946334014
21
-79.999999999999972
31
0
0
LINE
5
528
100
AcDbEntity
8
0
100
AcDbLine
10
-324.74774946334014
20
-79.999999999999972
30
0
11
-322.49774946334014
21
-89.999999999999972
31
0
0
LINE
5
529
100
AcDbEntity
8
0
100
AcDbLine
10
-322.49774946334014
20
-89.999999999999972
30
0
11
-324.74774946334014
21
-99.999999999999972
31
0
0
LINE
5
530
100
AcDbEntity
8
0
100
AcDbLine
10
-324.74774946334014
20
-99.999999999999972
30
0
11
-315.24774946334014
21
-99.999999999999972
31
0
0
LINE
5
531
100
AcDbEntity
8
0
100
AcDbLine
10
-315.24774946334014
20
-99.999999999999972
30
0
11
-317.49774946334014
21
-89.999999999999972
31
0
0
LINE
5
532
100
AcDbEntity
8
0
100
AcDbLine
10
-317.49774946334014
20
-89.999999999999972
30
0
11
-315.24774946334014
21
-79.999999999999972
31
0
0
LINE
5
533
100
AcDbEntity
8
0
100
AcDbLine
10
-315.24774946334014
20
-79.999999999999972
30
0
11
-312.99774946334014
21
-89.999999999999972
31
0
0
LINE
5
534
100
AcDbEntity
8
0
100
AcDbLine
10
-312.99774946334014
20
-89.999999999999972
30
0
11
-315.24774946334014
21
-99.999999999999972
31
0
0
LINE
5
535
100
AcDbEntity
8
0
100
AcDbLine
10
-315.24774946334014
20
-99.999999999999972
30
0
11
-305.74774946334009
21
-99.999999999999972
31
0
0
LINE
5
536
100
AcDbEntity
8
0
100
AcDbLine
10
-305.74774946334009
20
-99.999999999999972
30
0
11
-307.99774946334014
21
-89.999999999999972
31
0
0
LINE
5
537
100
AcDbEntity
8
0
100
AcDbLine
10
-307.99774946334014
20
-89.999999999999972
30
0
11
-305.74774946334009
21
-79.999999999999972
31
0
0
LINE
5
538
100
AcDbEntity
8
0
100
AcDbLine
10
-305.74774946334009
20
-79.999999999999972
30
0
11
-303.49774946334009
21
-89.999999999999972
31
0
0
LINE
5
539
100
AcDbEntity
8
0
100
AcDbLine
10
-303.49774946334009
20
-89.999999999999972
30
0
11
-305.74774946334009
21
-99.999999999999972
31
0
0
LINE
5
540
100
AcDbEntity
8
0
100
AcDbLine
10
-305.74774946334009
20
-99.999999999999972
30
0
11
-296.24774946334009
21
-99.999999999999972
31
0
0
LINE
5
541
100
AcDbEntity
8
0
100
AcDbLine
10
-296.24774946334009
20
-99.999999999999972
30
0
11
-298.49774946334009
21
-89.999999999999972
31
0
0
LINE
5
542
100
AcDbEntity
8
0
100
AcDbLine
10
-298.49774946334009
20
-89.999999999999972
30
0
11
-296.24774946334009
21
-79.999999999999972
31
0
0
LINE
5
543
100
AcDbEntity
8
0
100
AcDbLine
10
-296.24774946334009
20
-79.999999999999972
30
0
11
-293.99774946334003
21
-89.999999999999972
31
0
0
LINE
5
544
100
AcDbEntity
8
0
100
AcDbLine
10
-293.99774946334003
20
-89.999999999999972
30
0
11
-296.24774946334009
21
-99.999999999999972
31
0
0
LINE
5
545
100
AcDbEntity
8
0
100
AcDbLine
10
-296.24774946334009
20
-99.999999999999972
30
0
11
-286.74774946334003
21
-99.999999999999972
31
0
0
LINE
5
546
100
AcDbEntity
8
0
100
AcDbLine
10
-286.74774946334003
20
-99.999999999999972
30
0
11
-288.99774946334003
21
-89.999999999999972
31
0
0
LINE
5
547
100
AcDbEntity
8
0
100
AcDbLine
10
-288.99774946334003
20
-89.999999999999972
30
0
11
-286.74774946334003
21
-79.999999999999972
31
0
0
LINE
5
548
100
AcDbEntity
8
0
100
AcDbLine
10
-286.74774946334003
20
-79.999999999999972
30
0
11
-284.49774946334003
21
-89.999999999999972
31
0
0
LINE
5
549
100
AcDbEntity
8
0
100
AcDbLine
10
-284.49774946334003
20
-89.999999999999972
30
0
11
-286.74774946334003
21
-99.999999999999972
31
0
0
LINE
5
550
100
AcDbEntity
8
0
100
AcDbLine
10
-286.74774946334003
20
-99.999999999999972
30
0
11
-277.24774946334003
21
-99.999999999999972
31
0
0
LINE
5
551
100
AcDbEntity
8
0
100
AcDbLine
10
-277.24774946334003
20
-99.999999999999972
30
0
11
-279.49774946334003
21
-89.999999999999972
31
0
0
LINE
5
552
100
AcDbEntity
8
0
100
AcDbLine
10
-279.49774946334003
20
-89.999999999999972
30
0
11
-277.24774946334003
21
-79.999999999999972
31
0
0
LINE
5
553
100
AcDbEntity
8
0
100
AcDbLine
10
-277.24774946334003
20
-79.999999999999972
30
0
11
-274.99774946334003
21
-89.999999999999972
31
0
0
LINE
5
554
100
AcDbEntity
8
0
100
AcDbLine
10
-274.99774946334003
20
-89.999999999999972
30
0
11
-277.24774946334003
21
-99.999999999999972
31
0
0
LINE
5
555
100
AcDbEntity
8
0
100
AcDbLine
10
-277.24774946334003
20
-99.999999999999972
30
0
11
-267.74774946333997
21
-99.999999999999972
31
0
0
LINE
5
556
100
AcDbEntity
8
0
100
AcDbLine
10
-267.74774946333997
20
-99.999999999999972
30
0
11
-269.99774946334003
21
-89.999999999999972
31
0
0
LINE
5
557
100
AcDbEntity
8
0
100
AcDbLine
10
-269.99774946334003
20
-89.999999999999972
30
0
11
-267.74774946333997
21
-79.999999999999972
31
0
0
LINE
5
558
100
AcDbEntity
8
0
100
AcDbLine
10
-267.74774946333997
20
-79.999999999999972
30
0
11
-265.49774946333997
21
-89.999999999999972
31
0
0
LINE
5
559
100
AcDbEntity
8
0
100
AcDbLine
10
-265.49774946333997
20
-89.999999999999972
30
0
11
-267.74774946333997
21
-99.999999999999972
31
0
0
LINE
5
560
100
AcDbEntity
8
0
100
AcDbLine
10
-267.74774946333997
20
-99.999999999999972
30
0
11
-249.62387473167027
21
-100.00000000001457
31
0
0
LINE
5
561
100
AcDbEntity
8
0
100
AcDbLine
10
-249.62387473167027
20
-100.00000000001457
30
0
11
-249.62387473167027
21
-95.000000000014566
31
0
0
ARC
5
562
100
AcDbEntity
8
0
100
AcDbCircle
10
-247.12387473169943
20
-90.669872978493288
30
0
40
5.000000002236292
210
0
220
0
230
1
100
AcDbArc
50
-60.000000015181307
51
240.00000001518106
0
LINE
5
563
100
AcDbEntity
8
0
100
AcDbLine
10
-244.62387473172862
20
-95.000000000014566
30
0
11
-244.62387473172086
21
-100.00000000001457
31
0
0
LINE
5
564
100
AcDbEntity
8
0
100
AcDbLine
10
-244.62387473172086
20
-100.00000000001457
30
0
11
-204.62387474156472
21
-99.999999999952607
31
0
0
LINE
5
565
100
AcDbEntity
8
0
100
AcDbLine
10
-204.62387474156472
20
-99.999999999952607
30
0
11
-204.62387474157211
21
-94.999999999952593
31
0
0
ARC
5
566
100
AcDbEntity
8
0
100
AcDbCircle
10
-202.12387474152351
20
-90.669872980295338
30
0
40
5.0000000006608527
210
0
220
0
230
1
100
AcDbArc
50
-60.000000005410534
51
240.00000000372927
0
LINE
5
567
100
AcDbEntity
8
0
100
AcDbLine
10
-199.62387474160198
20
-95.000000000025935
30
0
11
-199.62387474159058
21
-100.00000000002593
31
0
0
LINE
5
568
100
AcDbEntity
8
0
100
AcDbLine
10
-199.62387474159058
20
-100.00000000002593
30
0
11
-190.12387473167021
21
-100
31
0
0
LINE
5
569
100
AcDbEntity
8
0
100
AcDbLine
10
-190.12387473167021
20
-100
30
0
11
-192.37387473167024
21
-90
31
0
0
LINE
5
570
100
AcDbEntity
8
0
100
AcDbLine
10
-192.37387473167024
20
-90
30
0
11
-190.12387473167024
21
-80
31
0
0
LINE
5
571
100
AcDbEntity
8
0
100
AcDbLine
10
-190.12387473167024
20
-80
30
0
11
-187.87387473167027
21
-90
31
0
0
LINE
5
572
100
AcDbEntity
8
0
100
AcDbLine
10
-187.87387473167027
20
-90
30
0
11
-190.12387473167021
21
-100
31
0
0
LINE
5
573
100
AcDbEntity
8
0
100
AcDbLine
10
-190.12387473167021
20
-100
30
0
11
-180.62387473167021
21
-100
31
0
0
LINE
5
574
100
AcDbEntity
8
0
100
AcDbLine
10
-180.62387473167021
20
-100
30
0
11
-182.87387473167027
21
-90
31
0
0
LINE
5
575
100
AcDbEntity
8
0
100
AcDbLine
10
-182.87387473167027
20
-90
30
0
11
-180.62387473167024
21
-80
31
0
0
LINE
5
576
100
AcDbEntity
8
0
100
AcDbLine
10
-180.62387473167024
20
-80
30
0
11
-178.37387473167027
21
-90
31
0
0
LINE
5
577
100
AcDbEntity
8
0
100
AcDbLine
10
-178.37387473167027
20
-90
30
0
11
-180.62387473167021
21
-100
31
0
0
LINE
5
578
100
AcDbEntity
8
0
100
AcDbLine
10
-180.62387473167021
20
-100
30
0
11
-171.12387473167021
21
-100
31
0
0
LINE
5
579
100
AcDbEntity
8
0
100
AcDbLine
10
-171.12387473167021
20
-100
30
0
11
-173.37387473167027
21
-90
31
0
0
LINE
5
580
100
AcDbEntity
8
0
100
AcDbLine
10
-173.37387473167027
20
-90
30
0
11
-171.12387473167024
21
-80
31
0
0
LINE
5
581
100
AcDbEntity
8
0
100
AcDbLine
10
-171.12387473167024
20
-80
30
0
11
-168.87387473167027
21
-90
31
0
0
LINE
5
582
100
AcDbEntity
8
0
100
AcDbLine
10
-168.87387473167027
20
-90
30
0
11
-171.12387473167021
21
-100
31
0
0
LINE
5
583
100
AcDbEntity
8
0
100
AcDbLine
10
-171.12387473167021
20
-100
30
0
11
-161.62387473167024
21
-100
31
0
0
LINE
5
584
100
AcDbEntity
8
0
100
AcDbLine
10
-161.62387473167024
20
-100
30
0
11
-163.87387473167027
21
-90
31
0
0
LINE
5
585
100
AcDbEntity
8
0
100
AcDbLine
10
-163.87387473167027
20
-90
30
0
11
-161.62387473167027
21
-80
31
0
0
LINE
5
586
100
AcDbEntity
8
0
100
AcDbLine
10
-161.62387473167027
20
-80
30
0
11
-159.3738747316703
21
-90
31
0
0
LINE
5
587
100
AcDbEntity
8
0
100
AcDbLine
10
-159.3738747316703
20
-90
30
0
11
-161.62387473167024
21
-100
31
0
0
LINE
5
588
100
AcDbEntity
8
0
100
AcDbLine
10
-161.62387473167024
20
-100
30
0
11
-152.12387473167024
21
-100
31
0
0
LINE
5
589
100
AcDbEntity
8
0
100
AcDbLine
10
-152.12387473167024
20
-100
30
0
11
-154.3738747316703
21
-90
31
0
0
LINE
5
590
100
AcDbEntity
8
0
100
AcDbLine
10
-154.3738747316703
20
-90
30
0
11
-152.12387473167027
21
-80
31
0
0
LINE
5
591
100
AcDbEntity
8
0
100
AcDbLine
10
-152.12387473167027
20
-80
30
0
11
-149.8738747316703
21
-90
31
0
0
LINE
5
592
100
AcDbEntity
8
0
100
AcDbLine
10
-149.8738747316703
20
-90
30
0
11
-152.12387473167024
21
-100
31
0
0
LINE
5
593
100
AcDbEntity
8
0
100
AcDbLine
10
-152.12387473167024
20
-100
30
0
11
-142.62387473167024
21
-100
31
0
0
LINE
5
594
100
AcDbEntity
8
0
100
AcDbLine
10
-142.62387473167024
20
-100
30
0
11
-144.8738747316703
21
-90
31
0
0
LINE
5
595
100
AcDbEntity
8
0
100
AcDbLine
10
-144.8738747316703
20
-90
30
0
11
-142.62387473167027
21
-80
31
0
0
LINE
5
596
100
AcDbEntity
8
0
100
AcDbLine
10
-142.62387473167027
20
-80
30
0
11
-140.3738747316703
21
-90
31
0
0
LINE
5
597
100
AcDbEntity
8
0
100
AcDbLine
10
-140.3738747316703
20
-90
30
0
11
-142.62387473167024
21
-100
31
0
0
LINE
5
598
100
AcDbEntity
8
0
100
AcDbLine
10
-142.62387473167024
20
-100
30
0
11
-133.12387473167024
21
-100
31
0
0
LINE
5
599
100
AcDbEntity
8
0
100
AcDbLine
10
-133.12387473167024
20
-100
30
0
11
-135.3738747316703
21
-90
31
0
0
LINE
5
600
100
AcDbEntity
8
0
100
AcDbLine
10
-135.3738747316703
20
-90
30
0
11
-133.1238747316703
21
-80
31
0
0
LINE
5
601
100
AcDbEntity
8
0
100
AcDbLine
10
-133.1238747316703
20
-80
30
0
11
-130.8738747316703
21
-90
31
0
0
LINE
5
602
100
AcDbEntity
8
0
100
AcDbLine
10
-130.8738747316703
20
-90
30
0
11
-133.12387473167024
21
-100
31
0
0
LINE
5
603
100
AcDbEntity
8
0
100
AcDbLine
10
-133.12387473167024
20
-100
30
0
11
-123.62387473167026
21
-100
31
0
0
LINE
5
604
100
AcDbEntity
8
0
100
AcDbLine
10
-123.62387473167026
20
-100
30
0
11
-125.8738747316703
21
-90
31
0
0
LINE
5
605
100
AcDbEntity
8
0
100
AcDbLine
10
-125.8738747316703
20
-90
30
0
11
-123.6238747316703
21
-80
31
0
0
LINE
5
606
100
AcDbEntity
8
0
100
AcDbLine
10
-123.6238747316703
20
-80
30
0
11
-121.37387473167031
21
-90
31
0
0
LINE
5
607
100
AcDbEntity
8
0
100
AcDbLine
10
-121.37387473167031
20
-90
30
0
11
-123.62387473167026
21
-100
31
0
0
LINE
5
608
100
AcDbEntity
8
0
100
AcDbLine
10
-123.62387473167026
20
-100
30
0
11
-114.12387473167027
21
-100
31
0
0
LINE
5
609
100
AcDbEntity
8
0
100
AcDbLine
10
-114.12387473167027
20
-100
30
0
11
-116.37387473167031
21
-90
31
0
0
LINE
5
610
100
AcDbEntity
8
0
100
AcDbLine
10
-116.37387473167031
20
-90
30
0
11
-114.1238747316703
21
-80
31
0
0
LINE
5
611
100
AcDbEntity
8
0
100
AcDbLine
10
-114.1238747316703
20
-80
30
0
11
-111.87387473167033
21
-90
31
0
0
LINE
5
612
100
AcDbEntity
8
0
100
AcDbLine
10
-111.87387473167033
20
-90
30
0
11
-114.12387473167027
21
-100
31
0
0
LINE
5
613
100
AcDbEntity
8
0
100
AcDbLine
10
-114.12387473167027
20
-100
30
0
11
-104.62387473167027
21
-100
31
0
0
LINE
5
614
100
AcDbEntity
8
0
100
AcDbLine
10
-104.62387473167027
20
-100
30
0
11
-106.87387473167033
21
-90
31
0
0
LINE
5
615
100
AcDbEntity
8
0
100
AcDbLine
10
-106.87387473167033
20
-90
30
0
11
-104.6238747316703
21
-80
31
0
0
LINE
5
616
100
AcDbEntity
8
0
100
AcDbLine
10
-104.6238747316703
20
-80
30
0
11
-102.37387473167033
21
-90
31
0
0
LINE
5
617
100
AcDbEntity
8
0
100
AcDbLine
10
-102.37387473167033
20
-90
30
0
11
-104.62387473167027
21
-100
31
0
0
LINE
5
618
100
AcDbEntity
8
0
100
AcDbLine
10
-104.62387473167027
20
-100
30
0
11
-95.12387473167027
21
-100
31
0
0
LINE
5
619
100
AcDbEntity
8
0
100
AcDbLine
10
-95.12387473167027
20
-100
30
0
11
-97.373874731670327
21
-90
31
0
0
LINE
5
620
100
AcDbEntity
8
0
100
AcDbLine
10
-97.373874731670327
20
-90
30
0
11
-95.123874731670313
21
-80
31
0
0
LINE
5
621
100
AcDbEntity
8
0
100
AcDbLine
10
-95.123874731670313
20
-80
30
0
11
-92.873874731670327
21
-90
31
0
0
LINE
5
622
100
AcDbEntity
8
0
100
AcDbLine
10
-92.873874731670327
20
-90
30
0
11
-95.12387473167027
21
-100
31
0
0
LINE
5
623
100
AcDbEntity
8
0
100
AcDbLine
10
-95.12387473167027
20
-100
30
0
11
-85.623874731670284
21
-100
31
0
0
LINE
5
624
100
AcDbEntity
8
0
100
AcDbLine
10
-85.623874731670284
20
-100
30
0
11
-87.873874731670327
21
-90
31
0
0
LINE
5
625
100
AcDbEntity
8
0
100
AcDbLine
10
-87.873874731670327
20
-90
30
0
11
-85.623874731670327
21
-80
31
0
0
LINE
5
626
100
AcDbEntity
8
0
100
AcDbLine
10
-85.623874731670327
20
-80
30
0
11
-83.373874731670341
21
-90
31
0
0
LINE
5
627
100
AcDbEntity
8
0
100
AcDbLine
10
-83.373874731670341
20
-90
30
0
11
-85.623874731670284
21
-100
31
0
0
LINE
5
628
100
AcDbEntity
8
0
100
AcDbLine
10
-85.623874731670284
20
-100
30
0
11
-76.123874731670298
21
-100
31
0
0
LINE
5
629
100
AcDbEntity
8
0
100
AcDbLine
10
-76.123874731670298
20
-100
30
0
11
-78.373874731670341
21
-90
31
0
0
LINE
5
630
100
AcDbEntity
8
0
100
AcDbLine
10
-78.373874731670341
20
-90
30
0
11
-76.123874731670327
21
-80
31
0
0
LINE
5
631
100
AcDbEntity
8
0
100
AcDbLine
10
-76.123874731670327
20
-80
30
0
11
-73.873874731670355
21
-90
31
0
0
LINE
5
632
100
AcDbEntity
8
0
100
AcDbLine
10
-73.873874731670355
20
-90
30
0
11
-76.123874731670298
21
-100
31
0
0
LINE
5
633
100
AcDbEntity
8
0
100
AcDbLine
10
-76.123874731670298
20
-100
30
0
11
-66.623874731670298
21
-100
31
0
0
LINE
5
634
100
AcDbEntity
8
0
100
AcDbLine
10
-66.623874731670298
20
-100
30
0
11
-68.873874731670355
21
-90
31
0
0
LINE
5
635
100
AcDbEntity
8
0
100
AcDbLine
10
-68.873874731670355
20
-90
30
0
11
-66.623874731670327
21
-80
31
0
0
LINE
5
636
100
AcDbEntity
8
0
100
AcDbLine
10
-66.623874731670327
20
-80
30
0
11
-64.373874731670355
21
-90
31
0
0
LINE
5
637
100
AcDbEntity
8
0
100
AcDbLine
10
-64.373874731670355
20
-90
30
0
11
-66.623874731670298
21
-100
31
0
0
LINE
5
638
100
AcDbEntity
8
0
100
AcDbLine
10
-66.623874731670298
20
-100
30
0
11
-57.123874731670305
21
-100
31
0
0
LINE
5
639
100
AcDbEntity
8
0
100
AcDbLine
10
-57.123874731670305
20
-100
30
0
11
-59.373874731670355
21
-90
31
0
0
LINE
5
640
100
AcDbEntity
8
0
100
AcDbLine
10
-59.373874731670355
20
-90
30
0
11
-57.123874731670341
21
-80
31
0
0
LINE
5
641
100
AcDbEntity
8
0
100
AcDbLine
10
-57.123874731670341
20
-80
30
0
11
-54.873874731670362
21
-90
31
0
0
LINE
5
642
100
AcDbEntity
8
0
100
AcDbLine
10
-54.873874731670362
20
-90
30
0
11
-57.123874731670305
21
-100
31
0
0
LINE
5
643
100
AcDbEntity
8
0
100
AcDbLine
10
-57.123874731670305
20
-100
30
0
11
-47.623874731670313
21
-100
31
0
0
LINE
5
644
100
AcDbEntity
8
0
100
AcDbLine
10
-47.623874731670313
20
-100
30
0
11
-49.873874731670362
21
-90
31
0
0
LINE
5
645
100
AcDbEntity
8
0
100
AcDbLine
10
-49.873874731670362
20
-90
30
0
11
-47.623874731670348
21
-80
31
0
0
LINE
5
646
100
AcDbEntity
8
0
100
AcDbLine
10
-47.623874731670348
20
-80
30
0
11
-45.373874731670369
21
-90
31
0
0
LINE
5
647
100
AcDbEntity
8
0
100
AcDbLine
10
-45.373874731670369
20
-90
30
0
11
-47.623874731670313
21
-100
31
0
0
LINE
5
648
100
AcDbEntity
8
0
100
AcDbLine
10
-47.623874731670313
20
-100
30
0
11
-38.12387473167032
21
-100
31
0
0
LINE
5
649
100
AcDbEntity
8
0
100
AcDbLine
10
-38.12387473167032
20
-100
30
0
11
-40.373874731670369
21
-90
31
0
0
LINE
5
650
100
AcDbEntity
8
0
100
AcDbLine
10
-40.373874731670369
20
-90
30
0
11
-38.123874731670355
21
-80
31
0
0
LINE
5
651
100
AcDbEntity
8
0
100
AcDbLine
10
-38.123874731670355
20
-80
30
0
11
-35.873874731670377
21
-90
31
0
0
LINE
5
652
100
AcDbEntity
8
0
100
AcDbLine
10
-35.873874731670377
20
-90
30
0
11
-38.12387473167032
21
-100
31
0
0
LINE
5
653
100
AcDbEntity
8
0
100
AcDbLine
10
-38.12387473167032
20
-100
30
0
11
-25
21
-100.00000000001458
31
0
0
LINE
5
654
100
AcDbEntity
8
0
100
AcDbLine
10
-25
20
-100.00000000001458
30
0
11
-24.999999999986073
21
-94.999999999943654
31
0
0
ARC
5
655
100
AcDbEntity
8
0
100
AcDbCircle
10
-22.500000000000007
20
-90.669872984673049
30
0
40
4.9999999968306712
210
0
220
0
230
1
100
AcDbArc
50
-59.999999979031628
51
239.9999999792162
0
LINE
5
656
100
AcDbEntity
8
0
100
AcDbLine
10
-19.999999999999986
20
-94.999999999935611
30
0
11
-20
21
-100.00000000000979
31
0
0
LINE
5
657
100
AcDbEntity
8
0
100
AcDbLine
10
-20
20
-100.00000000000979
30
0
11
20.000000032596077
21
-99.999999999971237
31
0
0
LINE
5
658
100
AcDbEntity
8
0
100
AcDbLine
10
20.000000032596077
20
-99.999999999971237
30
0
11
19.999999999592148
21
-94.999999999971237
31
0
0
ARC
5
659
100
AcDbEntity
8
0
100
AcDbCircle
10
22.500000000495596
20
-90.669873014574534
30
0
40
4.9999999714177825
210
0
220
0
230
1
100
AcDbArc
50
-59.999999816886238
51
239.99999979894736
0
LINE
5
660
100
AcDbEntity
8
0
100
AcDbLine
10
25.000000000043308
20
-95.000000000753957
30
0
11
25
21
-100.00000000001455
31
0
0
LINE
5
661
100
AcDbEntity
8
0
100
AcDbLine
10
25
20
-100.00000000001455
30
0
11
34.500000000000036
21
-100
31
0
0
LINE
5
662
100
AcDbEntity
8
0
100
AcDbLine
10
34.500000000000036
20
-100
30
0
11
32.250000000000021
21
-90
31
0
0
LINE
5
663
100
AcDbEntity
8
0
100
AcDbLine
10
32.250000000000021
20
-90
30
0
11
34.5
21
-80
31
0
0
LINE
5
664
100
AcDbEntity
8
0
100
AcDbLine
10
34.5
20
-80
30
0
11
36.75
21
-90
31
0
0
LINE
5
665
100
AcDbEntity
8
0
100
AcDbLine
10
36.75
20
-90
30
0
11
34.500000000000036
21
-100
31
0
0
LINE
5
666
100
AcDbEntity
8
0
100
AcDbLine
10
34.500000000000036
20
-100
30
0
11
44.000000000000043
21
-100
31
0
0
LINE
5
667
100
AcDbEntity
8
0
100
AcDbLine
10
44.000000000000043
20
-100
30
0
11
41.750000000000028
21
-90
31
0
0
LINE
5
668
100
AcDbEntity
8
0
100
AcDbLine
10
41.750000000000028
20
-90
30
0
11
44
21
-80
31
0
0
LINE
5
669
100
AcDbEntity
8
0
100
AcDbLine
10
44
20
-80
30
0
11
46.25
21
-90
31
0
0
LINE
5
670
100
AcDbEntity
8
0
100
AcDbLine
10
46.25
20
-90
30
0
11
44.000000000000043
21
-100
31
0
0
LINE
5
671
100
AcDbEntity
8
0
100
AcDbLine
10
44.000000000000043
20
-100
30
0
11
53.500000000000043
21
-100
31
0
0
LINE
5
672
100
AcDbEntity
8
0
100
AcDbLine
10
53.500000000000043
20
-100
30
0
11
51.250000000000028
21
-90
31
0
0
LINE
5
673
100
AcDbEntity
8
0
100
AcDbLine
10
51.250000000000028
20
-90
30
0
11
53.500000000000007
21
-80
31
0
0
LINE
5
674
100
AcDbEntity
8
0
100
AcDbLine
10
53.500000000000007
20
-80
30
0
11
55.75
21
-90
31
0
0
LINE
5
675
100
AcDbEntity
8
0
100
AcDbLine
10
55.75
20
-90
30
0
11
53.500000000000043
21
-100
31
0
0
LINE
5
676
100
AcDbEntity
8
0
100
AcDbLine
10
53.500000000000043
20
-100
30
0
11
63.000000000000043
21
-100
31
0
0
LINE
5
677
100
AcDbEntity
8
0
100
AcDbLine
10
63.000000000000043
20
-100
30
0
11
60.750000000000028
21
-90
31
0
0
LINE
5
678
100
AcDbEntity
8
0
100
AcDbLine
10
60.750000000000028
20
-90
30
0
11
63.000000000000007
21
-80
31
0
0
LINE
5
679
100
AcDbEntity
8
0
100
AcDbLine
10
63.000000000000007
20
-80
30
0
11
65.25
21
-90
31
0
0
LINE
5
680
100
AcDbEntity
8
0
100
AcDbLine
10
65.25
20
-90
30
0
11
63.000000000000043
21
-100
31
0
0
LINE
5
681
100
AcDbEntity
8
0
100
AcDbLine
10
63.000000000000043
20
-100
30
0
11
72.500000000000043
21
-100
31
0
0
LINE
5
682
100
AcDbEntity
8
0
100
AcDbLine
10
72.500000000000043
20
-100
30
0
11
70.250000000000028
21
-90
31
0
0
LINE
5
683
100
AcDbEntity
8
0
100
AcDbLine
10
70.250000000000028
20
-90
30
0
11
72.500000000000014
21
-80
31
0
0
LINE
5
684
100
AcDbEntity
8
0
100
AcDbLine
10
72.500000000000014
20
-80
30
0
11
74.75
21
-90
31
0
0
LINE
5
685
100
AcDbEntity
8
0
100
AcDbLine
10
74.75
20
-90
30
0
11
72.500000000000043
21
-100
31
0
0
LINE
5
686
100
AcDbEntity
8
0
100
AcDbLine
10
72.500000000000043
20
-100
30
0
11
82.000000000000043
21
-100
31
0
0
LINE
5
687
100
AcDbEntity
8
0
100
AcDbLine
10
82.000000000000043
20
-100
30
0
11
79.750000000000028
21
-90
31
0
0
LINE
5
688
100
AcDbEntity
8
0
100
AcDbLine
10
79.750000000000028
20
-90
30
0
11
82.000000000000014
21
-80
31
0
0
LINE
5
689
100
AcDbEntity
8
0
100
AcDbLine
10
82.000000000000014
20
-80
30
0
11
84.25
21
-90
31
0
0
LINE
5
690
100
AcDbEntity
8
0
100
AcDbLine
10
84.25
20
-90
30
0
11
82.000000000000043
21
-100
31
0
0
LINE
5
691
100
AcDbEntity
8
0
100
AcDbLine
10
82.000000000000043
20
-100
30
0
11
91.500000000000057
21
-100
31
0
0
LINE
5
692
100
AcDbEntity
8
0
100
AcDbLine
10
91.500000000000057
20
-100
30
0
11
89.250000000000043
21
-90
31
0
0
LINE
5
693
100
AcDbEntity
8
0
100
AcDbLine
10
89.250000000000043
20
-90
30
0
11
91.500000000000028
21
-80
31
0
0
LINE
5
694
100
AcDbEntity
8
0
100
AcDbLine
10
91.500000000000028
20
-80
30
0
11
93.75
21
-90
31
0
0
LINE
5
695
100
AcDbEntity
8
0
100
AcDbLine
10
93.75
20
-90
30
0
11
91.500000000000057
21
-100
31
0
0
LINE
5
696
100
AcDbEntity
8
0
100
AcDbLine
10
91.500000000000057
20
-100
30
0
11
101.00000000000006
21
-100
31
0
0
LINE
5
697
100
AcDbEntity
8
0
100
AcDbLine
10
101.00000000000006
20
-100
30
0
11
98.750000000000028
21
-90
31
0
0
LINE
5
698
100
AcDbEntity
8
0
100
AcDbLine
10
98.750000000000028
20
-90
30
0
11
101.00000000000001
21
-80
31
0
0
LINE
5
699
100
AcDbEntity
8
0
100
AcDbLine
10
101.00000000000001
20
-80
30
0
11
103.25000000000001
21
-90
31
0
0
LINE
5
700
100
AcDbEntity
8
0
100
AcDbLine
10
103.25000000000001
20
-90
30
0
11
101.00000000000006
21
-100
31
0
0
LINE
5
701
100
AcDbEntity
8
0
100
AcDbLine
10
101.00000000000006
20
-100
30
0
11
110.50000000000004
21
-100
31
0
0
LINE
5
702
100
AcDbEntity
8
0
100
AcDbLine
10
110.50000000000004
20
-100
30
0
11
108.25000000000003
21
-90
31
0
0
LINE
5
703
100
AcDbEntity
8
0
100
AcDbLine
10
108.25000000000003
20
-90
30
0
11
110.5
21
-80
31
0
0
LINE
5
704
100
AcDbEntity
8
0
100
AcDbLine
10
110.5
20
-80
30
0
11
112.75000000000003
21
-90
31
0
0
LINE
5
705
100
AcDbEntity
8
0
100
AcDbLine
10
112.75000000000003
20
-90
30
0
11
110.50000000000004
21
-100
31
0
0
LINE
5
706
100
AcDbEntity
8
0
100
AcDbLine
10
110.50000000000004
20
-100
30
0
11
120.00000000000003
21
-100
31
0
0
LINE
5
707
100
AcDbEntity
8
0
100
AcDbLine
10
120.00000000000003
20
-100
30
0
11
117.75000000000003
21
-90
31
0
0
LINE
5
708
100
AcDbEntity
8
0
100
AcDbLine
10
117.75000000000003
20
-90
30
0
11
120
21
-80
31
0
0
LINE
5
709
100
AcDbEntity
8
0
100
AcDbLine
10
120
20
-80
30
0
11
122.25000000000001
21
-90
31
0
0
LINE
5
710
100
AcDbEntity
8
0
100
AcDbLine
10
122.25000000000001
20
-90
30
0
11
120.00000000000003
21
-100
31
0
0
LINE
5
711
100
AcDbEntity
8
0
100
AcDbLine
10
120.00000000000003
20
-100
30
0
11
129.50000000000006
21
-100
31
0
0
LINE
5
712
100
AcDbEntity
8
0
100
AcDbLine
10
129.50000000000006
20
-100
30
0
11
127.25000000000006
21
-90
31
0
0
LINE
5
713
100
AcDbEntity
8
0
100
AcDbLine
10
127.25000000000006
20
-90
30
0
11
129.50000000000003
21
-80
31
0
0
LINE
5
714
100
AcDbEntity
8
0
100
AcDbLine
10
129.50000000000003
20
-80
30
0
11
131.75
21
-90
31
0
0
LINE
5
715
100
AcDbEntity
8
0
100
AcDbLine
10
131.75
20
-90
30
0
11
129.50000000000006
21
-100
31
0
0
LINE
5
716
100
AcDbEntity
8
0
100
AcDbLine
10
129.50000000000006
20
-100
30
0
11
139.00000000000006
21
-100
31
0
0
LINE
5
717
100
AcDbEntity
8
0
100
AcDbLine
10
139.00000000000006
20
-100
30
0
11
136.75000000000006
21
-90
31
0
0
LINE
5
718
100
AcDbEntity
8
0
100
AcDbLine
10
136.75000000000006
20
-90
30
0
11
139.00000000000003
21
-80
31
0
0
LINE
5
719
100
AcDbEntity
8
0
100
AcDbLine
10
139.00000000000003
20
-80
30
0
11
141.25000000000003
21
-90
31
0
0
LINE
5
720
100
AcDbEntity
8
0
100
AcDbLine
10
141.25000000000003
20
-90
30
0
11
139.00000000000006
21
-100
31
0
0
LINE
5
721
100
AcDbEntity
8
0
100
AcDbLine
10
139.00000000000006
20
-100
30
0
11
148.50000000000006
21
-100
31
0
0
LINE
5
722
100
AcDbEntity
8
0
100
AcDbLine
10
148.50000000000006
20
-100
30
0
11
146.25000000000003
21
-90
31
0
0
LINE
5
723
100
AcDbEntity
8
0
100
AcDbLine
10
146.25000000000003
20
-90
30
0
11
148.5
21
-80
31
0
0
LINE
5
724
100
AcDbEntity
8
0
100
AcDbLine
10
148.5
20
-80
30
0
11
150.75000000000003
21
-90
31
0
0
LINE
5
725
100
AcDbEntity
8
0
100
AcDbLine
10
150.75000000000003
20
-90
30
0
11
148.50000000000006
21
-100
31
0
0
LINE
5
726
100
AcDbEntity
8
0
100
AcDbLine
10
148.50000000000006
20
-100
30
0
11
158.00000000000006
21
-100
31
0
0
LINE
5
727
100
AcDbEntity
8
0
100
AcDbLine
10
158.00000000000006
20
-100
30
0
11
155.75000000000003
21
-90
31
0
0
LINE
5
728
100
AcDbEntity
8
0
100
AcDbLine
10
155.75000000000003
20
-90
30
0
11
158
21
-80
31
0
0
LINE
5
729
100
AcDbEntity
8
0
100
AcDbLine
10
158
20
-80
30
0
11
160.25000000000003
21
-90
31
0
0
LINE
5
730
100
AcDbEntity
8
0
100
AcDbLine
10
160.25000000000003
20
-90
30
0
11
158.00000000000006
21
-100
31
0
0
LINE
5
731
100
AcDbEntity
8
0
100
AcDbLine
10
158.00000000000006
20
-100
30
0
11
167.50000000000006
21
-100
31
0
0
LINE
5
732
100
AcDbEntity
8
0
100
AcDbLine
10
167.50000000000006
20
-100
30
0
11
165.25000000000006
21
-90
31
0
0
LINE
5
733
100
AcDbEntity
8
0
100
AcDbLine
10
165.25000000000006
20
-90
30
0
11
167.50000000000003
21
-80
31
0
0
LINE
5
734
100
AcDbEntity
8
0
100
AcDbLine
10
167.50000000000003
20
-80
30
0
11
169.75
21
-90
31
0
0
LINE
5
735
100
AcDbEntity
8
0
100
AcDbLine
10
169.75
20
-90
30
0
11
167.50000000000006
21
-100
31
0
0
LINE
5
736
100
AcDbEntity
8
0
100
AcDbLine
10
167.50000000000006
20
-100
30
0
11
177.00000000000006
21
-100
31
0
0
LINE
5
737
100
AcDbEntity
8
0
100
AcDbLine
10
177.00000000000006
20
-100
30
0
11
174.75000000000006
21
-90
31
0
0
LINE
5
738
100
AcDbEntity
8
0
100
AcDbLine
10
174.75000000000006
20
-90
30
0
11
177.00000000000003
21
-80
31
0
0
LINE
5
739
100
AcDbEntity
8
0
100
AcDbLine
10
177.00000000000003
20
-80
30
0
11
179.25000000000006
21
-90
31
0
0
LINE
5
740
100
AcDbEntity
8
0
100
AcDbLine
10
179.25000000000006
20
-90
30
0
11
177.00000000000006
21
-100
31
0
0
LINE
5
741
100
AcDbEntity
8
0
100
AcDbLine
10
177.00000000000006
20
-100
30
0
11
186.50000000000006
21
-100
31
0
0
LINE
5
742
100
AcDbEntity
8
0
100
AcDbLine
10
186.50000000000006
20
-100
30
0
11
184.25000000000006
21
-90
31
0
0
LINE
5
743
100
AcDbEntity
8
0
100
AcDbLine
10
184.25000000000006
20
-90
30
0
11
186.50000000000003
21
-80
31
0
0
LINE
5
744
100
AcDbEntity
8
0
100
AcDbLine
10
186.50000000000003
20
-80
30
0
11
188.75000000000003
21
-90
31
0
0
LINE
5
745
100
AcDbEntity
8
0
100
AcDbLine
10
188.75000000000003
20
-90
30
0
11
186.50000000000006
21
-100
31
0
0
LINE
5
746
100
AcDbEntity
8
0
100
AcDbLine
10
186.50000000000006
20
-100
30
0
11
199.62387473167624
21
-100.00000000001461
31
0
0
LINE
5
747
100
AcDbEntity
8
0
100
AcDbLine
10
199.62387473167624
20
-100.00000000001461
30
0
11
199.62387473167624
21
-95.00000000001458
31
0
0
ARC
5
748
100
AcDbEntity
8
0
100
AcDbCircle
10
202.12387477218968
20
-90.669872984783069
30
0
40
5.0000000170605086
210
0
220
0
230
1
100
AcDbArc
50
-60.000000595695433
51
239.9999995768018
0
LINE
5
749
100
AcDbEntity
8
0
100
AcDbLine
10
204.62387473570027
20
-95.000000044472216
30
0
11
204.62387473570027
21
-100.000000000016
31
0
0
LINE
5
750
100
AcDbEntity
8
0
100
AcDbLine
10
204.62387473570027
20
-100.000000000016
30
0
11
244.62387473167018
21
-100.000000000016
31
0
0
LINE
5
751
100
AcDbEntity
8
0
100
AcDbLine
10
244.62387473167018
20
-100.000000000016
30
0
11
244.6238747918967
21
-95.000000000016001
31
0
0
ARC
5
752
100
AcDbEntity
8
0
100
AcDbCircle
10
247.12387481642799
20
-90.669874072870499
30
0
40
4.9999990667593677
210
0
220
0
230
1
100
AcDbArc
50
-59.999994147461983
51
239.99999350113254
0
LINE
5
753
100
AcDbEntity
8
0
100
AcDbLine
10
249.62387479211299
20
-95.000000028217485
30
0
11
249.62387479211299
21
-100.000000000016
31
0
0
LINE
5
754
100
AcDbEntity
8
0
100
AcDbLine
10
249.62387479211299
20
-100.000000000016
30
0
11
259.12400000000002
21
-100
31
0
0
LINE
5
755
100
AcDbEntity
8
0
100
AcDbLine
10
259.12400000000002
20
-100
30
0
11
256.87399999999997
21
-90
31
0
0
LINE
5
756
100
AcDbEntity
8
0
100
AcDbLine
10
256.87399999999997
20
-90
30
0
11
259.12399999999997
21
-80
31
0
0
LINE
5
757
100
AcDbEntity
8
0
100
AcDbLine
10
259.12399999999997
20
-80
30
0
11
261.37399999999997
21
-90
31
0
0
LINE
5
758
100
AcDbEntity
8
0
100
AcDbLine
10
261.37399999999997
20
-90
30
0
11
259.12400000000002
21
-100
31
0
0
LINE
5
759
100
AcDbEntity
8
0
100
AcDbLine
10
259.12400000000002
20
-100
30
0
11
268.62400000000002
21
-100
31
0
0
LINE
5
760
100
AcDbEntity
8
0
100
AcDbLine
10
268.62400000000002
20
-100
30
0
11
266.37399999999997
21
-90
31
0
0
LINE
5
761
100
AcDbEntity
8
0
100
AcDbLine
10
266.37399999999997
20
-90
30
0
11
268.62399999999997
21
-80
31
0
0
LINE
5
762
100
AcDbEntity
8
0
100
AcDbLine
10
268.62399999999997
20
-80
30
0
11
270.87399999999997
21
-90
31
0
0
LINE
5
763
100
AcDbEntity
8
0
100
AcDbLine
10
270.87399999999997
20
-90
30
0
11
268.62400000000002
21
-100
31
0
0
LINE
5
764
100
AcDbEntity
8
0
100
AcDbLine
10
268.62400000000002
20
-100
30
0
11
278.12400000000002
21
-100
31
0
0
LINE
5
765
100
AcDbEntity
8
0
100
AcDbLine
10
278.12400000000002
20
-100
30
0
11
275.87399999999997
21
-90
31
0
0
LINE
5
766
100
AcDbEntity
8
0
100
AcDbLine
10
275.87399999999997
20
-90
30
0
11
278.12399999999997
21
-80
31
0
0
LINE
5
767
100
AcDbEntity
8
0
100
AcDbLine
10
278.12399999999997
20
-80
30
0
11
280.37399999999997
21
-90
31
0
0
LINE
5
768
100
AcDbEntity
8
0
100
AcDbLine
10
280.37399999999997
20
-90
30
0
11
278.12400000000002
21
-100
31
0
0
LINE
5
769
100
AcDbEntity
8
0
100
AcDbLine
10
278.12400000000002
20
-100
30
0
11
287.62400000000002
21
-100
31
0
0
LINE
5
770
100
AcDbEntity
8
0
100
AcDbLine
10
287.62400000000002
20
-100
30
0
11
285.37399999999997
21
-90
31
0
0
LINE
5
771
100
AcDbEntity
8
0
100
AcDbLine
10
285.37399999999997
20
-90
30
0
11
287.62399999999997
21
-80
31
0
0
LINE
5
772
100
AcDbEntity
8
0
100
AcDbLine
10
287.62399999999997
20
-80
30
0
11
289.87399999999991
21
-90
31
0
0
LINE
5
773
100
AcDbEntity
8
0
100
AcDbLine
10
289.87399999999991
20
-90
30
0
11
287.62400000000002
21
-100
31
0
0
LINE
5
774
100
AcDbEntity
8
0
100
AcDbLine
10
287.62400000000002
20
-100
30
0
11
297.12399999999997
21
-100
31
0
0
LINE
5
775
100
AcDbEntity
8
0
100
AcDbLine
10
297.12399999999997
20
-100
30
0
11
294.87399999999991
21
-90
31
0
0
LINE
5
776
100
AcDbEntity
8
0
100
AcDbLine
10
294.87399999999991
20
-90
30
0
11
297.12399999999997
21
-80
31
0
0
LINE
5
777
100
AcDbEntity
8
0
100
AcDbLine
10
297.12399999999997
20
-80
30
0
11
299.37399999999991
21
-90
31
0
0
LINE
5
778
100
AcDbEntity
8
0
100
AcDbLine
10
299.37399999999991
20
-90
30
0
11
297.12399999999997
21
-100
31
0
0
LINE
5
779
100
AcDbEntity
8
0
100
AcDbLine
10
297.12399999999997
20
-100
30
0
11
306.62399999999997
21
-100
31
0
0
LINE
5
780
100
AcDbEntity
8
0
100
AcDbLine
10
306.62399999999997
20
-100
30
0
11
304.37399999999991
21
-90
31
0
0
LINE
5
781
100
AcDbEntity
8
0
100
AcDbLine
10
304.37399999999991
20
-90
30
0
11
306.62399999999997
21
-80
31
0
0
LINE
5
782
100
AcDbEntity
8
0
100
AcDbLine
10
306.62399999999997
20
-80
30
0
11
308.87399999999991
21
-90
31
0
0
LINE
5
783
100
AcDbEntity
8
0
100
AcDbLine
10
308.87399999999991
20
-90
30
0
11
306.62399999999997
21
-100
31
0
0
LINE
5
784
100
AcDbEntity
8
0
100
AcDbLine
10
306.62399999999997
20
-100
30
0
11
316.12399999999997
21
-100
31
0
0
LINE
5
785
100
AcDbEntity
8
0
100
AcDbLine
10
316.12399999999997
20
-100
30
0
11
313.87399999999991
21
-90
31
0
0
LINE
5
786
100
AcDbEntity
8
0
100
AcDbLine
10
313.87399999999991
20
-90
30
0
11
316.12399999999991
21
-80
31
0
0
LINE
5
787
100
AcDbEntity
8
0
100
AcDbLine
10
316.12399999999991
20
-80
30
0
11
318.37399999999991
21
-90
31
0
0
LINE
5
788
100
AcDbEntity
8
0
100
AcDbLine
10
318.37399999999991
20
-90
30
0
11
316.12399999999997
21
-100
31
0
0
LINE
5
789
100
AcDbEntity
8
0
100
AcDbLine
10
316.12399999999997
20
-100
30
0
11
325.62399999999997
21
-100
31
0
0
LINE
5
790
100
AcDbEntity
8
0
100
AcDbLine
10
325.62399999999997
20
-100
30
0
11
323.37399999999991
21
-90
31
0
0
LINE
5
791
100
AcDbEntity
8
0
100
AcDbLine
10
323.37399999999991
20
-90
30
0
11
325.62399999999991
21
-80
31
0
0
LINE
5
792
100
AcDbEntity
8
0
100
AcDbLine
10
325.62399999999991
20
-80
30
0
11
327.87399999999991
21
-90
31
0
0
LINE
5
793
100
AcDbEntity
8
0
100
AcDbLine
10
327.87399999999991
20
-90
30
0
11
325.62399999999997
21
-100
31
0
0
LINE
5
794
100
AcDbEntity
8
0
100
AcDbLine
10
325.62399999999997
20
-100
30
0
11
335.12400000000002
21
-100
31
0
0
LINE
5
795
100
AcDbEntity
8
0
100
AcDbLine
10
335.12400000000002
20
-100
30
0
11
332.87399999999991
21
-90
31
0
0
LINE
5
796
100
AcDbEntity
8
0
100
AcDbLine
10
332.87399999999991
20
-90
30
0
11
335.12399999999991
21
-80
31
0
0
LINE
5
797
100
AcDbEntity
8
0
100
AcDbLine
10
335.12399999999991
20
-80
30
0
11
337.37399999999991
21
-90
31
0
0
LINE
5
798
100
AcDbEntity
8
0
100
AcDbLine
10
337.37399999999991
20
-90
30
0
11
335.12400000000002
21
-100
31
0
0
LINE
5
799
100
AcDbEntity
8
0
100
AcDbLine
10
335.12400000000002
20
-100
30
0
11
344.62399999999997
21
-100
31
0
0
LINE
5
800
100
AcDbEntity
8
0
100
AcDbLine
10
344.62399999999997
20
-100
30
0
11
342.37399999999991
21
-90
31
0
0
LINE
5
801
100
AcDbEntity
8
0
100
AcDbLine
10
342.37399999999991
20
-90
30
0
11
344.62399999999997
21
-80
31
0
0
LINE
5
802
100
AcDbEntity
8
0
100
AcDbLine
10
344.62399999999997
20
-80
30
0
11
346.87399999999991
21
-90
31
0
0
LINE
5
803
100
AcDbEntity
8
0
100
AcDbLine
10
346.87399999999991
20
-90
30
0
11
344.62399999999997
21
-100
31
0
0
LINE
5
804
100
AcDbEntity
8
0
100
AcDbLine
10
344.62399999999997
20
-100
30
0
11
354.12399999999991
21
-100
31
0
0
LINE
5
805
100
AcDbEntity
8
0
100
AcDbLine
10
354.12399999999991
20
-100
30
0
11
351.8739999999998
21
-90
31
0
0
LINE
5
806
100
AcDbEntity
8
0
100
AcDbLine
10
351.8739999999998
20
-90
30
0
11
354.12399999999991
21
-80
31
0
0
LINE
5
807
100
AcDbEntity
8
0
100
AcDbLine
10
354.12399999999991
20
-80
30
0
11
356.37399999999985
21
-90
31
0
0
LINE
5
808
100
AcDbEntity
8
0
100
AcDbLine
10
356.37399999999985
20
-90
30
0
11
354.12399999999991
21
-100
31
0
0
LINE
5
809
100
AcDbEntity
8
0
100
AcDbLine
10
354.12399999999991
20
-100
30
0
11
363.62399999999991
21
-100
31
0
0
LINE
5
810
100
AcDbEntity
8
0
100
AcDbLine
10
363.62399999999991
20
-100
30
0
11
361.37399999999985
21
-90
31
0
0
LINE
5
811
100
AcDbEntity
8
0
100
AcDbLine
10
361.37399999999985
20
-90
30
0
11
363.62399999999985
21
-80
31
0
0
LINE
5
812
100
AcDbEntity
8
0
100
AcDbLine
10
363.62399999999985
20
-80
30
0
11
365.87399999999991
21
-90
31
0
0
LINE
5
813
100
AcDbEntity
8
0
100
AcDbLine
10
365.87399999999991
20
-90
30
0
11
363.62399999999991
21
-100
31
0
0
LINE
5
814
100
AcDbEntity
8
0
100
AcDbLine
10
363.62399999999991
20
-100
30
0
11
373.12399999999997
21
-100
31
0
0
LINE
5
815
100
AcDbEntity
8
0
100
AcDbLine
10
373.12399999999997
20
-100
30
0
11
370.87399999999991
21
-90
31
0
0
LINE
5
816
100
AcDbEntity
8
0
100
AcDbLine
10
370.87399999999991
20
-90
30
0
11
373.12399999999991
21
-80
31
0
0
LINE
5
817
100
AcDbEntity
8
0
100
AcDbLine
10
373.12399999999991
20
-80
30
0
11
375.37399999999991
21
-90
31
0
0
LINE
5
818
100
AcDbEntity
8
0
100
AcDbLine
10
375.37399999999991
20
-90
30
0
11
373.12399999999997
21
-100
31
0
0
LINE
5
819
100
AcDbEntity
8
0
100
AcDbLine
10
373.12399999999997
20
-100
30
0
11
382.62399999999991
21
-100
31
0
0
LINE
5
820
100
AcDbEntity
8
0
100
AcDbLine
10
382.62399999999991
20
-100
30
0
11
380.37399999999991
21
-90
31
0
0
LINE
5
821
100
AcDbEntity
8
0
100
AcDbLine
10
380.37399999999991
20
-90
30
0
11
382.62399999999991
21
-80
31
0
0
LINE
5
822
100
AcDbEntity
8
0
100
AcDbLine
10
382.62399999999991
20
-80
30
0
11
384.87399999999985
21
-90
31
0
0
LINE
5
823
100
AcDbEntity
8
0
100
AcDbLine
10
384.87399999999985
20
-90
30
0
11
382.62399999999991
21
-100
31
0
0
LINE
5
824
100
AcDbEntity
8
0
100
AcDbLine
10
382.62399999999991
20
-100
30
0
11
392.12399999999991
21
-100
31
0
0
LINE
5
825
100
AcDbEntity
8
0
100
AcDbLine
10
392.12399999999991
20
-100
30
0
11
389.8739999999998
21
-90
31
0
0
LINE
5
826
100
AcDbEntity
8
0
100
AcDbLine
10
389.8739999999998
20
-90
30
0
11
392.12399999999991
21
-80
31
0
0
LINE
5
827
100
AcDbEntity
8
0
100
AcDbLine
10
392.12399999999991
20
-80
30
0
11
394.3739999999998
21
-90
31
0
0
LINE
5
828
100
AcDbEntity
8
0
100
AcDbLine
10
394.3739999999998
20
-90
30
0
11
392.12399999999991
21
-100
31
0
0
LINE
5
829
100
AcDbEntity
8
0
100
AcDbLine
10
392.12399999999991
20
-100
30
0
11
401.62399999999991
21
-100
31
0
0
LINE
5
830
100
AcDbEntity
8
0
100
AcDbLine
10
401.62399999999991
20
-100
30
0
11
399.3739999999998
21
-90
31
0
0
LINE
5
831
100
AcDbEntity
8
0
100
AcDbLine
10
399.3739999999998
20
-90
30
0
11
401.62399999999985
21
-80
31
0
0
LINE
5
832
100
AcDbEntity
8
0
100
AcDbLine
10
401.62399999999985
20
-80
30
0
11
403.87399999999985
21
-90
31
0
0
LINE
5
833
100
AcDbEntity
8
0
100
AcDbLine
10
403.87399999999985
20
-90
30
0
11
401.62399999999991
21
-100
31
0
0
LINE
5
834
100
AcDbEntity
8
0
100
AcDbLine
10
401.62399999999991
20
-100
30
0
11
411.12399999999991
21
-100
31
0
0
LINE
5
835
100
AcDbEntity
8
0
100
AcDbLine
10
411.12399999999991
20
-100
30
0
11
408.87399999999985
21
-90
31
0
0
LINE
5
836
100
AcDbEntity
8
0
100
AcDbLine
10
408.87399999999985
20
-90
30
0
11
411.12399999999985
21
-80
31
0
0
LINE
5
837
100
AcDbEntity
8
0
100
AcDbLine
10
411.12399999999985
20
-80
30
0
11
413.37399999999991
21
-90
31
0
0
LINE
5
838
100
AcDbEntity
8
0
100
AcDbLine
10
413.37399999999991
20
-90
30
0
11
411.12399999999991
21
-100
31
0
0
LINE
5
839
100
AcDbEntity
8
0
100
AcDbLine
10
411.12399999999991
20
-100
30
0
11
429.24774946334037
21
-100.00000000001462
31
0
0
LINE
5
840
100
AcDbEntity
8
0
100
AcDbLine
10
429.24774946334037
20
-100.00000000001462
30
0
11
429.24774946334031
21
-95.000000000014637
31
0
0
ARC
5
841
100
AcDbEntity
8
0
100
AcDbCircle
10
431.74774946334026
20
-90.669872983107197
30
0
40
4.9999999982551291
210
0
220
0
230
1
100
AcDbArc
50
-59.99999998845599
51
239.99999998845684
0
LINE
5
842
100
AcDbEntity
8
0
100
AcDbLine
10
434.24774946334026
20
-95.00000000001458
30
0
11
434.24774946334026
21
-100.00000000001458
31
0
0
LINE
5
843
100
AcDbEntity
8
0
100
AcDbLine
10
434.24774946334026
20
-100.00000000001458
30
0
11
449.24774946334048
21
-100.00000000001452
31
0
0
LINE
5
844
100
AcDbEntity
8
0
100
AcDbLine
10
449.24774946334048
20
-100.00000000001452
30
0
11
449.2477494633232
21
-69.999999999418534
31
0
0
LINE
5
845
100
AcDbEntity
8
0
100
AcDbLine
10
449.2477494633232
20
-69.999999999418534
30
0
11
454.2477494645309
21
-69.999999999426421
31
0
0
ARC
5
846
100
AcDbEntity
8
0
100
AcDbCircle
10
458.57787648590954
20
-67.499999999363752
30
0
40
5.0000000021586999
210
0
220
0
230
1
100
AcDbArc
50
-150.00000001345251
51
150.00000001336173
0
LINE
5
847
100
AcDbEntity
8
0
100
AcDbLine
10
454.24774946453488
20
-64.999999999294232
30
0
11
449.24774946332764
21
-64.999999999294261
31
0
0
LINE
5
848
100
AcDbEntity
8
0
100
AcDbLine
10
449.24774946332764
20
-64.999999999294261
30
0
11
449.2477494633232
21
-34.999999999418534
31
0
0
LINE
5
849
100
AcDbEntity
8
0
100
AcDbLine
10
449.2477494633232
20
-34.999999999418534
30
0
11
454.2477494645309
21
-34.999999999426421
31
0
0
ARC
5
850
100
AcDbEntity
8
0
100
AcDbCircle
10
458.57787648590954
20
-32.499999999363745
30
0
40
5.0000000021586999
210
0
220
0
230
1
100
AcDbArc
50
-150.00000001345242
51
150.00000001336181
0
LINE
5
851
100
AcDbEntity
8
0
100
AcDbLine
10
454.24774946453488
20
-29.999999999294236
30
0
11
449.24774946332764
21
-29.999999999294253
31
0
0
LINE
5
852
100
AcDbEntity
8
0
100
AcDbLine
10
449.24774946332764
20
-29.999999999294253
30
0
11
449.24774946333639
21
-19.999999999302588
31
0
0
LINE
5
853
100
AcDbEntity
8
0
100
AcDbLine
10
449.24774946333639
20
-19.999999999302588
30
0
11
439.24774946333025
21
-19.999999999293774
31
0
0
LINE
5
854
100
AcDbEntity
8
0
100
AcDbLine
10
439.24774946333025
20
-19.999999999293774
30
0
11
439.24774946333906
21
-9.9999999992937756
31
0
0
LINE
5
855
100
AcDbEntity
8
0
100
AcDbLine
10
439.24774946333906
20
-9.9999999992937756
30
0
11
449.24774946334526
21
-9.9999999993025863
31
0
0
LINE
5
856
100
AcDbEntity
8
0
100
AcDbLine
10
449.24774946334526
20
-9.9999999993025863
30
0
11
449.24774946335401
21
7.0574546207069488e-10
31
0
0
LINE
5
857
100
AcDbEntity
8
0
100
AcDbLine
10
449.24774946335401
20
7.0574546207069488e-10
30
0
11
413.37399999999991
21
0
31
0
0
LINE
5
858
100
AcDbEntity
8
0
100
AcDbLine
10
413.37399999999991
20
0
30
0
11
411.12399999999991
21
-10
31
0
0
LINE
5
859
100
AcDbEntity
8
0
100
AcDbLine
10
411.12399999999991
20
-10
30
0
11
408.87399999999985
21
0
31
0
0
LINE
5
860
100
AcDbEntity
8
0
100
AcDbLine
10
408.87399999999985
20
0
30
0
11
403.87399999999985
21
0
31
0
0
LINE
5
861
100
AcDbEntity
8
0
100
AcDbLine
10
403.87399999999985
20
0
30
0
11
401.62399999999991
21
-10
31
0
0
LINE
5
862
100
AcDbEntity
8
0
100
AcDbLine
10
401.62399999999991
20
-10
30
0
11
399.3739999999998
21
0
31
0
0
LINE
5
863
100
AcDbEntity
8
0
100
AcDbLine
10
399.3739999999998
20
0
30
0
11
394.3739999999998
21
0
31
0
0
LINE
5
864
100
AcDbEntity
8
0
100
AcDbLine
10
394.3739999999998
20
0
30
0
11
392.12399999999991
21
-10
31
0
0
LINE
5
865
100
AcDbEntity
8
0
100
AcDbLine
10
392.12399999999991
20
-10
30
0
11
389.8739999999998
21
0
31
0
0
LINE
5
866
100
AcDbEntity
8
0
100
AcDbLine
10
389.8739999999998
20
0
30
0
11
384.87399999999985
21
0
31
0
0
LINE
5
867
100
AcDbEntity
8
0
100
AcDbLine
10
384.87399999999985
20
0
30
0
11
382.62399999999991
21
-10
31
0
0
LINE
5
868
100
AcDbEntity
8
0
100
AcDbLine
10
382.62399999999991
20
-10
30
0
11
380.37399999999991
21
0
31
0
0
LINE
5
869
100
AcDbEntity
8
0
100
AcDbLine
10
380.37399999999991
20
0
30
0
11
375.37399999999991
21
0
31
0
0
LINE
5
870
100
AcDbEntity
8
0
100
AcDbLine
10
375.37399999999991
20
0
30
0
11
373.12399999999997
21
-10
31
0
0
LINE
5
871
100
AcDbEntity
8
0
100
AcDbLine
10
373.12399999999997
20
-10
30
0
11
370.87399999999991
21
0
31
0
0
LINE
5
872
100
AcDbEntity
8
0
100
AcDbLine
10
370.87399999999991
20
0
30
0
11
365.87399999999991
21
0
31
0
0
LINE
5
873
100
AcDbEntity
8
0
100
AcDbLine
10
365.87399999999991
20
0
30
0
11
363.62399999999991
21
-10
31
0
0
LINE
5
874
100
AcDbEntity
8
0
100
AcDbLine
10
363.62399999999991
20
-10
30
0
11
361.37399999999985
21
0
31
0
0
LINE
5
875
100
AcDbEntity
8
0
100
AcDbLine
10
361.37399999999985
20
0
30
0
11
356.37399999999985
21
0
31
0
0
LINE
5
876
100
AcDbEntity
8
0
100
AcDbLine
10
356.37399999999985
20
0
30
0
11
354.12399999999991
21
-10
31
0
0
LINE
5
877
100
AcDbEntity
8
0
100
AcDbLine
10
354.12399999999991
20
-10
30
0
11
351.8739999999998
21
0
31
0
0
LINE
5
878
100
AcDbEntity
8
0
100
AcDbLine
10
351.8739999999998
20
0
30
0
11
346.87399999999991
21
0
31
0
0
LINE
5
879
100
AcDbEntity
8
0
100
AcDbLine
10
346.87399999999991
20
0
30
0
11
344.62399999999997
21
-10
31
0
0
LINE
5
880
100
AcDbEntity
8
0
100
AcDbLine
10
344.62399999999997
20
-10
30
0
11
342.37399999999991
21
0
31
0
0
LINE
5
881
100
AcDbEntity
8
0
100
AcDbLine
10
342.37399999999991
20
0
30
0
11
337.37399999999991
21
0
31
0
0
LINE
5
882
100
AcDbEntity
8
0
100
AcDbLine
10
337.37399999999991
20
0
30
0
11
335.12400000000002
21
-10
31
0
0
LINE
5
883
100
AcDbEntity
8
0
100
AcDbLine
10
335.12400000000002
20
-10
30
0
11
332.87399999999991
21
0
31
0
0
LINE
5
884
100
AcDbEntity
8
0
100
AcDbLine
10
332.87399999999991
20
0
30
0
11
327.87399999999991
21
0
31
0
0
LINE
5
885
100
AcDbEntity
8
0
100
AcDbLine
10
327.87399999999991
20
0
30
0
11
325.62399999999997
21
-10
31
0
0
LINE
5
886
100
AcDbEntity
8
0
100
AcDbLine
10
325.62399999999997
20
-10
30
0
11
323.37399999999991
21
0
31
0
0
LINE
5
887
100
AcDbEntity
8
0
100
AcDbLine
10
323.37399999999991
20
0
30
0
11
318.37399999999991
21
0
31
0
0
LINE
5
888
100
AcDbEntity
8
0
100
AcDbLine
10
318.37399999999991
20
0
30
0
11
316.12399999999997
21
-10
31
0
0
LINE
5
889
100
AcDbEntity
8
0
100
AcDbLine
10
316.12399999999997
20
-10
30
0
11
313.87399999999991
21
0
31
0
0
LINE
5
890
100
AcDbEntity
8
0
100
AcDbLine
10
313.87399999999991
20
0
30
0
11
308.87399999999991
21
0
31
0
0
LINE
5
891
100
AcDbEntity
8
0
100
AcDbLine
10
308.87399999999991
20
0
30
0
11
306.62399999999997
21
-10
31
0
0
LINE
5
892
100
AcDbEntity
8
0
100
AcDbLine
10
306.62399999999997
20
-10
30
0
11
304.37399999999991
21
0
31
0
0
LINE
5
893
100
AcDbEntity
8
0
100
AcDbLine
10
304.37399999999991
20
0
30
0
11
299.37399999999991
21
0
31
0
0
LINE
5
894
100
AcDbEntity
8
0
100
AcDbLine
10
299.37399999999991
20
0
30
0
11
297.12399999999997
21
-10
31
0
0
LINE
5
895
100
AcDbEntity
8
0
100
AcDbLine
10
297.12399999999997
20
-10
30
0
11
294.87399999999991
21
0
31
0
0
LINE
5
896
100
AcDbEntity
8
0
100
AcDbLine
10
294.87399999999991
20
0
30
0
11
289.87399999999991
21
0
31
0
0
LINE
5
897
100
AcDbEntity
8
0
100
AcDbLine
10
289.87399999999991
20
0
30
0
11
287.62400000000002
21
-10
31
0
0
LINE
5
898
100
AcDbEntity
8
0
100
AcDbLine
10
287.62400000000002
20
-10
30
0
11
285.37399999999997
21
0
31
0
0
LINE
5
899
100
AcDbEntity
8
0
100
AcDbLine
10
285.37399999999997
20
0
30
0
11
280.37399999999997
21
0
31
0
0
LINE
5
900
100
AcDbEntity
8
0
100
AcDbLine
10
280.37399999999997
20
0
30
0
11
278.12400000000002
21
-10
31
0
0
LINE
5
901
100
AcDbEntity
8
0
100
AcDbLine
10
278.12400000000002
20
-10
30
0
11
275.87399999999997
21
0
31
0
0
LINE
5
902
100
AcDbEntity
8
0
100
AcDbLine
10
275.87399999999997
20
0
30
0
11
270.87399999999997
21
0
31
0
0
LINE
5
903
100
AcDbEntity
8
0
100
AcDbLine
10
270.87399999999997
20
0
30
0
11
268.62400000000002
21
-10
31
0
0
LINE
5
904
100
AcDbEntity
8
0
100
AcDbLine
10
268.62400000000002
20
-10
30
0
11
266.37399999999997
21
0
31
0
0
LINE
5
905
100
AcDbEntity
8
0
100
AcDbLine
10
266.37399999999997
20
0
30
0
11
261.37399999999997
21
0
31
0
0
LINE
5
906
100
AcDbEntity
8
0
100
AcDbLine
10
261.37399999999997
20
0
30
0
11
259.12400000000002
21
-10
31
0
0
LINE
5
907
100
AcDbEntity
8
0
100
AcDbLine
10
259.12400000000002
20
-10
30
0
11
256.87399999999997
21
0
31
0
0
LINE
5
908
100
AcDbEntity
8
0
100
AcDbLine
10
256.87399999999997
20
0
30
0
11
188.75000000000003
21
0
31
0
0
LINE
5
909
100
AcDbEntity
8
0
100
AcDbLine
10
188.75000000000003
20
0
30
0
11
186.50000000000006
21
-9.9999999999999982
31
0
0
LINE
5
910
100
AcDbEntity
8
0
100
AcDbLine
10
186.50000000000006
20
-9.9999999999999982
30
0
11
184.25000000000006
21
0
31
0
0
LINE
5
911
100
AcDbEntity
8
0
100
AcDbLine
10
184.25000000000006
20
0
30
0
11
179.25000000000006
21
0
31
0
0
LINE
5
912
100
AcDbEntity
8
0
100
AcDbLine
10
179.25000000000006
20
0
30
0
11
177.00000000000006
21
-9.9999999999999982
31
0
0
LINE
5
913
100
AcDbEntity
8
0
100
AcDbLine
10
177.00000000000006
20
-9.9999999999999982
30
0
11
174.75000000000006
21
0
31
0
0
LINE
5
914
100
AcDbEntity
8
0
100
AcDbLine
10
174.75000000000006
20
0
30
0
11
169.75
21
0
31
0
0
LINE
5
915
100
AcDbEntity
8
0
100
AcDbLine
10
169.75
20
0
30
0
11
167.50000000000006
21
-9.9999999999999982
31
0
0
LINE
5
916
100
AcDbEntity
8
0
100
AcDbLine
10
167.50000000000006
20
-9.9999999999999982
30
0
11
165.25000000000006
21
0
31
0
0
LINE
5
917
100
AcDbEntity
8
0
100
AcDbLine
10
165.25000000000006
20
0
30
0
11
160.25000000000003
21
0
31
0
0
LINE
5
918
100
AcDbEntity
8
0
100
AcDbLine
10
160.25000000000003
20
0
30
0
11
158.00000000000006
21
-9.9999999999999982
31
0
0
LINE
5
919
100
AcDbEntity
8
0
100
AcDbLine
10
158.00000000000006
20
-9.9999999999999982
30
0
11
155.75000000000003
21
0
31
0
0
LINE
5
920
100
AcDbEntity
8
0
100
AcDbLine
10
155.75000000000003
20
0
30
0
11
150.75000000000003
21
0
31
0
0
LINE
5
921
100
AcDbEntity
8
0
100
AcDbLine
10
150.75000000000003
20
0
30
0
11
148.50000000000006
21
-9.9999999999999982
31
0
0
LINE
5
922
100
AcDbEntity
8
0
100
AcDbLine
10
148.50000000000006
20
-9.9999999999999982
30
0
11
146.25000000000003
21
0
31
0
0
LINE
5
923
100
AcDbEntity
8
0
100
AcDbLine
10
146.25000000000003
20
0
30
0
11
141.25000000000003
21
0
31
0
0
LINE
5
924
100
AcDbEntity
8
0
100
AcDbLine
10
141.25000000000003
20
0
30
0
11
139.00000000000006
21
-9.9999999999999982
31
0
0
LINE
5
925
100
AcDbEntity
8
0
100
AcDbLine
10
139.00000000000006
20
-9.9999999999999982
30
0
11
136.75000000000006
21
0
31
0
0
LINE
5
926
100
AcDbEntity
8
0
100
AcDbLine
10
136.75000000000006
20
0
30
0
11
131.75
21
0
31
0
0
LINE
5
927
100
AcDbEntity
8
0
100
AcDbLine
10
131.75
20
0
30
0
11
129.50000000000006
21
-9.9999999999999982
31
0
0
LINE
5
928
100
AcDbEntity
8
0
100
AcDbLine
10
129.50000000000006
20
-9.9999999999999982
30
0
11
127.25000000000006
21
0
31
0
0
LINE
5
929
100
AcDbEntity
8
0
100
AcDbLine
10
127.25000000000006
20
0
30
0
11
122.25000000000001
21
0
31
0
0
LINE
5
930
100
AcDbEntity
8
0
100
AcDbLine
10
122.25000000000001
20
0
30
0
11
120.00000000000003
21
-9.9999999999999982
31
0
0
LINE
5
931
100
AcDbEntity
8
0
100
AcDbLine
10
120.00000000000003
20
-9.9999999999999982
30
0
11
117.75000000000003
21
0
31
0
0
LINE
5
932
100
AcDbEntity
8
0
100
AcDbLine
10
117.75000000000003
20
0
30
0
11
112.75000000000003
21
0
31
0
0
LINE
5
933
100
AcDbEntity
8
0
100
AcDbLine
10
112.75000000000003
20
0
30
0
11
110.50000000000004
21
-9.9999999999999982
31
0
0
LINE
5
934
100
AcDbEntity
8
0
100
AcDbLine
10
110.50000000000004
20
-9.9999999999999982
30
0
11
108.25000000000003
21
0
31
0
0
LINE
5
935
100
AcDbEntity
8
0
100
AcDbLine
10
108.25000000000003
20
0
30
0
11
103.25000000000001
21
0
31
0
0
LINE
5
936
100
AcDbEntity
8
0
100
AcDbLine
10
103.25000000000001
20
0
30
0
11
101.00000000000006
21
-9.9999999999999982
31
0
0
LINE
5
937
100
AcDbEntity
8
0
100
AcDbLine
10
101.00000000000006
20
-9.9999999999999982
30
0
11
98.750000000000028
21
0
31
0
0
LINE
5
938
100
AcDbEntity
8
0
100
AcDbLine
10
98.750000000000028
20
0
30
0
11
93.75
21
0
31
0
0
LINE
5
939
100
AcDbEntity
8
0
100
AcDbLine
10
93.75
20
0
30
0
11
91.500000000000057
21
-9.9999999999999982
31
0
0
LINE
5
940
100
AcDbEntity
8
0
100
AcDbLine
10
91.500000000000057
20
-9.9999999999999982
30
0
11
89.250000000000043
21
0
31
0
0
LINE
5
941
100
AcDbEntity
8
0
100
AcDbLine
10
89.250000000000043
20
0
30
0
11
84.25
21
0
31
0
0
LINE
5
942
100
AcDbEntity
8
0
100
AcDbLine
10
84.25
20
0
30
0
11
82.000000000000043
21
-9.9999999999999982
31
0
0
LINE
5
943
100
AcDbEntity
8
0
100
AcDbLine
10
82.000000000000043
20
-9.9999999999999982
30
0
11
79.750000000000028
21
0
31
0
0
LINE
5
944
100
AcDbEntity
8
0
100
AcDbLine
10
79.750000000000028
20
0
30
0
11
74.75
21
0
31
0
0
LINE
5
945
100
AcDbEntity
8
0
100
AcDbLine
10
74.75
20
0
30
0
11
72.500000000000043
21
-9.9999999999999982
31
0
0
LINE
5
946
100
AcDbEntity
8
0
100
AcDbLine
10
72.500000000000043
20
-9.9999999999999982
30
0
11
70.250000000000028
21
0
31
0
0
LINE
5
947
100
AcDbEntity
8
0
100
AcDbLine
10
70.250000000000028
20
0
30
0
11
65.25
21
0
31
0
0
LINE
5
948
100
AcDbEntity
8
0
100
AcDbLine
10
65.25
20
0
30
0
11
63.000000000000043
21
-9.9999999999999982
31
0
0
LINE
5
949
100
AcDbEntity
8
0
100
AcDbLine
10
63.000000000000043
20
-9.9999999999999982
30
0
11
60.750000000000028
21
0
31
0
0
LINE
5
950
100
AcDbEntity
8
0
100
AcDbLine
10
60.750000000000028
20
0
30
0
11
55.75
21
0
31
0
0
LINE
5
951
100
AcDbEntity
8
0
100
AcDbLine
10
55.75
20
0
30
0
11
53.500000000000043
21
-9.9999999999999982
31
0
0
LINE
5
952
100
AcDbEntity
8
0
100
AcDbLine
10
53.500000000000043
20
-9.9999999999999982
30
0
11
51.250000000000028
21
0
31
0
0
LINE
5
953
100
AcDbEntity
8
0
100
AcDbLine
10
51.250000000000028
20
0
30
0
11
46.25
21
0
31
0
0
LINE
5
954
100
AcDbEntity
8
0
100
AcDbLine
10
46.25
20
0
30
0
11
44.000000000000043
21
-9.9999999999999982
31
0
0
LINE
5
955
100
AcDbEntity
8
0
100
AcDbLine
10
44.000000000000043
20
-9.9999999999999982
30
0
11
41.750000000000028
21
0
31
0
0
LINE
5
956
100
AcDbEntity
8
0
100
AcDbLine
10
41.750000000000028
20
0
30
0
11
36.75
21
0
31
0
0
LINE
5
957
100
AcDbEntity
8
0
100
AcDbLine
10
36.75
20
0
30
0
11
34.500000000000036
21
-9.9999999999999982
31
0
0
LINE
5
958
100
AcDbEntity
8
0
100
AcDbLine
10
34.500000000000036
20
-9.9999999999999982
30
0
11
32.250000000000021
21
0
31
0
0
LINE
5
959
100
AcDbEntity
8
0
100
AcDbLine
10
32.250000000000021
20
0
30
0
11
-35.873874731670377
21
0
31
0
0
LINE
5
960
100
AcDbEntity
8
0
100
AcDbLine
10
-35.873874731670377
20
0
30
0
11
-38.12387473167032
21
-9.9999999999999982
31
0
0
LINE
5
961
100
AcDbEntity
8
0
100
AcDbLine
10
-38.12387473167032
20
-9.9999999999999982
30
0
11
-40.373874731670369
21
0
31
0
0
LINE
5
962
100
AcDbEntity
8
0
100
AcDbLine
10
-40.373874731670369
20
0
30
0
11
-45.373874731670369
21
0
31
0
0
LINE
5
963
100
AcDbEntity
8
0
100
AcDbLine
10
-45.373874731670369
20
0
30
0
11
-47.623874731670313
21
-9.9999999999999982
31
0
0
LINE
5
964
100
AcDbEntity
8
0
100
AcDbLine
10
-47.623874731670313
20
-9.9999999999999982
30
0
11
-49.873874731670362
21
0
31
0
0
LINE
5
965
100
AcDbEntity
8
0
100
AcDbLine
10
-49.873874731670362
20
0
30
0
11
-54.873874731670362
21
0
31
0
0
LINE
5
966
100
AcDbEntity
8
0
100
AcDbLine
10
-54.873874731670362
20
0
30
0
11
-57.123874731670305
21
-9.9999999999999982
31
0
0
LINE
5
967
100
AcDbEntity
8
0
100
AcDbLine
10
-57.123874731670305
20
-9.9999999999999982
30
0
11
-59.373874731670355
21
0
31
0
0
LINE
5
968
100
AcDbEntity
8
0
100
AcDbLine
10
-59.373874731670355
20
0
30
0
11
-64.373874731670355
21
0
31
0
0
LINE
5
969
100
AcDbEntity
8
0
100
AcDbLine
10
-64.373874731670355
20
0
30
0
11
-66.623874731670298
21
-9.9999999999999982
31
0
0
LINE
5
970
100
AcDbEntity
8
0
100
AcDbLine
10
-66.623874731670298
20
-9.9999999999999982
30
0
11
-68.873874731670355
21
0
31
0
0
LINE
5
971
100
AcDbEntity
8
0
100
AcDbLine
10
-68.873874731670355
20
0
30
0
11
-73.873874731670355
21
0
31
0
0
LINE
5
972
100
AcDbEntity
8
0
100
AcDbLine
10
-73.873874731670355
20
0
30
0
11
-76.123874731670298
21
-9.9999999999999982
31
0
0
LINE
5
973
100
AcDbEntity
8
0
100
AcDbLine
10
-76.123874731670298
20
-9.9999999999999982
30
0
11
-78.373874731670341
21
0
31
0
0
LINE
5
974
100
AcDbEntity
8
0
100
AcDbLine
10
-78.373874731670341
20
0
30
0
11
-83.373874731670341
21
0
31
0
0
LINE
5
975
100
AcDbEntity
8
0
100
AcDbLine
10
-83.373874731670341
20
0
30
0
11
-85.623874731670284
21
-9.9999999999999982
31
0
0
LINE
5
976
100
AcDbEntity
8
0
100
AcDbLine
10
-85.623874731670284
20
-9.9999999999999982
30
0
11
-87.873874731670327
21
0
31
0
0
LINE
5
977
100
AcDbEntity
8
0
100
AcDbLine
10
-87.873874731670327
20
0
30
0
11
-92.873874731670327
21
0
31
0
0
LINE
5
978
100
AcDbEntity
8
0
100
AcDbLine
10
-92.873874731670327
20
0
30
0
11
-95.12387473167027
21
-9.9999999999999982
31
0
0
LINE
5
979
100
AcDbEntity
8
0
100
AcDbLine
10
-95.12387473167027
20
-9.9999999999999982
30
0
11
-97.373874731670327
21
0
31
0
0
LINE
5
980
100
AcDbEntity
8
0
100
AcDbLine
10
-97.373874731670327
20
0
30
0
11
-102.37387473167033
21
0
31
0
0
LINE
5
981
100
AcDbEntity
8
0
100
AcDbLine
10
-102.37387473167033
20
0
30
0
11
-104.62387473167027
21
-9.9999999999999982
31
0
0
LINE
5
982
100
AcDbEntity
8
0
100
AcDbLine
10
-104.62387473167027
20
-9.9999999999999982
30
0
11
-106.87387473167033
21
0
31
0
0
LINE
5
983
100
AcDbEntity
8
0
100
AcDbLine
10
-106.87387473167033
20
0
30
0
11
-111.87387473167033
21
0
31
0
0
LINE
5
984
100
AcDbEntity
8
0
100
AcDbLine
10
-111.87387473167033
20
0
30
0
11
-114.12387473167027
21
-9.9999999999999982
31
0
0
LINE
5
985
100
AcDbEntity
8
0
100
AcDbLine
10
-114.12387473167027
20
-9.9999999999999982
30
0
11
-116.37387473167031
21
0
31
0
0
LINE
5
986
100
AcDbEntity
8
0
100
AcDbLine
10
-116.37387473167031
20
0
30
0
11
-121.37387473167031
21
0
31
0
0
LINE
5
987
100
AcDbEntity
8
0
100
AcDbLine
10
-121.37387473167031
20
0
30
0
11
-123.62387473167026
21
-9.9999999999999982
31
0
0
LINE
5
988
100
AcDbEntity
8
0
100
AcDbLine
10
-123.62387473167026
20
-9.9999999999999982
30
0
11
-125.8738747316703
21
0
31
0
0
LINE
5
989
100
AcDbEntity
8
0
100
AcDbLine
10
-125.8738747316703
20
0
30
0
11
-130.8738747316703
21
0
31
0
0
LINE
5
990
100
AcDbEntity
8
0
100
AcDbLine
10
-130.8738747316703
20
0
30
0
11
-133.12387473167024
21
-9.9999999999999982
31
0
0
LINE
5
991
100
AcDbEntity
8
0
100
AcDbLine
10
-133.12387473167024
20
-9.9999999999999982
30
0
11
-135.3738747316703
21
0
31
0
0
LINE
5
992
100
AcDbEntity
8
0
100
AcDbLine
10
-135.3738747316703
20
0
30
0
11
-140.3738747316703
21
0
31
0
0
LINE
5
993
100
AcDbEntity
8
0
100
AcDbLine
10
-140.3738747316703
20
0
30
0
11
-142.62387473167024
21
-9.9999999999999982
31
0
0
LINE
5
994
100
AcDbEntity
8
0
100
AcDbLine
10
-142.62387473167024
20
-9.9999999999999982
30
0
11
-144.8738747316703
21
0
31
0
0
LINE
5
995
100
AcDbEntity
8
0
100
AcDbLine
10
-144.8738747316703
20
0
30
0
11
-149.8738747316703
21
0
31
0
0
LINE
5
996
100
AcDbEntity
8
0
100
AcDbLine
10
-149.8738747316703
20
0
30
0
11
-152.12387473167024
21
-9.9999999999999982
31
0
0
LINE
5
997
100
AcDbEntity
8
0
100
AcDbLine
10
-152.12387473167024
20
-9.9999999999999982
30
0
11
-154.3738747316703
21
0
31
0
0
LINE
5
998
100
AcDbEntity
8
0
100
AcDbLine
10
-154.3738747316703
20
0
30
0
11
-159.3738747316703
21
0
31
0
0
LINE
5
999
100
AcDbEntity
8
0
100
AcDbLine
10
-159.3738747316703
20
0
30
0
11
-161.62387473167024
21
-9.9999999999999982
31
0
0
LINE
5
1000
100
AcDbEntity
8
0
100
AcDbLine
10
-161.62387473167024
20
-9.9999999999999982
30
0
11
-163.87387473167027
21
0
31
0
0
LINE
5
1001
100
AcDbEntity
8
0
100
AcDbLine
10
-163.87387473167027
20
0
30
0
11
-168.87387473167027
21
0
31
0
0
LINE
5
1002
100
AcDbEntity
8
0
100
AcDbLine
10
-168.87387473167027
20
0
30
0
11
-171.12387473167021
21
-9.9999999999999982
31
0
0
LINE
5
1003
100
AcDbEntity
8
0
100
AcDbLine
10
-171.12387473167021
20
-9.9999999999999982
30
0
11
-173.37387473167027
21
0
31
0
0
LINE
5
1004
100
AcDbEntity
8
0
100
AcDbLine
10
-173.37387473167027
20
0
30
0
11
-178.37387473167027
21
0
31
0
0
LINE
5
1005
100
AcDbEntity
8
0
100
AcDbLine
10
-178.37387473167027
20
0
30
0
11
-180.62387473167021
21
-9.9999999999999982
31
0
0
LINE
5
1006
100
AcDbEntity
8
0
100
AcDbLine
10
-180.62387473167021
20
-9.9999999999999982
30
0
11
-182.87387473167027
21
0
31
0
0
LINE
5
1007
100
AcDbEntity
8
0
100
AcDbLine
10
-182.87387473167027
20
0
30
0
11
-187.87387473167027
21
0
31
0
0
LINE
5
1008
100
AcDbEntity
8
0
100
AcDbLine
10
-187.87387473167027
20
0
30
0
11
-190.12387473167021
21
-9.9999999999999982
31
0
0
LINE
5
1009
100
AcDbEntity
8
0
100
AcDbLine
10
-190.12387473167021
20
-9.9999999999999982
30
0
11
-192.37387473167024
21
0
31
0
0
LINE
5
1010
100
AcDbEntity
8
0
100
AcDbLine
10
-192.37387473167024
20
0
30
0
11
-265.49774946333997
21
3.9968028886505635e-14
31
0
0
LINE
5
1011
100
AcDbEntity
8
0
100
AcDbLine
10
-265.49774946333997
20
3.9968028886505635e-14
30
0
11
-267.74774946333997
21
-9.9999999999999609
31
0
0
LINE
5
1012
100
AcDbEntity
8
0
100
AcDbLine
10
-267.74774946333997
20
-9.9999999999999609
30
0
11
-269.99774946334003
21
3.9968028886505635e-14
31
0
0
LINE
5
1013
100
AcDbEntity
8
0
100
AcDbLine
10
-269.99774946334003
20
3.9968028886505635e-14
30
0
11
-274.99774946334003
21
3.9968028886505635e-14
31
0
0
LINE
5
1014
100
AcDbEntity
8
0
100
AcDbLine
10
-274.99774946334003
20
3.9968028886505635e-14
30
0
11
-277.24774946334003
21
-9.9999999999999609
31
0
0
LINE
5
1015
100
AcDbEntity
8
0
100
AcDbLine
10
-277.24774946334003
20
-9.9999999999999609
30
0
11
-279.49774946334003
21
3.9968028886505635e-14
31
0
0
LINE
5
1016
100
AcDbEntity
8
0
100
AcDbLine
10
-279.49774946334003
20
3.9968028886505635e-14
30
0
11
-284.49774946334003
21
3.9968028886505635e-14
31
0
0
LINE
5
1017
100
AcDbEntity
8
0
100
AcDbLine
10
-284.49774946334003
20
3.9968028886505635e-14
30
0
11
-286.74774946334003
21
-9.9999999999999609
31
0
0
LINE
5
1018
100
AcDbEntity
8
0
100
AcDbLine
10
-286.74774946334003
20
-9.9999999999999609
30
0
11
-288.99774946334003
21
3.9968028886505635e-14
31
0
0
LINE
5
1019
100
AcDbEntity
8
0
100
AcDbLine
10
-288.99774946334003
20
3.9968028886505635e-14
30
0
11
-293.99774946334003
21
3.9968028886505635e-14
31
0
0
LINE
5
1020
100
AcDbEntity
8
0
100
AcDbLine
10
-293.99774946334003
20
3.9968028886505635e-14
30
0
11
-296.24774946334009
21
-9.9999999999999609
31
0
0
LINE
5
1021
100
AcDbEntity
8
0
100
AcDbLine
10
-296.24774946334009
20
-9.9999999999999609
30
0
11
-298.49774946334009
21
3.9968028886505635e-14
31
0
0
LINE
5
1022
100
AcDbEntity
8
0
100
AcDbLine
10
-298.49774946334009
20
3.9968028886505635e-14
30
0
11
-303.49774946334009
21
3.9968028886505635e-14
31
0
0
LINE
5
1023
100
AcDbEntity
8
0
100
AcDbLine
10
-303.49774946334009
20
3.9968028886505635e-14
30
0
11
-305.74774946334009
21
-9.9999999999999609
31
0
0
LINE
5
1024
100
AcDbEntity
8
0
100
AcDbLine
10
-305.74774946334009
20
-9.9999999999999609
30
0
11
-307.99774946334014
21
3.9968028886505635e-14
31
0
0
LINE
5
1025
100
AcDbEntity
8
0
100
AcDbLine
10
-307.99774946334014
20
3.9968028886505635e-14
30
0
11
-312.99774946334014
21
3.9968028886505635e-14
31
0
0
LINE
5
1026
100
AcDbEntity
8
0
100
AcDbLine
10
-312.99774946334014
20
3.9968028886505635e-14
30
0
11
-315.24774946334014
21
-9.9999999999999609
31
0
0
LINE
5
1027
100
AcDbEntity
8
0
100
AcDbLine
10
-315.24774946334014
20
-9.9999999999999609
30
0
11
-317.49774946334014
21
3.9968028886505635e-14
31
0
0
LINE
5
1028
100
AcDbEntity
8
0
100
AcDbLine
10
-317.49774946334014
20
3.9968028886505635e-14
30
0
11
-322.49774946334014
21
3.9968028886505635e-14
31
0
0
LINE
5
1029
100
AcDbEntity
8
0
100
AcDbLine
10
-322.49774946334014
20
3.9968028886505635e-14
30
0
11
-324.74774946334014
21
-9.9999999999999609
31
0
0
LINE
5
1030
100
AcDbEntity
8
0
100
AcDbLine
10
-324.74774946334014
20
-9.9999999999999609
30
0
11
-326.99774946334014
21
3.9968028886505635e-14
31
0
0
LINE
5
1031
100
AcDbEntity
8
0
100
AcDbLine
10
-326.99774946334014
20
3.9968028886505635e-14
30
0
11
-331.99774946334014
21
3.9968028886505635e-14
31
0
0
LINE
5
1032
100
AcDbEntity
8
0
100
AcDbLine
10
-331.99774946334014
20
3.9968028886505635e-14
30
0
11
-334.2477494633402
21
-9.9999999999999609
31
0
0
LINE
5
1033
100
AcDbEntity
8
0
100
AcDbLine
10
-334.2477494633402
20
-9.9999999999999609
30
0
11
-336.4977494633402
21
3.9968028886505635e-14
31
0
0
LINE
5
1034
100
AcDbEntity
8
0
100
AcDbLine
10
-336.4977494633402
20
3.9968028886505635e-14
30
0
11
-341.4977494633402
21
3.9968028886505635e-14
31
0
0
LINE
5
1035
100
AcDbEntity
8
0
100
AcDbLine
10
-341.4977494633402
20
3.9968028886505635e-14
30
0
11
-343.7477494633402
21
-9.9999999999999609
31
0
0
LINE
5
1036
100
AcDbEntity
8
0
100
AcDbLine
10
-343.7477494633402
20
-9.9999999999999609
30
0
11
-345.99774946334026
21
3.9968028886505635e-14
31
0
0
LINE
5
1037
100
AcDbEntity
8
0
100
AcDbLine
10
-345.99774946334026
20
3.9968028886505635e-14
30
0
11
-350.99774946334026
21
3.9968028886505635e-14
31
0
0
LINE
5
1038
100
AcDbEntity
8
0
100
AcDbLine
10
-350.99774946334026
20
3.9968028886505635e-14
30
0
11
-353.24774946334026
21
-9.9999999999999609
31
0
0
LINE
5
1039
100
AcDbEntity
8
0
100
AcDbLine
10
-353.24774946334026
20
-9.9999999999999609
30
0
11
-355.49774946334026
21
3.9968028886505635e-14
31
0
0
LINE
5
1040
100
AcDbEntity
8
0
100
AcDbLine
10
-355.49774946334026
20
3.9968028886505635e-14
30
0
11
-360.49774946334026
21
3.9968028886505635e-14
31
0
0
LINE
5
1041
100
AcDbEntity
8
0
100
AcDbLine
10
-360.49774946334026
20
3.9968028886505635e-14
30
0
11
-362.74774946334026
21
-9.9999999999999609
31
0
0
LINE
5
1042
100
AcDbEntity
8
0
100
AcDbLine
10
-362.74774946334026
20
-9.9999999999999609
30
0
11
-364.99774946334026
21
3.9968028886505635e-14
31
0
0
LINE
5
1043
100
AcDbEntity
8
0
100
AcDbLine
10
-364.99774946334026
20
3.9968028886505635e-14
30
0
11
-369.99774946334026
21
3.9968028886505635e-14
31
0
0
LINE
5
1044
100
AcDbEntity
8
0
100
AcDbLine
10
-369.99774946334026
20
3.9968028886505635e-14
30
0
11
-372.24774946334031
21
-9.9999999999999609
31
0
0
LINE
5
1045
100
AcDbEntity
8
0
100
AcDbLine
10
-372.24774946334031
20
-9.9999999999999609
30
0
11
-374.49774946334031
21
3.9968028886505635e-14
31
0
0
LINE
5
1046
100
AcDbEntity
8
0
100
AcDbLine
10
-374.49774946334031
20
3.9968028886505635e-14
30
0
11
-379.49774946334031
21
3.9968028886505635e-14
31
0
0
ENDSEC
0
SECTION
2
OBJECTS
0
DICTIONARY
5
C
100
AcDbDictionary
3
ACAD_GROUP
350
D
3
ACAD_MLINESTYLE
350
17
0
DICTIONARY
5
D
100
AcDbDictionary
0
DICTIONARY
5
1A
330
C
100
AcDbDictionary
0
DICTIONARY
5
17
100
AcDbDictionary
0
ENDSEC
0
EOF
