0
SECTION
2
HEADER
9
$INSUNITS
70
4
9
$ACADVER
1
AC1014
9
$HANDSEED
5
FFFF
0
ENDSEC
0
SECTION
2
TABLES
0
TABLE
2
VPORT
5
8
100
AcDbSymbolTable
0
ENDTAB
0
TABLE
2
LTYPE
5
5
100
AcDbSymbolTable
0
LTYPE
5
14
100
AcDbSymbolTableRecord
100
AcDbLinetypeTableRecord
2
BYBLOCK
70
0
0
LTYPE
5
15
100
AcDbSymbolTableRecord
100
AcDbLinetypeTableRecord
2
BYLAYER
70
0
0
ENDTAB
0
TABLE
2
LAYER
5
2
100
AcDbSymbolTable
70
2
0
LAYER
5
50
100
AcDbSymbolTableRecord
100
AcDbLayerTableRecord
2
0
70
0
6
CONTINUOUS
0
ENDTAB
0
TABLE
2
STYLE
5
3
100
AcDbSymbolTable
70
1
0
STYLE
5
11
100
AcDbSymbolTableRecord
100
AcDbTextStyleTableRecord
2
STANDARD
70
0
0
ENDTAB
0
TABLE
2
VIEW
5
6
100
AcDbSymbolTable
70
0
0
ENDTAB
0
TABLE
2
UCS
5
7
100
AcDbSymbolTable
70
0
0
ENDTAB
0
TABLE
2
APPID
5
9
100
AcDbSymbolTable
70
2
0
APPID
5
12
100
AcDbSymbolTableRecord
100
AcDbRegAppTableRecord
2
ACAD
70
0
0
ENDTAB
0
TABLE
2
DIMSTYLE
5
A
100
AcDbSymbolTable
70
1
0
ENDTAB
0
TABLE
2
BLOCK_RECORD
5
1
100
AcDbSymbolTable
70
1
0
BLOCK_RECORD
5
1F
100
AcDbSymbolTableRecord
100
AcDbBlockTableRecord
2
*MODEL_SPACE
0
BLOCK_RECORD
5
1B
100
AcDbSymbolTableRecord
100
AcDbBlockTableRecord
2
*PAPER_SPACE
0
ENDTAB
0
ENDSEC
0
SECTION
2
BLOCKS
0
BLOCK
5
20
100
AcDbEntity
100
AcDbBlockBegin
2
*MODEL_SPACE
0
ENDBLK
5
21
100
AcDbEntity
100
AcDbBlockEnd
0
BLOCK
5
1C
100
AcDbEntity
100
AcDbBlockBegin
2
*PAPER_SPACE
0
ENDBLK
5
1D
100
AcDbEntity
100
AcDbBlockEnd
0
ENDSEC
0
SECTION
2
ENTITIES
0
CIRCLE
5
100
100
AcDbEntity
8
0
100
AcDbCircle
10
0
20
0
30
0
40
22.5
210
0
220
0
230
1
0
LWPOLYLINE
5
101
100
AcDbEntity
8
0
100
AcDbPolyline
90
16
70
1
43
0.0
10
-10
20
165
10
-10.000000000000002
20
55.099909255823654
42
0.31255163191374913
10
-55.099909255823647
20
10
10
-165
20
10
10
-165
20
-10.000000000000004
10
-55.099909255823654
20
-9.9999999999999947
42
0.31255163191374918
10
-10
20
-55.099909255823647
10
-10
20
-165
10
10
20
-165
10
10.000000000000002
20
-55.099909255823654
42
0.31255163191374918
10
55.099909255823647
20
-9.9999999999999947
10
165
20
-10.000000000000004
10
165
20
10
10
55.099909255823654
20
10.000000000000002
42
0.31255163191374918
10
9.9999999999999964
20
55.099909255823647
10
10
20
165
0
LINE
5
102
100
AcDbEntity
8
0
100
AcDbLine
10
0
20
1.75
30
0
11
0
21
22.5
31
0
0
LINE
5
103
100
AcDbEntity
8
0
100
AcDbLine
10
1.75
20
0
30
0
11
22.5
21
0
31
0
0
LINE
5
104
100
AcDbEntity
8
0
100
AcDbLine
10
5.0000000833333447
20
157.00000000000003
30
0
11
-5.0000000833333438
21
157.00000000000003
31
0
0
LINE
5
105
100
AcDbEntity
8
0
100
AcDbLine
10
-5.0000000833333438
20
157.00000000000003
30
0
11
-5.0000000833333447
21
150.99999990000001
31
0
0
LINE
5
106
100
AcDbEntity
8
0
100
AcDbLine
10
-5.0000000833333447
20
150.99999990000001
30
0
11
5.0000000833333447
21
150.99999990000001
31
0
0
LINE
5
107
100
AcDbEntity
8
0
100
AcDbLine
10
5.0000000833333447
20
150.99999990000001
30
0
11
5.0000000833333447
21
157.00000000000003
31
0
0
LINE
5
108
100
AcDbEntity
8
0
100
AcDbLine
10
5.0000000833333447
20
157.00000000000003
30
0
11
-5.0000000833333447
21
150.99999990000001
31
0
0
LINE
5
109
100
AcDbEntity
8
0
100
AcDbLine
10
-5.0000000833333438
20
157.00000000000003
30
0
11
5.0000000833333447
21
150.99999990000001
31
0
0
LWPOLYLINE
5
110
100
AcDbEntity
8
0
100
AcDbPolyline
90
4
70
1
43
0.0
10
-5.000000083333342
20
-157.00000000000003
10
5.0000000833333447
20
-157.00000000000003
10
5.0000000833333447
20
-150.99999990000001
10
-5.0000000833333447
20
-150.99999990000001
0
LINE
5
111
100
AcDbEntity
8
0
100
AcDbLine
10
157.00000000000003
20
5.0000000000000355
30
0
11
151
21
5.000000000000008
31
0
0
LINE
5
112
100
AcDbEntity
8
0
100
AcDbLine
10
151
20
5.000000000000008
30
0
11
151
21
-4.9999999999999911
31
0
0
LINE
5
113
100
AcDbEntity
8
0
100
AcDbLine
10
151
20
-4.9999999999999911
30
0
11
157.00000000000003
21
-4.9999999999999627
31
0
0
LINE
5
114
100
AcDbEntity
8
0
100
AcDbLine
10
157.00000000000003
20
-4.9999999999999627
30
0
11
157.00000000000003
21
5.0000000000000355
31
0
0
LINE
5
115
100
AcDbEntity
8
0
100
AcDbLine
10
157.00000000000003
20
5.0000000000000355
30
0
11
151
21
-4.9999999999999911
31
0
0
LINE
5
116
100
AcDbEntity
8
0
100
AcDbLine
10
151
20
5.000000000000008
30
0
11
157.00000000000003
21
-4.9999999999999627
31
0
0
LWPOLYLINE
5
117
100
AcDbEntity
8
0
100
AcDbPolyline
90
4
70
1
43
0.0
10
-151
20
-4.999999999999992
10
-151
20
5.000000000000008
10
-157.00000000000003
20
5.0000000000000355
10
-157.00000000000003
20
-4.9999999999999627
0
ENDSEC
0
SECTION
2
OBJECTS
0
DICTIONARY
5
C
100
AcDbDictionary
3
ACAD_GROUP
350
D
3
ACAD_MLINESTYLE
350
17
0
DICTIONARY
5
D
100
AcDbDictionary
0
DICTIONARY
5
1A
330
C
100
AcDbDictionary
0
DICTIONARY
5
17
100
AcDbDictionary
0
ENDSEC
0
EOF
