0
SECTION
2
HEADER
9
$INSUNITS
70
4
9
$ACADVER
1
AC1014
9
$HANDSEED
5
FFFF
0
ENDSEC
0
SECTION
2
TABLES
0
TABLE
2
VPORT
5
8
100
AcDbSymbolTable
0
ENDTAB
0
TABLE
2
LTYPE
5
5
100
AcDbSymbolTable
0
LTYPE
5
14
100
AcDbSymbolTableRecord
100
AcDbLinetypeTableRecord
2
BYBLOCK
70
0
0
LTYPE
5
15
100
AcDbSymbolTableRecord
100
AcDbLinetypeTableRecord
2
BYLAYER
70
0
0
ENDTAB
0
TABLE
2
LAYER
5
2
100
AcDbSymbolTable
70
2
0
LAYER
5
50
100
AcDbSymbolTableRecord
100
AcDbLayerTableRecord
2
0
70
0
6
CONTINUOUS
0
ENDTAB
0
TABLE
2
STYLE
5
3
100
AcDbSymbolTable
70
1
0
STYLE
5
11
100
AcDbSymbolTableRecord
100
AcDbTextStyleTableRecord
2
STANDARD
70
0
0
ENDTAB
0
TABLE
2
VIEW
5
6
100
AcDbSymbolTable
70
0
0
ENDTAB
0
TABLE
2
UCS
5
7
100
AcDbSymbolTable
70
0
0
ENDTAB
0
TABLE
2
APPID
5
9
100
AcDbSymbolTable
70
2
0
APPID
5
12
100
AcDbSymbolTableRecord
100
AcDbRegAppTableRecord
2
ACAD
70
0
0
ENDTAB
0
TABLE
2
DIMSTYLE
5
A
100
AcDbSymbolTable
70
1
0
ENDTAB
0
TABLE
2
BLOCK_RECORD
5
1
100
AcDbSymbolTable
70
1
0
BLOCK_RECORD
5
1F
100
AcDbSymbolTableRecord
100
AcDbBlockTableRecord
2
*MODEL_SPACE
0
BLOCK_RECORD
5
1B
100
AcDbSymbolTableRecord
100
AcDbBlockTableRecord
2
*PAPER_SPACE
0
ENDTAB
0
ENDSEC
0
SECTION
2
BLOCKS
0
BLOCK
5
20
100
AcDbEntity
100
AcDbBlockBegin
2
*MODEL_SPACE
0
ENDBLK
5
21
100
AcDbEntity
100
AcDbBlockEnd
0
BLOCK
5
1C
100
AcDbEntity
100
AcDbBlockBegin
2
*PAPER_SPACE
0
ENDBLK
5
1D
100
AcDbEntity
100
AcDbBlockEnd
0
ENDSEC
0
SECTION
2
ENTITIES
0
LWPOLYLINE
5
100
100
AcDbEntity
8
0
100
AcDbPolyline
90
20
70
1
43
0.0
10
335.19135849080163
20
262.86167816482555
42
-0.9916533929113307
10
328.84158153375785
20
262.86167816482543
10
322.54135849080194
20
262.86167816482543
42
-0.99999999999999989
10
316.1913584908018
20
262.86167816482555
10
316.19135849080186
20
309.61734640186353
10
269.43569025376399
20
309.61734640186353
42
-0.99999999999999989
10
269.43569025376399
20
315.96734640186349
10
269.43569025376405
20
322.26734640186351
42
-0.99999999999999989
10
269.43569025376394
20
328.61734640186353
10
316.19135849080186
20
328.61734640186347
10
316.19135849080203
20
375.3730146389014
42
-0.99999999999999989
10
322.541358490802
20
375.37301463890151
10
328.84135849080195
20
375.37301463890151
42
-0.99999999999999989
10
335.19135849080203
20
375.37301463890151
10
335.19135849080192
20
328.61734640186347
10
381.94702672783978
20
328.61734640186341
42
-0.99999999999999989
10
381.9470267278399
20
322.26734640186339
10
381.9470267278399
20
315.96734640186327
42
-0.99999999999999989
10
381.9470267278399
20
309.61734640186336
10
335.19135849080192
20
309.61734640186353
0
LWPOLYLINE
5
101
100
AcDbEntity
8
0
100
AcDbPolyline
90
4
70
1
43
0.0
10
467.35802515746849
20
269.81668154269977
42
-0.028909511396420017
10
460.72565359781595
20
253.804720172689
42
-1.1832159566199227
10
391.00398471997579
20
184.08305129484972
42
-2.6264315392912905
10
467.35802515746855
20
368.41801126102717
42
-1.1832159566199223
0
ARC
5
102
100
AcDbEntity
8
0
100
AcDbCircle
10
601.63768629318815
20
290.37898507645974
30
0
40
3.175000000000054
210
0
220
0
230
1
100
AcDbArc
50
-94.058018293694658
51
94.058018293667999
0
LINE
5
103
100
AcDbEntity
8
0
100
AcDbLine
10
601.41300239726934
20
287.21194511035333
30
0
11
558.66300239726831
21
287.21194511035242
31
0
0
LINE
5
104
100
AcDbEntity
8
0
100
AcDbLine
10
558.66300239726831
20
287.21194511035242
30
0
11
558.6630023972682
21
240.45627687331432
31
0
0
LINE
5
105
100
AcDbEntity
8
0
100
AcDbLine
10
558.6630023972682
20
240.45627687331432
30
0
11
561.81300239726977
21
240.45627687331501
31
0
0
ARC
5
106
100
AcDbEntity
8
0
100
AcDbCircle
10
564.98800239726984
20
240.45627687331503
30
0
40
3.1750000000000256
210
0
220
0
230
1
100
AcDbArc
50
0
51
180
0
LINE
5
107
100
AcDbEntity
8
0
100
AcDbLine
10
568.16300239726979
20
240.45627687331435
30
0
11
568.1630023972682
21
190.45627687331418
31
0
0
SPLINE
5
108
100
AcDbEntity
8
0
100
AcDbSpline
70
4
71
5
72
21
73
15
74
0
42
0.000000001
43
0.0000000001
44
0.0000000001
40
-1
40
-1
40
-1
40
-1
40
-1
40
-1
40
-0.89999999999999991
40
-0.79999999999999993
40
-0.69999999999999996
40
-0.59999999999999998
40
-0.5
40
-0.40000000000000002
40
-0.30000000000000004
40
-0.20000000000000001
40
-0.10000000000000001
40
-0.038637633819217386
40
-0.038637633819217386
40
-0.038637633819217386
40
-0.038637633819217386
40
-0.038637633819217386
40
-0.038637633819217386
41
1
41
1
41
1
41
1
41
1
41
1
41
1
41
1
41
1
41
1
41
1
41
1
41
1
41
1
41
1
10
568.1630023972682
20
190.45627687331418
30
0
10
578.25423097186876
20
191.71028743143412
30
0
10
598.42870331480685
20
194.03197623094826
30
0
10
628.6664580541385
20
196.9555275016283
30
0
10
668.93476308997356
20
199.71710956083115
30
0
10
719.18348238615499
20
201.14675491555028
30
0
10
769.3378555539681
20
200.37475227947664
30
0
10
819.39027817336728
20
197.22364597591294
30
0
10
869.33677276376989
20
191.6006180779749
30
0
10
919.18173907886489
20
183.60834062062571
30
0
10
965.08838826896078
20
174.21432299229025
30
0
10
1000.9886285679434
20
165.54563502017629
30
0
10
1026.9264230139768
20
158.62819198114877
30
0
10
1042.9297504655815
20
154.11490458270552
30
0
10
1049.0139475975502
20
152.36366731066303
30
0
0
SPLINE
5
109
100
AcDbEntity
8
0
100
AcDbSpline
70
0
71
3
72
16
73
12
74
0
42
0.000000001
43
0.0000000001
44
0.0000000001
40
0
40
0
40
0
40
0
40
0.58596671008039125
40
0.58596671008039125
40
1.1719334201607827
40
1.1719334201607827
40
1.7579001302411732
40
1.7579001302411732
40
2.2712399172703108
40
2.2712399172703108
40
2.7845797042994485
40
2.7845797042994485
40
2.7845797042994485
40
2.7845797042994485
10
1068.1630023972687
20
166.7784286430242
30
0
10
1068.1630023972687
20
164.82520627608955
30
0
10
1067.7814946357994
20
162.8906577795712
30
0
10
1066.2984114457508
20
159.2766883953386
30
0
10
1065.2110151008114
20
157.63181902470302
30
0
10
1062.4669254703426
20
154.85148045562033
30
0
10
1060.8364671773249
20
153.74259280929527
30
0
10
1057.4650099733035
20
152.30705325328645
30
0
10
1055.7874906163961
20
151.91101338540017
30
0
10
1052.3716200997419
20
151.70190089575658
30
0
10
1050.6583188225345
20
151.8903617757164
30
0
10
1049.0139475975502
20
152.363667310663
30
0
0
LINE
5
110
100
AcDbEntity
8
0
100
AcDbLine
10
1068.1630023972687
20
166.7784286430242
30
0
11
1068.1630023972689
21
208.53902941678612
31
0
0
SPLINE
5
111
100
AcDbEntity
8
0
100
AcDbSpline
70
0
71
3
72
14
73
10
74
0
42
0.000000001
43
0.0000000001
44
0.0000000001
40
0
40
0
40
0
40
0
40
0.58596671008039158
40
0.58596671008039158
40
1.1719334201607836
40
1.1719334201607836
40
1.7242400229479831
40
1.7242400229479831
40
2.2765466257351834
40
2.2765466257351834
40
2.2765466257351834
40
2.2765466257351834
10
1054.0266331107537
20
223.51414684506443
30
0
10
1055.9766153979795
20
223.40168932330778
30
0
10
1057.8859893370343
20
222.90943205489958
30
0
10
1061.4085746515348
20
221.22073339591975
30
0
10
1062.9881081914166
20
220.04043688493979
30
0
10
1065.5306564220834
20
217.22410258637896
30
0
10
1066.5022812829943
20
215.64205699997402
30
0
10
1067.8240661933996
20
212.2054405236421
30
0
10
1068.1630023972689
20
210.38005142607673
30
0
10
1068.1630023972689
20
208.53902941678609
30
0
0
SPLINE
5
112
100
AcDbEntity
8
0
100
AcDbSpline
70
4
71
5
72
19
73
13
74
0
42
0.000000001
43
0.0000000001
44
0.0000000001
40
0.019203962338971241
40
0.019203962338971241
40
0.019203962338971241
40
0.019203962338971241
40
0.019203962338971241
40
0.019203962338971241
40
0.10000000000000001
40
0.20000000000000001
40
0.30000000000000004
40
0.40000000000000002
40
0.5
40
0.59999999999999998
40
0.69999999999999996
40
0.78775111934024122
40
0.78775111934024122
40
0.78775111934024122
40
0.78775111934024122
40
0.78775111934024122
40
0.78775111934024122
41
1
41
1
41
1
41
1
41
1
41
1
41
1
41
1
41
1
41
1
41
1
41
1
41
1
10
1054.0266331107537
20
223.51414684506443
30
0
10
1042.1960747149119
20
224.19642754418146
30
0
10
1016.0268432541284
20
225.75737829323657
30
0
10
976.44182790237824
20
228.30095018535604
30
0
10
925.03050543022357
20
232.006176470095
30
0
10
864.31612520700003
20
237.15726736202203
30
0
10
806.39340296420357
20
243.10169594454749
30
0
10
754.5505505883699
20
249.73094036032992
30
0
10
710.89860932448789
20
256.97732717332832
30
0
10
682.27390461523498
20
263.42260138252823
30
0
10
664.68053550594368
20
268.61667831478718
30
0
10
654.76573686419511
20
272.18191392540768
30
0
10
650.4725576478088
20
273.8866202551585
30
0
0
SPLINE
5
113
100
AcDbEntity
8
0
100
AcDbSpline
70
0
71
3
72
14
73
10
74
0
42
0.000000001
43
0.0000000001
44
0.0000000001
40
0
40
0
40
0
40
0
40
0.39064447338692526
40
0.39064447338692526
40
0.78128894677384797
40
0.78128894677384797
40
0.98846299486968936
40
0.98846299486968936
40
1.1956370429655305
40
1.1956370429655305
40
1.1956370429655305
40
1.1956370429655305
10
644.16300239726854
20
283.1807376178341
30
0
10
644.16300239726854
20
281.87858937321101
30
0
10
644.41734090491479
20
280.58889037553217
30
0
10
645.40606303161348
20
278.17957745271042
30
0
10
646.13099392823983
20
277.08299787228668
30
0
10
647.53078983599551
20
275.6647109082009
30
0
10
648.06550080751413
20
275.22477285416335
30
0
10
649.21701360332975
20
274.46213131819763
30
0
10
649.83072434197447
20
274.1414750478317
30
0
10
650.47255764780903
20
273.88662025515856
30
0
0
LINE
5
114
100
AcDbEntity
8
0
100
AcDbLine
10
644.16300239726854
20
283.1807376178341
30
0
11
644.16300239726854
21
310.24315260287102
31
0
0
SPLINE
5
115
100
AcDbEntity
8
0
100
AcDbSpline
70
0
71
3
72
14
73
10
74
0
42
0.000000001
43
0.0000000001
44
0.0000000001
40
0
40
0
40
0
40
0
40
0.39064447338692992
40
0.39064447338692992
40
0.78128894677385596
40
0.78128894677385596
40
0.98846299486969857
40
0.98846299486969857
40
1.1956370429655419
40
1.1956370429655419
40
1.1956370429655419
40
1.1956370429655419
10
650.47255764780914
20
319.53726996554667
30
0
10
649.26232578689621
20
319.0567193503079
30
0
10
648.15752662321393
20
318.34437786688005
30
0
10
646.28316535451734
20
316.53630429583541
30
0
10
645.53152316483761
20
315.45785837703409
30
0
10
644.72993756083019
20
313.633460664003
30
0
10
644.51838609990887
20
312.97413730340151
30
0
10
644.23453754094248
20
311.62245915129563
30
0
10
644.16300239726854
20
310.93373276319051
30
0
10
644.16300239726854
20
310.24315260287102
30
0
0
SPLINE
5
116
100
AcDbEntity
8
0
100
AcDbSpline
70
4
71
5
72
19
73
13
74
0
42
0.000000001
43
0.0000000001
44
0.0000000001
40
-0.78775111934024056
40
-0.78775111934024056
40
-0.78775111934024056
40
-0.78775111934024056
40
-0.78775111934024056
40
-0.78775111934024056
40
-0.69999999999999996
40
-0.59999999999999998
40
-0.5
40
-0.40000000000000002
40
-0.30000000000000004
40
-0.20000000000000001
40
-0.10000000000000001
40
-0.019203962338971273
40
-0.019203962338971273
40
-0.019203962338971273
40
-0.019203962338971273
40
-0.019203962338971273
40
-0.019203962338971273
41
1
41
1
41
1
41
1
41
1
41
1
41
1
41
1
41
1
41
1
41
1
41
1
41
1
10
650.47255764780914
20
319.53726996554667
30
0
10
654.76573686419533
20
321.24197629529749
30
0
10
664.68053550594391
20
324.80721190591794
30
0
10
682.27390461523544
20
330.00128883817689
30
0
10
710.89860932448801
20
336.44656304737686
30
0
10
754.55055058837002
20
343.69294986037522
30
0
10
806.39340296420391
20
350.3221942761578
30
0
10
864.31612520700025
20
356.26662285868326
30
0
10
925.0305054302238
20
361.4177137506104
30
0
10
976.44182790237846
20
365.12294003534942
30
0
10
1016.0268432541286
20
367.66651192746895
30
0
10
1042.1960747149124
20
369.22746267652406
30
0
10
1054.0266331107541
20
369.90974337564103
30
0
0
SPLINE
5
117
100
AcDbEntity
8
0
100
AcDbSpline
70
0
71
3
72
14
73
10
74
0
42
0.000000001
43
0.0000000001
44
0.0000000001
40
0
40
0
40
0
40
0
40
0.58596671008039125
40
0.58596671008039125
40
1.1719334201607827
40
1.1719334201607827
40
1.7242400229479817
40
1.7242400229479817
40
2.2765466257351812
40
2.2765466257351812
40
2.2765466257351812
40
2.2765466257351812
10
1068.1630023972691
20
384.88486080391942
30
0
10
1068.1630023972691
20
382.93163843698483
30
0
10
1067.7814946357998
20
380.99708994046648
30
0
10
1066.2984114457513
20
377.38312055623385
30
0
10
1065.2110151008119
20
375.73825118559824
30
0
10
1062.5457408277643
20
373.03776911086652
30
0
10
1061.0222612703351
20
371.97666914107117
30
0
10
1057.6674478540831
20
370.45921235522644
30
0
10
1055.8646011625656
20
370.0157409190694
30
0
10
1054.0266331107541
20
369.90974337564103
30
0
0
LINE
5
118
100
AcDbEntity
8
0
100
AcDbLine
10
1068.1630023972691
20
384.88486080391942
30
0
11
1068.1630023972693
21
426.64546157768137
31
0
0
SPLINE
5
119
100
AcDbEntity
8
0
100
AcDbSpline
70
0
71
3
72
16
73
12
74
0
42
0.000000001
43
0.0000000001
44
0.0000000001
40
0
40
0
40
0
40
0
40
0.5859667100803938
40
0.5859667100803938
40
1.1719334201607841
40
1.1719334201607841
40
1.7579001302411754
40
1.7579001302411754
40
2.2712399172703122
40
2.2712399172703122
40
2.7845797042994538
40
2.7845797042994538
40
2.7845797042994538
40
2.7845797042994538
10
1049.0139475975509
20
441.06022291004251
30
0
10
1050.8909632141103
20
441.60049135247232
30
0
10
1052.8555599789133
20
441.76897164558858
30
0
10
1056.7387532831949
20
441.34338943219529
30
0
10
1058.6202243781809
20
440.7533957236061
30
0
10
1062.0511107214236
20
438.88542105607814
30
0
10
1063.5677248262614
20
437.62529895308575
30
0
10
1065.8798128780895
20
434.78245770953947
30
0
10
1066.7244088722946
20
433.27993437317247
30
0
10
1067.8702049117726
20
430.05517843577366
30
0
10
1068.1630023972693
20
428.35659420111188
30
0
10
1068.1630023972693
20
426.64546157768137
30
0
0
SPLINE
5
120
100
AcDbEntity
8
0
100
AcDbSpline
70
4
71
5
72
21
73
15
74
0
42
0.000000001
43
0.0000000001
44
0.0000000001
40
0.038637633819217386
40
0.038637633819217386
40
0.038637633819217386
40
0.038637633819217386
40
0.038637633819217386
40
0.038637633819217386
40
0.10000000000000001
40
0.20000000000000001
40
0.30000000000000004
40
0.40000000000000002
40
0.5
40
0.59999999999999998
40
0.69999999999999996
40
0.79999999999999993
40
0.89999999999999991
40
1
40
1
40
1
40
1
40
1
40
1
41
1
41
1
41
1
41
1
41
1
41
1
41
1
41
1
41
1
41
1
41
1
41
1
41
1
41
1
41
1
10
1049.0139475975509
20
441.06022291004251
30
0
10
1042.9297504655822
20
439.30898563799997
30
0
10
1026.9264230139772
20
434.79569823955671
30
0
10
1000.988628567944
20
427.87825520052922
30
0
10
965.08838826896135
20
419.20956722841515
30
0
10
919.18173907886535
20
409.81554960007969
30
0
10
869.33677276377034
20
401.82327214273045
30
0
10
819.39027817336762
20
396.20024424479232
30
0
10
769.33785555396855
20
393.04913794122859
30
0
10
719.18348238615533
20
392.27713530515496
30
0
10
668.93476308997401
20
393.70678065987397
30
0
10
628.66645805413896
20
396.46836271907671
30
0
10
598.42870331480731
20
399.39191398975674
30
0
10
578.25423097186911
20
401.71360278927091
30
0
10
568.16300239726866
20
402.9676133473908
30
0
0
LINE
5
121
100
AcDbEntity
8
0
100
AcDbLine
10
568.16300239726866
20
402.96761334739085
30
0
11
568.16300239726854
21
352.96761334739068
31
0
0
ARC
5
122
100
AcDbEntity
8
0
100
AcDbCircle
10
564.98800239727041
20
352.96761334739182
30
0
40
3.1750000000000256
210
0
220
0
230
1
100
AcDbArc
50
180
51
360
0
LINE
5
123
100
AcDbEntity
8
0
100
AcDbLine
10
561.81300239727034
20
352.96761334739176
30
0
11
558.66300239726843
21
352.96761334739068
31
0
0
LINE
5
124
100
AcDbEntity
8
0
100
AcDbLine
10
558.66300239726843
20
352.96761334739068
30
0
11
558.66300239726831
21
306.21194511035253
31
0
0
LINE
5
125
100
AcDbEntity
8
0
100
AcDbLine
10
558.66300239726831
20
306.21194511035253
30
0
11
601.41300239726922
21
306.21194511035253
31
0
0
ARC
5
126
100
AcDbEntity
8
0
100
AcDbCircle
10
601.63768629318815
20
303.04490514424697
30
0
40
3.1749999999999434
210
0
220
0
230
1
100
AcDbArc
50
-94.058018293666109
51
94.058018293697813
0
LINE
5
127
100
AcDbEntity
8
0
100
AcDbLine
10
601.41300239727093
20
299.87786517814061
30
0
11
601.41300239727082
21
293.54602504256621
31
0
0
ARC
5
128
100
AcDbEntity
8
0
100
AcDbCircle
10
1249.4037780296144
20
396.15968559567114
30
0
40
3.1749999999998986
210
0
220
0
230
1
100
AcDbArc
50
-85.941981706350319
51
85.941981706317463
0
LINE
5
129
100
AcDbEntity
8
0
100
AcDbLine
10
1249.6284619255307
20
392.99264562956472
30
0
11
1206.8784619255312
21
392.99264562958058
31
0
0
LINE
5
130
100
AcDbEntity
8
0
100
AcDbLine
10
1206.8784619255312
20
392.99264562958058
30
0
11
1206.87846192553
21
388.96143813706215
31
0
0
SPLINE
5
131
100
AcDbEntity
8
0
100
AcDbSpline
70
0
71
3
72
14
73
10
74
0
42
0.000000001
43
0.0000000001
44
0.0000000001
40
0
40
0
40
0
40
0
40
0.39064447338692049
40
0.39064447338692049
40
0.7812889467738493
40
0.7812889467738493
40
0.98846299486969302
40
0.98846299486969302
40
1.1956370429655387
40
1.1956370429655387
40
1.1956370429655387
40
1.1956370429655387
10
1200.5689066749862
20
379.66732077438871
30
0
10
1201.7791385358992
20
380.14787138962697
30
0
10
1202.883937699582
20
380.86021287305448
30
0
10
1204.758298968279
20
382.6682864440985
30
0
10
1205.509941157959
20
383.74673236289948
30
0
10
1206.3115267619671
20
385.57113007593034
30
0
10
1206.5230782228887
20
386.23045343653177
30
0
10
1206.8069267818555
20
387.58213158863754
30
0
10
1206.8784619255298
20
388.27085797674266
30
0
10
1206.87846192553
20
388.96143813706215
30
0
0
SPLINE
5
132
100
AcDbEntity
8
0
100
AcDbSpline
70
4
71
5
72
19
73
13
74
0
42
0.000000001
43
0.0000000001
44
0.0000000001
40
-0.78775111934024122
40
-0.78775111934024122
40
-0.78775111934024122
40
-0.78775111934024122
40
-0.78775111934024122
40
-0.78775111934024122
40
-0.69999999999999996
40
-0.59999999999999998
40
-0.5
40
-0.40000000000000002
40
-0.30000000000000004
40
-0.20000000000000001
40
-0.10000000000000001
40
-0.019203962338971241
40
-0.019203962338971241
40
-0.019203962338971241
40
-0.019203962338971241
40
-0.019203962338971241
40
-0.019203962338971241
41
1
41
1
41
1
41
1
41
1
41
1
41
1
41
1
41
1
41
1
41
1
41
1
41
1
10
1200.5689066749865
20
379.66732077438871
30
0
10
1196.2757274585997
20
377.96261444463926
30
0
10
1186.36092881685
20
374.39737883402199
30
0
10
1168.7675597075568
20
369.2033019017689
30
0
10
1140.1428549983018
20
362.75802769257842
30
0
10
1096.4909137344175
20
355.51164087959444
30
0
10
1044.6480613585813
20
348.88239646382908
30
0
10
986.72533911578307
20
342.93796788132272
30
0
10
926.01095889255794
20
337.78687698941565
30
0
10
874.59963642040202
20
334.08165070469363
30
0
10
835.01462106865108
20
331.53807881258723
30
0
10
808.84538960786688
20
329.97712806354065
30
0
10
797.014831212025
20
329.2948473644276
30
0
0
SPLINE
5
133
100
AcDbEntity
8
0
100
AcDbSpline
70
0
71
3
72
14
73
10
74
0
42
0.000000001
43
0.0000000001
44
0.0000000001
40
0
40
0
40
0
40
0
40
0.58596671008039114
40
0.58596671008039114
40
1.1719334201607838
40
1.1719334201607838
40
1.7242400229479835
40
1.7242400229479835
40
2.2765466257351834
40
2.2765466257351834
40
2.2765466257351834
40
2.2765466257351834
10
782.87846192550489
20
314.31972993615386
30
0
10
782.87846192550546
20
316.27295230308852
30
0
10
783.25996968697552
20
318.20750079960675
30
0
10
784.74305287702521
20
321.82147018383887
30
0
10
785.83044922196507
20
323.46633955447408
30
0
10
788.49572349501375
20
326.16682162920495
30
0
10
790.019203052443
20
327.22792159899984
30
0
10
793.37401646869557
20
328.74537838484343
30
0
10
795.17686316021343
20
329.18884982099991
30
0
10
797.014831212025
20
329.2948473644276
30
0
0
LINE
5
134
100
AcDbEntity
8
0
100
AcDbLine
10
782.87846192550489
20
314.31972993615386
30
0
11
782.87846192549091
21
272.55912916239208
31
0
0
SPLINE
5
135
100
AcDbEntity
8
0
100
AcDbSpline
70
0
71
3
72
16
73
12
74
0
42
0.000000001
43
0.0000000001
44
0.0000000001
40
0
40
0
40
0
40
0
40
0.5859667100803938
40
0.5859667100803938
40
1.1719334201607841
40
1.1719334201607841
40
1.7579001302411754
40
1.7579001302411754
40
2.2712399172703122
40
2.2712399172703122
40
2.7845797042994538
40
2.7845797042994538
40
2.7845797042994538
40
2.7845797042994538
10
802.02751672520458
20
258.14436783002469
30
0
10
800.1505011086449
20
257.60409938759551
30
0
10
798.18590434384191
20
257.43561909447988
30
0
10
794.30271103956034
20
257.86120130787447
30
0
10
792.42123994457461
20
258.45119501646428
30
0
10
788.99035360133257
20
260.31916968399338
30
0
10
787.47373949649523
20
261.57929178698629
30
0
10
785.16165144466822
20
264.4221330305333
30
0
10
784.31705545046339
20
265.92465636690059
30
0
10
783.17125941098664
20
269.14941230429974
30
0
10
782.87846192549046
20
270.8479965389617
30
0
10
782.87846192549091
20
272.55912916239214
30
0
0
SPLINE
5
136
100
AcDbEntity
8
0
100
AcDbSpline
70
4
71
5
72
21
73
15
74
0
42
0.000000001
43
0.0000000001
44
0.0000000001
40
0.038637633819217386
40
0.038637633819217386
40
0.038637633819217386
40
0.038637633819217386
40
0.038637633819217386
40
0.038637633819217386
40
0.10000000000000001
40
0.20000000000000001
40
0.30000000000000004
40
0.40000000000000002
40
0.5
40
0.59999999999999998
40
0.69999999999999996
40
0.79999999999999993
40
0.89999999999999991
40
1
40
1
40
1
40
1
40
1
40
1
41
1
41
1
41
1
41
1
41
1
41
1
41
1
41
1
41
1
41
1
41
1
41
1
41
1
41
1
41
1
10
802.02751672520458
20
258.14436783002469
30
0
10
808.11171385717387
20
259.89560510206513
30
0
10
824.11504130878029
20
264.40889250050316
30
0
10
850.05283575481587
20
271.32633553952212
30
0
10
885.95307605380128
20
279.99502351162425
30
0
10
931.85972524390036
20
289.3890411399446
30
0
10
981.70469155899809
20
297.38131859727736
30
0
10
1031.6511861494025
20
303.00434649519894
30
0
10
1081.7036087688027
20
306.15545279874607
30
0
10
1131.8579819366162
20
306.92745543480322
30
0
10
1182.1067012327969
20
305.49781008006761
30
0
10
1222.3750062686308
20
302.73622802085151
30
0
10
1252.6127610079616
20
299.81267675016153
30
0
10
1272.787233350899
20
297.49098795064072
30
0
10
1282.8784619254993
20
296.23697739251747
30
0
0
LINE
5
137
100
AcDbEntity
8
0
100
AcDbLine
10
1282.8784619254993
20
296.23697739251747
30
0
11
1282.8784619255159
21
346.23697739251747
31
0
0
ARC
5
138
100
AcDbEntity
8
0
100
AcDbCircle
10
1286.0534619255159
20
346.23697739251497
30
0
40
3.1750000000002387
210
0
220
0
230
1
100
AcDbArc
50
0
51
180
0
LINE
5
139
100
AcDbEntity
8
0
100
AcDbLine
10
1289.2284619255161
20
346.23697739251395
30
0
11
1292.3784619255159
21
346.23697739251435
31
0
0
LINE
5
140
100
AcDbEntity
8
0
100
AcDbLine
10
1292.3784619255159
20
346.23697739251435
30
0
11
1292.3784619255534
21
458.74831386659031
31
0
0
LINE
5
141
100
AcDbEntity
8
0
100
AcDbLine
10
1292.3784619255534
20
458.74831386659031
30
0
11
1289.2284619255531
21
458.74831386658997
31
0
0
ARC
5
142
100
AcDbEntity
8
0
100
AcDbCircle
10
1286.0534619255532
20
458.74831386659093
30
0
40
3.1749999999999545
210
0
220
0
230
1
100
AcDbArc
50
180
51
360
0
LINE
5
143
100
AcDbEntity
8
0
100
AcDbLine
10
1282.8784619255532
20
458.74831386659355
30
0
11
1282.87846192557
21
508.74831386659355
31
0
0
SPLINE
5
144
100
AcDbEntity
8
0
100
AcDbSpline
70
4
71
5
72
21
73
15
74
0
42
0.000000001
43
0.0000000001
44
0.0000000001
40
-1
40
-1
40
-1
40
-1
40
-1
40
-1
40
-0.89999999999999991
40
-0.79999999999999993
40
-0.69999999999999996
40
-0.59999999999999998
40
-0.5
40
-0.40000000000000002
40
-0.30000000000000004
40
-0.20000000000000001
40
-0.10000000000000001
40
-0.038637633819217386
40
-0.038637633819217386
40
-0.038637633819217386
40
-0.038637633819217386
40
-0.038637633819217386
40
-0.038637633819217386
41
1
41
1
41
1
41
1
41
1
41
1
41
1
41
1
41
1
41
1
41
1
41
1
41
1
41
1
41
1
10
1282.8784619255698
20
508.74831386659355
30
0
10
1272.787233350969
20
507.49430330847696
30
0
10
1252.61276100803
20
505.17261450896939
30
0
10
1222.3750062686975
20
502.24906323829941
30
0
10
1182.1067012328615
20
499.48748117910986
30
0
10
1131.8579819366796
20
498.05783582440739
30
0
10
1081.7036087688668
20
498.82983846049751
30
0
10
1031.6511861494687
20
501.98094476407778
30
0
10
981.70469155906801
20
507.60397266203228
30
0
10
931.85972524397573
20
515.59625011939784
30
0
10
885.9530760538828
20
524.99026774774859
30
0
10
850.05283575490307
20
533.65895571987426
30
0
10
824.11504130887215
20
540.57639875891039
30
0
10
808.11171385726868
20
545.08968615735898
30
0
10
802.02751672530053
20
546.84092342940346
30
0
0
SPLINE
5
145
100
AcDbEntity
8
0
100
AcDbSpline
70
0
71
3
72
16
73
12
74
0
42
0.000000001
43
0.0000000001
44
0.0000000001
40
0
40
0
40
0
40
0
40
0.58596671008039125
40
0.58596671008039125
40
1.1719334201607827
40
1.1719334201607827
40
1.7579001302411732
40
1.7579001302411732
40
2.2712399172703108
40
2.2712399172703108
40
2.7845797042994485
40
2.7845797042994485
40
2.7845797042994485
40
2.7845797042994485
10
782.87846192557731
20
532.42616209704863
30
0
10
782.87846192557811
20
534.37938446398323
30
0
10
783.25996968704794
20
536.31393296050146
30
0
10
784.74305287709763
20
539.92790234473364
30
0
10
785.83044922203749
20
541.57277171536873
30
0
10
788.57453885250732
20
544.35311028445062
30
0
10
790.20499714552545
20
545.46199793077506
30
0
10
793.57645434954725
20
546.89753748678277
30
0
10
795.25397370645487
20
547.29357735466851
30
0
10
798.66984422310918
20
547.50268984431102
30
0
10
800.38314550031623
20
547.3142289643506
30
0
10
802.02751672530053
20
546.84092342940346
30
0
0
LINE
5
146
100
AcDbEntity
8
0
100
AcDbLine
10
782.87846192557731
20
532.42616209704863
30
0
11
782.87846192556344
21
490.66556132328679
31
0
0
SPLINE
5
147
100
AcDbEntity
8
0
100
AcDbSpline
70
0
71
3
72
14
73
10
74
0
42
0.000000001
43
0.0000000001
44
0.0000000001
40
0
40
0
40
0
40
0
40
0.58596671008038759
40
0.58596671008038759
40
1.1719334201607787
40
1.1719334201607787
40
1.7242400229479775
40
1.7242400229479775
40
2.2765466257351799
40
2.2765466257351799
40
2.2765466257351799
40
2.2765466257351799
10
797.01483121207377
20
475.69044389500385
30
0
10
795.06484892484809
20
475.80290141676119
30
0
10
793.15547498579338
20
476.29515868516995
30
0
10
789.63288967129347
20
477.98385734415092
30
0
10
788.0533561314121
20
479.16415385513147
30
0
10
785.51080790074604
20
481.98048815369305
30
0
10
784.53918303983551
20
483.56253374009833
30
0
10
783.21739812943167
20
486.99915021643062
30
0
10
782.87846192556287
20
488.82453931399607
30
0
10
782.87846192556344
20
490.66556132328685
30
0
0
SPLINE
5
148
100
AcDbEntity
8
0
100
AcDbSpline
70
4
71
5
72
19
73
13
74
0
42
0.000000001
43
0.0000000001
44
0.0000000001
40
0.019203962338971273
40
0.019203962338971273
40
0.019203962338971273
40
0.019203962338971273
40
0.019203962338971273
40
0.019203962338971273
40
0.10000000000000001
40
0.20000000000000001
40
0.30000000000000004
40
0.40000000000000002
40
0.5
40
0.59999999999999998
40
0.69999999999999996
40
0.78775111934024022
40
0.78775111934024022
40
0.78775111934024022
40
0.78775111934024022
40
0.78775111934024022
40
0.78775111934024022
41
1
41
1
41
1
41
1
41
1
41
1
41
1
41
1
41
1
41
1
41
1
41
1
41
1
10
797.01483121207377
20
475.6904438950038
30
0
10
808.84538960791497
20
475.0081631958829
30
0
10
835.01462106869826
20
473.44721244681915
30
0
10
874.5996364204475
20
470.9036405546866
30
0
10
926.01095889260091
20
467.19841426993071
30
0
10
986.72533911582275
20
462.04732337798362
30
0
10
1044.6480613586173
20
456.10289479543906
30
0
10
1096.4909137344487
20
449.47365037963948
30
0
10
1140.1428549983282
20
442.22726356662679
30
0
10
1168.7675597075788
20
435.78198935741739
30
0
10
1186.3609288168686
20
430.58791242515269
30
0
10
1196.2757274586158
20
427.02267681452889
30
0
10
1200.5689066750015
20
425.31797048477671
30
0
0
SPLINE
5
149
100
AcDbEntity
8
0
100
AcDbSpline
70
0
71
3
72
14
73
10
74
0
42
0.000000001
43
0.0000000001
44
0.0000000001
40
0
40
0
40
0
40
0
40
0.39064447338692837
40
0.39064447338692837
40
0.78128894677385763
40
0.78128894677385763
40
0.9884629948696998
40
0.9884629948696998
40
1.1956370429655407
40
1.1956370429655407
40
1.1956370429655407
40
1.1956370429655407
10
1206.8784619255389
20
416.02385312209896
30
0
10
1206.8784619255393
20
417.3260013667221
30
0
10
1206.6241234178935
20
418.61570036440105
30
0
10
1205.6354012911954
20
421.02501328722315
30
0
10
1204.9104703945695
20
422.12159286764711
30
0
10
1203.5106744868144
20
423.53987983173334
30
0
10
1202.9759635152959
20
423.97981788577107
30
0
10
1201.8244507194804
20
424.74245942173718
30
0
10
1201.2107399808358
20
425.06311569210322
30
0
10
1200.5689066750015
20
425.31797048477665
30
0
0
LINE
5
150
100
AcDbEntity
8
0
100
AcDbLine
10
1206.8784619255389
20
416.02385312209896
30
0
11
1206.8784619255375
21
411.99264562958058
31
0
0
LINE
5
151
100
AcDbEntity
8
0
100
AcDbLine
10
1206.8784619255375
20
411.99264562958058
30
0
11
1249.6284619255371
21
411.99264562956643
31
0
0
ARC
5
152
100
AcDbEntity
8
0
100
AcDbCircle
10
1249.4037780296187
20
408.82560566345865
30
0
40
3.17500000000003
210
0
220
0
230
1
100
AcDbArc
50
-85.941981706354596
51
85.941981706315261
0
LINE
5
153
100
AcDbEntity
8
0
100
AcDbLine
10
1249.6284619255348
20
405.65856569735212
30
0
11
1249.6284619255325
21
399.32672556177744
31
0
0
LWPOLYLINE
5
154
100
AcDbEntity
8
0
100
AcDbPolyline
90
4
70
1
43
0.0
10
473.05652337082142
20
651.31551276093762
42
-0.062398776210413891
10
459.73616003525905
20
619.15731094048499
42
-1.4832396974191275
10
407.29571762675164
20
566.71686853197707
42
-2.9158706789168396
10
473.05652337082131
20
725.47749763189336
42
-1.4832396974191364
0
LWPOLYLINE
5
155
100
AcDbEntity
8
0
100
AcDbPolyline
90
4
70
1
43
0.0
10
479.72319003748805
20
639.09584033725218
42
-0.028909511396431352
10
473.09081847783574
20
623.08387896724162
42
-1.1832159566199227
10
403.36914959999541
20
553.36221008940026
42
-2.6264315392902593
10
479.72319003748839
20
737.69717005557834
42
-1.1832159566199176
0
ENDSEC
0
SECTION
2
OBJECTS
0
DICTIONARY
5
C
100
AcDbDictionary
3
ACAD_GROUP
350
D
3
ACAD_MLINESTYLE
350
17
0
DICTIONARY
5
D
100
AcDbDictionary
0
DICTIONARY
5
1A
330
C
100
AcDbDictionary
0
DICTIONARY
5
17
100
AcDbDictionary
0
ENDSEC
0
EOF
