  0
SECTION
  2
HEADER
  9
$ACADVER
  1
AC1014
  9
$HANDSEED
  5
FFFF
  9
$MEASUREMENT
 70
     1
  0
ENDSEC
  0
SECTION
  2
TABLES
  0
TABLE
  2
VPORT
  5
8
330
0
100
AcDbSymbolTable
 70
     4
  0
VPORT
  5
2E
330
8
100
AcDbSymbolTableRecord
100
AcDbViewportTableRecord
  2
*ACTIVE
 70
     0
 10
0.0
 20
0.0
 11
1.0
 21
1.0
 12
210.0
 22
148.5
 13
0.0
 23
0.0
 14
10.0
 24
10.0
 15
10.0
 25
10.0
 16
0.0
 26
0.0
 36
1.0
 17
0.0
 27
0.0
 37
0.0
 40
341.0
 41
1.24
 42
50.0
 43
0.0
 44
0.0
 50
0.0
 51
0.0
 71
     0
 72
   100
 73
     1
 74
     3
 75
     0
 76
     0
 77
     0
 78
     0
  0
ENDTAB
  0
TABLE
  2
LTYPE
  5
5
330
0
100
AcDbSymbolTable
 70
     1
  0
LTYPE
  5
14
330
5
100
AcDbSymbolTableRecord
100
AcDbLinetypeTableRecord
  2
BYBLOCK
 70
     0
  3

 72
    65
 73
     0
 40
0.0
  0
LTYPE
  5
15
330
5
100
AcDbSymbolTableRecord
100
AcDbLinetypeTableRecord
  2
BYLAYER
 70
     0
  3

 72
    65
 73
     0
 40
0.0
  0
LTYPE
  5
16
330
5
100
AcDbSymbolTableRecord
100
AcDbLinetypeTableRecord
  2
CONTINUOUS
 70
     0
  3
Solid line
 72
    65
 73
     0
 40
0.0
  0
ENDTAB
  0
TABLE
  2
LAYER
  5
2
100
AcDbSymbolTable
 70
2
  0
LAYER
  5
50
100
AcDbSymbolTableRecord
100
AcDbLayerTableRecord
  2
0
 70
0
  6
CONTINUOUS
  0
LAYER
  5
51
100
AcDbSymbolTableRecord
100
AcDbLayerTableRecord
  2
Layer_1
 70
0
  6
CONTINUOUS
  0
ENDTAB
  0
TABLE
  2
STYLE
  5
3
330
0
100
AcDbSymbolTable
 70
     1
  0
STYLE
  5
11
330
3
100
AcDbSymbolTableRecord
100
AcDbTextStyleTableRecord
  2
STANDARD
 70
     0
 40
0.0
 41
1.0
 50
0.0
 71
     0
 42
2.5
  3
txt
  4

  0
ENDTAB
  0
TABLE
  2
VIEW
  5
6
330
0
100
AcDbSymbolTable
 70
     0
  0
ENDTAB
  0
TABLE
  2
UCS
  5
7
330
0
100
AcDbSymbolTable
 70
     0
  0
ENDTAB
  0
TABLE
  2
APPID
  5
9
330
0
100
AcDbSymbolTable
 70
     2
  0
APPID
  5
12
330
9
100
AcDbSymbolTableRecord
100
AcDbRegAppTableRecord
  2
ACAD
 70
     0
  0
ENDTAB
  0
TABLE
  2
DIMSTYLE
  5
A
330
0
100
AcDbSymbolTable
 70
     1
  0
DIMSTYLE
105
27
330
A
100
AcDbSymbolTableRecord
100
AcDbDimStyleTableRecord
  2
ISO-25
 70
     0
  3

  4

  5

  6

  7

 40
1.0
 41
2.5
 42
0.625
 43
3.75
 44
1.25
 45
0.0
 46
0.0
 47
0.0
 48
0.0
140
2.5
141
2.5
142
0.0
143
0.03937007874016
144
1.0
145
0.0
146
1.0
147
0.625
 71
     0
 72
     0
 73
     0
 74
     0
 75
     0
 76
     0
 77
     1
 78
     8
170
     0
171
     3
172
     1
173
     0
174
     0
175
     0
176
     0
177
     0
178
     0
270
     2
271
     2
272
     2
273
     2
274
     3
340
11
275
     0
280
     0
281
     0
282
     0
283
     0
284
     8
285
     0
286
     0
287
     3
288
     0
  0
ENDTAB
  0
TABLE
  2
BLOCK_RECORD
  5
1
330
0
100
AcDbSymbolTable
 70
     1
  0
BLOCK_RECORD
  5
1F
330
1
100
AcDbSymbolTableRecord
100
AcDbBlockTableRecord
  2
*MODEL_SPACE
  0
BLOCK_RECORD
  5
1B
330
1
100
AcDbSymbolTableRecord
100
AcDbBlockTableRecord
  2
*PAPER_SPACE
  0
ENDTAB
  0
ENDSEC
  0
SECTION
  2
BLOCKS
  0
BLOCK
  5
20
330
1F
100
AcDbEntity
  8
0
100
AcDbBlockBegin
  2
*MODEL_SPACE
 70
     0
 10
0.0
 20
0.0
 30
0.0
  3
*MODEL_SPACE
  1

  0
ENDBLK
  5
21
330
1F
100
AcDbEntity
  8
0
100
AcDbBlockEnd
  0
BLOCK
  5
1C
330
1B
100
AcDbEntity
 67
     1
  8
0
100
AcDbBlockBegin
  2
*PAPER_SPACE
  1

  0
ENDBLK
  5
1D
330
1B
100
AcDbEntity
 67
     1
  8
0
100
AcDbBlockEnd
  0
ENDSEC
  0
SECTION
  2
ENTITIES
  0
SPLINE
  5
100
100
AcDbEntity
  8
Layer_1
 62
7
100
AcDbSpline
 70
8
 71
3
 72
8
 73
4
 74
0
 40
0
 40
0
 40
0
 40
0
 40
1
 40
1
 40
1
 40
1
 10
57.764755
 20
684.106503
 30
0.0
 10
53.966580
 20
685.932917
 30
0.0
 10
40.417189
 20
693.314617
 30
0.0
 10
33.004993
 20
697.595615
 30
0.0
  0
SPLINE
  5
101
100
AcDbEntity
  8
Layer_1
 62
7
100
AcDbSpline
 70
8
 71
3
 72
8
 73
4
 74
0
 40
0
 40
0
 40
0
 40
0
 40
1
 40
1
 40
1
 40
1
 10
33.004993
 20
697.595615
 30
0.0
 10
31.350489
 20
698.551203
 30
0.0
 10
28.643111
 20
699.682655
 30
0.0
 10
26.988606
 20
700.109960
 30
0.0
  0
SPLINE
  5
102
100
AcDbEntity
  8
Layer_1
 62
7
100
AcDbSpline
 70
8
 71
3
 72
8
 73
4
 74
0
 40
0
 40
0
 40
0
 40
0
 40
1
 40
1
 40
1
 40
1
 10
26.988606
 20
700.109960
 30
0.0
 10
24.284507
 20
700.808321
 30
0.0
 10
23.950855
 20
701.024238
 30
0.0
 10
23.688069
 20
702.245872
 30
0.0
  0
SPLINE
  5
103
100
AcDbEntity
  8
Layer_1
 62
7
100
AcDbSpline
 70
8
 71
3
 72
8
 73
4
 74
0
 40
0
 40
0
 40
0
 40
0
 40
1
 40
1
 40
1
 40
1
 10
23.688069
 20
702.245872
 30
0.0
 10
23.527288
 20
702.993322
 30
0.0
 10
23.371080
 20
712.025969
 30
0.0
 10
23.340964
 20
722.318417
 30
0.0
  0
SPLINE
  5
104
100
AcDbEntity
  8
Layer_1
 62
7
100
AcDbSpline
 70
8
 71
3
 72
8
 73
4
 74
0
 40
0
 40
0
 40
0
 40
0
 40
1
 40
1
 40
1
 40
1
 10
23.340964
 20
722.318417
 30
0.0
 10
23.286681
 20
740.868455
 30
0.0
 10
23.277383
 20
741.041340
 30
0.0
 10
22.278173
 20
742.104967
 30
0.0
  0
SPLINE
  5
105
100
AcDbEntity
  8
Layer_1
 62
7
100
AcDbSpline
 70
8
 71
3
 72
8
 73
4
 74
0
 40
0
 40
0
 40
0
 40
0
 40
1
 40
1
 40
1
 40
1
 10
22.278173
 20
742.104967
 30
0.0
 10
21.482667
 20
742.951740
 30
0.0
 10
21.213109
 20
743.954029
 30
0.0
 10
20.999674
 20
746.858772
 30
0.0
  0
SPLINE
  5
106
100
AcDbEntity
  8
Layer_1
 62
7
100
AcDbSpline
 70
8
 71
3
 72
8
 73
4
 74
0
 40
0
 40
0
 40
0
 40
0
 40
1
 40
1
 40
1
 40
1
 10
20.999674
 20
746.858772
 30
0.0
 10
20.753571
 20
750.207815
 30
0.0
 10
20.594170
 20
750.678891
 30
0.0
 10
19.230912
 20
752.085414
 30
0.0
  0
SPLINE
  5
107
100
AcDbEntity
  8
Layer_1
 62
7
100
AcDbSpline
 70
8
 71
3
 72
8
 73
4
 74
0
 40
0
 40
0
 40
0
 40
0
 40
1
 40
1
 40
1
 40
1
 10
19.230912
 20
752.085414
 30
0.0
 10
17.742746
 20
753.620814
 30
0.0
 10
17.732621
 20
753.662837
 30
0.0
 10
17.732621
 20
758.303408
 30
0.0
  0
SPLINE
  5
108
100
AcDbEntity
  8
Layer_1
 62
7
100
AcDbSpline
 70
8
 71
3
 72
8
 73
4
 74
0
 40
0
 40
0
 40
0
 40
0
 40
1
 40
1
 40
1
 40
1
 10
17.732621
 20
758.303408
 30
0.0
 10
17.732621
 20
763.316615
 30
0.0
 10
17.841584
 20
763.537382
 30
0.0
 10
20.315867
 20
763.537382
 30
0.0
  0
SPLINE
  5
109
100
AcDbEntity
  8
Layer_1
 62
7
100
AcDbSpline
 70
8
 71
3
 72
8
 73
4
 74
0
 40
0
 40
0
 40
0
 40
0
 40
1
 40
1
 40
1
 40
1
 10
20.315867
 20
763.537382
 30
0.0
 10
21.251808
 20
763.537382
 30
0.0
 10
21.435014
 20
763.765571
 30
0.0
 10
21.435014
 20
764.931249
 30
0.0
  0
SPLINE
  5
10a
100
AcDbEntity
  8
Layer_1
 62
7
100
AcDbSpline
 70
8
 71
3
 72
8
 73
4
 74
0
 40
0
 40
0
 40
0
 40
0
 40
1
 40
1
 40
1
 40
1
 10
21.435014
 20
764.931249
 30
0.0
 10
21.435014
 20
766.298228
 30
0.0
 10
21.399297
 20
766.319406
 30
0.0
 10
19.583817
 20
766.029095
 30
0.0
  0
SPLINE
  5
10b
100
AcDbEntity
  8
Layer_1
 62
7
100
AcDbSpline
 70
8
 71
3
 72
8
 73
4
 74
0
 40
0
 40
0
 40
0
 40
0
 40
1
 40
1
 40
1
 40
1
 10
17.732621
 20
767.302770
 30
0.0
 10
17.732621
 20
768.634863
 30
0.0
 10
18.012825
 20
769.045649
 30
0.0
 10
19.583817
 20
770.016569
 30
0.0
  0
SPLINE
  5
10c
100
AcDbEntity
  8
Layer_1
 62
7
100
AcDbSpline
 70
8
 71
3
 72
8
 73
4
 74
0
 40
0
 40
0
 40
0
 40
0
 40
1
 40
1
 40
1
 40
1
 10
19.583817
 20
770.016569
 30
0.0
 10
21.033826
 20
770.912725
 30
0.0
 10
21.435014
 20
771.442866
 30
0.0
 10
21.435014
 20
772.462803
 30
0.0
  0
SPLINE
  5
10d
100
AcDbEntity
  8
Layer_1
 62
7
100
AcDbSpline
 70
8
 71
3
 72
8
 73
4
 74
0
 40
0
 40
0
 40
0
 40
0
 40
1
 40
1
 40
1
 40
1
 10
21.435014
 20
772.462803
 30
0.0
 10
21.435014
 20
774.483500
 30
0.0
 10
22.719485
 20
776.499562
 30
0.0
 10
24.473947
 20
777.232627
 30
0.0
  0
SPLINE
  5
10e
100
AcDbEntity
  8
Layer_1
 62
7
100
AcDbSpline
 70
8
 71
3
 72
8
 73
4
 74
0
 40
0
 40
0
 40
0
 40
0
 40
1
 40
1
 40
1
 40
1
 10
24.473947
 20
777.232627
 30
0.0
 10
25.832646
 20
777.800330
 30
0.0
 10
26.063006
 20
778.119761
 30
0.0
 10
26.063006
 20
779.436136
 30
0.0
  0
SPLINE
  5
10f
100
AcDbEntity
  8
Layer_1
 62
7
100
AcDbSpline
 70
8
 71
3
 72
8
 73
4
 74
0
 40
0
 40
0
 40
0
 40
0
 40
1
 40
1
 40
1
 40
1
 10
26.063006
 20
779.436136
 30
0.0
 10
26.063006
 20
781.912619
 30
0.0
 10
27.797784
 20
788.020359
 30
0.0
 10
29.553985
 20
791.727060
 30
0.0
  0
SPLINE
  5
110
100
AcDbEntity
  8
Layer_1
 62
7
100
AcDbSpline
 70
8
 71
3
 72
8
 73
4
 74
0
 40
0
 40
0
 40
0
 40
0
 40
1
 40
1
 40
1
 40
1
 10
29.553985
 20
791.727060
 30
0.0
 10
31.852125
 20
796.577590
 30
0.0
 10
34.677091
 20
800.340559
 30
0.0
 10
39.181297
 20
804.551046
 30
0.0
  0
SPLINE
  5
111
100
AcDbEntity
  8
Layer_1
 62
7
100
AcDbSpline
 70
8
 71
3
 72
8
 73
4
 74
0
 40
0
 40
0
 40
0
 40
0
 40
1
 40
1
 40
1
 40
1
 10
39.181297
 20
804.551046
 30
0.0
 10
45.462532
 20
810.422683
 30
0.0
 10
53.581476
 20
814.666711
 30
0.0
 10
62.161347
 20
816.563451
 30
0.0
  0
SPLINE
  5
112
100
AcDbEntity
  8
Layer_1
 62
7
100
AcDbSpline
 70
8
 71
3
 72
8
 73
4
 74
0
 40
0
 40
0
 40
0
 40
0
 40
1
 40
1
 40
1
 40
1
 10
62.161347
 20
816.563451
 30
0.0
 10
64.596546
 20
817.101799
 30
0.0
 10
66.046660
 20
817.712311
 30
0.0
 10
67.020738
 20
818.609303
 30
0.0
  0
SPLINE
  5
113
100
AcDbEntity
  8
Layer_1
 62
7
100
AcDbSpline
 70
8
 71
3
 72
8
 73
4
 74
0
 40
0
 40
0
 40
0
 40
0
 40
1
 40
1
 40
1
 40
1
 10
67.020738
 20
818.609303
 30
0.0
 10
69.210822
 20
820.626060
 30
0.0
 10
70.167271
 20
820.924486
 30
0.0
 10
74.440860
 20
820.924486
 30
0.0
  0
SPLINE
  5
114
100
AcDbEntity
  8
Layer_1
 62
7
100
AcDbSpline
 70
8
 71
3
 72
8
 73
4
 74
0
 40
0
 40
0
 40
0
 40
0
 40
1
 40
1
 40
1
 40
1
 10
74.440860
 20
820.924486
 30
0.0
 10
78.777074
 20
820.924486
 30
0.0
 10
80.992171
 20
820.222038
 30
0.0
 10
82.433302
 20
818.389936
 30
0.0
  0
SPLINE
  5
115
100
AcDbEntity
  8
Layer_1
 62
7
100
AcDbSpline
 70
8
 71
3
 72
8
 73
4
 74
0
 40
0
 40
0
 40
0
 40
0
 40
1
 40
1
 40
1
 40
1
 10
82.433302
 20
818.389936
 30
0.0
 10
82.993368
 20
817.677929
 30
0.0
 10
84.307521
 20
817.120261
 30
0.0
 10
86.701609
 20
816.578659
 30
0.0
  0
SPLINE
  5
116
100
AcDbEntity
  8
Layer_1
 62
7
100
AcDbSpline
 70
8
 71
3
 72
8
 73
4
 74
0
 40
0
 40
0
 40
0
 40
0
 40
1
 40
1
 40
1
 40
1
 10
86.701609
 20
816.578659
 30
0.0
 10
95.395927
 20
814.611784
 30
0.0
 10
103.532661
 20
810.349106
 30
0.0
 10
109.712322
 20
804.523779
 30
0.0
  0
SPLINE
  5
117
100
AcDbEntity
  8
Layer_1
 62
7
100
AcDbSpline
 70
8
 71
3
 72
8
 73
4
 74
0
 40
0
 40
0
 40
0
 40
0
 40
1
 40
1
 40
1
 40
1
 10
109.712322
 20
804.523779
 30
0.0
 10
114.228618
 20
800.266445
 30
0.0
 10
117.011602
 20
796.550851
 30
0.0
 10
119.297072
 20
791.727060
 30
0.0
  0
SPLINE
  5
118
100
AcDbEntity
  8
Layer_1
 62
7
100
AcDbSpline
 70
8
 71
3
 72
8
 73
4
 74
0
 40
0
 40
0
 40
0
 40
0
 40
1
 40
1
 40
1
 40
1
 10
119.297072
 20
791.727060
 30
0.0
 10
121.053280
 20
788.020359
 30
0.0
 10
122.788054
 20
781.912619
 30
0.0
 10
122.788054
 20
779.436136
 30
0.0
  0
SPLINE
  5
119
100
AcDbEntity
  8
Layer_1
 62
7
100
AcDbSpline
 70
8
 71
3
 72
8
 73
4
 74
0
 40
0
 40
0
 40
0
 40
0
 40
1
 40
1
 40
1
 40
1
 10
122.788054
 20
779.436136
 30
0.0
 10
122.788054
 20
778.119761
 30
0.0
 10
123.018426
 20
777.800330
 30
0.0
 10
124.377109
 20
777.232627
 30
0.0
  0
SPLINE
  5
11a
100
AcDbEntity
  8
Layer_1
 62
7
100
AcDbSpline
 70
8
 71
3
 72
8
 73
4
 74
0
 40
0
 40
0
 40
0
 40
0
 40
1
 40
1
 40
1
 40
1
 10
124.377109
 20
777.232627
 30
0.0
 10
126.127763
 20
776.501161
 30
0.0
 10
127.414060
 20
774.487312
 30
0.0
 10
127.419610
 20
772.469249
 30
0.0
  0
SPLINE
  5
11b
100
AcDbEntity
  8
Layer_1
 62
7
100
AcDbSpline
 70
8
 71
3
 72
8
 73
4
 74
0
 40
0
 40
0
 40
0
 40
0
 40
1
 40
1
 40
1
 40
1
 10
127.419610
 20
772.469249
 30
0.0
 10
127.422445
 20
771.444462
 30
0.0
 10
127.809465
 20
770.952971
 30
0.0
 10
129.270807
 20
770.118449
 30
0.0
  0
SPLINE
  5
11c
100
AcDbEntity
  8
Layer_1
 62
7
100
AcDbSpline
 70
8
 71
3
 72
8
 73
4
 74
0
 40
0
 40
0
 40
0
 40
0
 40
1
 40
1
 40
1
 40
1
 10
129.270807
 20
770.118449
 30
0.0
 10
130.881903
 20
769.198414
 30
0.0
 10
131.118446
 20
768.852524
 30
0.0
 10
131.118446
 20
767.416674
 30
0.0
  0
LWPOLYLINE
  5
11d
100
AcDbEntity
  8
Layer_1
 62
7
100
AcDbPolyline
 90
3
 70
0
 10
19.583817
 20
766.029095
 30
0.0
 10
17.732621
 20
765.733076
 30
0.0
 10
17.732621
 20
767.302770
 30
0.0
  0
SPLINE
  5
11e
100
AcDbEntity
  8
Layer_1
 62
7
100
AcDbSpline
 70
8
 71
3
 72
8
 73
4
 74
0
 40
0
 40
0
 40
0
 40
0
 40
1
 40
1
 40
1
 40
1
 10
129.267244
 20
766.082778
 30
0.0
 10
127.439657
 20
766.391547
 30
0.0
 10
127.416047
 20
766.377306
 30
0.0
 10
127.416047
 20
764.966460
 30
0.0
  0
SPLINE
  5
11f
100
AcDbEntity
  8
Layer_1
 62
7
100
AcDbSpline
 70
8
 71
3
 72
8
 73
4
 74
0
 40
0
 40
0
 40
0
 40
0
 40
1
 40
1
 40
1
 40
1
 10
127.416047
 20
764.966460
 30
0.0
 10
127.416047
 20
763.763533
 30
0.0
 10
127.593156
 20
763.537382
 30
0.0
 10
128.535191
 20
763.537382
 30
0.0
  0
SPLINE
  5
120
100
AcDbEntity
  8
Layer_1
 62
7
100
AcDbSpline
 70
8
 71
3
 72
8
 73
4
 74
0
 40
0
 40
0
 40
0
 40
0
 40
1
 40
1
 40
1
 40
1
 10
128.535191
 20
763.537382
 30
0.0
 10
131.007249
 20
763.537382
 30
0.0
 10
131.118446
 20
763.313559
 30
0.0
 10
131.118446
 20
758.337466
 30
0.0
  0
LWPOLYLINE
  5
121
100
AcDbEntity
  8
Layer_1
 62
7
100
AcDbPolyline
 90
3
 70
0
 10
131.118446
 20
767.416674
 30
0.0
 10
131.118446
 20
765.770015
 30
0.0
 10
129.267244
 20
766.082778
 30
0.0
  0
SPLINE
  5
122
100
AcDbEntity
  8
Layer_1
 62
7
100
AcDbSpline
 70
8
 71
3
 72
8
 73
4
 74
0
 40
0
 40
0
 40
0
 40
0
 40
1
 40
1
 40
1
 40
1
 10
129.498642
 20
751.906457
 30
0.0
 10
127.976202
 20
750.221303
 30
0.0
 10
127.878846
 20
749.921029
 30
0.0
 10
127.878846
 20
746.910780
 30
0.0
  0
SPLINE
  5
123
100
AcDbEntity
  8
Layer_1
 62
7
100
AcDbSpline
 70
8
 71
3
 72
8
 73
4
 74
0
 40
0
 40
0
 40
0
 40
0
 40
1
 40
1
 40
1
 40
1
 10
127.878846
 20
746.910780
 30
0.0
 10
127.878846
 20
744.169720
 30
0.0
 10
127.712055
 20
743.509817
 30
0.0
 10
126.721848
 20
742.333017
 30
0.0
  0
LWPOLYLINE
  5
124
100
AcDbEntity
  8
Layer_1
 62
7
100
AcDbPolyline
 90
3
 70
0
 10
131.118446
 20
758.337466
 30
0.0
 10
131.118446
 20
753.699382
 30
0.0
 10
129.498642
 20
751.906457
 30
0.0
  0
SPLINE
  5
125
100
AcDbEntity
  8
Layer_1
 62
7
100
AcDbSpline
 70
8
 71
3
 72
8
 73
4
 74
0
 40
0
 40
0
 40
0
 40
0
 40
1
 40
1
 40
1
 40
1
 10
125.559746
 20
722.744235
 30
0.0
 10
125.556911
 20
712.726665
 30
0.0
 10
125.427991
 20
703.764493
 30
0.0
 10
125.273200
 20
702.828275
 30
0.0
  0
SPLINE
  5
126
100
AcDbEntity
  8
Layer_1
 62
7
100
AcDbSpline
 70
8
 71
3
 72
8
 73
4
 74
0
 40
0
 40
0
 40
0
 40
0
 40
1
 40
1
 40
1
 40
1
 10
125.273200
 20
702.828275
 30
0.0
 10
124.974221
 20
701.020120
 30
0.0
 10
124.229279
 20
700.513648
 30
0.0
 10
120.936849
 20
699.880042
 30
0.0
  0
SPLINE
  5
127
100
AcDbEntity
  8
Layer_1
 62
7
100
AcDbSpline
 70
8
 71
3
 72
8
 73
4
 74
0
 40
0
 40
0
 40
0
 40
0
 40
1
 40
1
 40
1
 40
1
 10
120.936849
 20
699.880042
 30
0.0
 10
120.045963
 20
699.708575
 30
0.0
 10
117.026192
 20
698.263719
 30
0.0
 10
114.226260
 20
696.669205
 30
0.0
  0
SPLINE
  5
128
100
AcDbEntity
  8
Layer_1
 62
7
100
AcDbSpline
 70
8
 71
3
 72
8
 73
4
 74
0
 40
0
 40
0
 40
0
 40
0
 40
1
 40
1
 40
1
 40
1
 10
114.226260
 20
696.669205
 30
0.0
 10
97.029006
 20
686.875669
 30
0.0
 10
87.310772
 20
681.929359
 30
0.0
 10
85.727350
 20
682.164068
 30
0.0
  0
SPLINE
  5
129
100
AcDbEntity
  8
Layer_1
 62
7
100
AcDbSpline
 70
8
 71
3
 72
8
 73
4
 74
0
 40
0
 40
0
 40
0
 40
0
 40
1
 40
1
 40
1
 40
1
 10
85.727350
 20
682.164068
 30
0.0
 10
85.163207
 20
682.247662
 30
0.0
 10
84.065100
 20
683.104666
 30
0.0
 10
83.287106
 20
684.068460
 30
0.0
  0
LWPOLYLINE
  5
12a
100
AcDbEntity
  8
Layer_1
 62
7
100
AcDbPolyline
 90
3
 70
0
 10
126.721848
 20
742.333017
 30
0.0
 10
125.564848
 20
740.958001
 30
0.0
 10
125.559746
 20
722.744235
 30
0.0
  0
SPLINE
  5
12b
100
AcDbEntity
  8
Layer_1
 62
7
100
AcDbSpline
 70
8
 71
3
 72
8
 73
4
 74
0
 40
0
 40
0
 40
0
 40
0
 40
1
 40
1
 40
1
 40
1
 10
83.611032
 20
724.563397
 30
0.0
 10
84.567169
 20
745.871820
 30
0.0
 10
85.494830
 20
763.443825
 30
0.0
 10
85.672500
 20
763.612302
 30
0.0
  0
SPLINE
  5
12c
100
AcDbEntity
  8
Layer_1
 62
7
100
AcDbSpline
 70
8
 71
3
 72
8
 73
4
 74
0
 40
0
 40
0
 40
0
 40
0
 40
1
 40
1
 40
1
 40
1
 10
85.672500
 20
763.612302
 30
0.0
 10
86.453300
 20
764.352723
 30
0.0
 10
102.127654
 20
765.042829
 30
0.0
 10
111.218094
 20
764.737021
 30
0.0
  0
SPLINE
  5
12d
100
AcDbEntity
  8
Layer_1
 62
7
100
AcDbSpline
 70
8
 71
3
 72
8
 73
4
 74
0
 40
0
 40
0
 40
0
 40
0
 40
1
 40
1
 40
1
 40
1
 10
111.218094
 20
764.737021
 30
0.0
 10
116.436155
 20
764.561472
 30
0.0
 10
121.174061
 20
764.301305
 30
0.0
 10
121.746776
 20
764.158850
 30
0.0
  0
SPLINE
  5
12e
100
AcDbEntity
  8
Layer_1
 62
7
100
AcDbSpline
 70
8
 71
3
 72
8
 73
4
 74
0
 40
0
 40
0
 40
0
 40
0
 40
1
 40
1
 40
1
 40
1
 10
121.746776
 20
764.158850
 30
0.0
 10
122.711794
 20
763.918812
 30
0.0
 10
122.788074
 20
764.053770
 30
0.0
 10
122.788074
 20
766.001418
 30
0.0
  0
SPLINE
  5
12f
100
AcDbEntity
  8
Layer_1
 62
7
100
AcDbSpline
 70
8
 71
3
 72
8
 73
4
 74
0
 40
0
 40
0
 40
0
 40
0
 40
1
 40
1
 40
1
 40
1
 10
122.788074
 20
766.001418
 30
0.0
 10
122.788074
 20
768.374084
 30
0.0
 10
123.029813
 20
768.216005
 30
0.0
 10
117.701974
 20
769.327438
 30
0.0
  0
SPLINE
  5
130
100
AcDbEntity
  8
Layer_1
 62
7
100
AcDbSpline
 70
8
 71
3
 72
8
 73
4
 74
0
 40
0
 40
0
 40
0
 40
0
 40
1
 40
1
 40
1
 40
1
 10
117.701974
 20
769.327438
 30
0.0
 10
99.481456
 20
773.128415
 30
0.0
 10
49.828972
 20
773.116713
 30
0.0
 10
31.060066
 20
769.307029
 30
0.0
  0
SPLINE
  5
131
100
AcDbEntity
  8
Layer_1
 62
7
100
AcDbSpline
 70
8
 71
3
 72
8
 73
4
 74
0
 40
0
 40
0
 40
0
 40
0
 40
1
 40
1
 40
1
 40
1
 10
31.060066
 20
769.307029
 30
0.0
 10
25.877210
 20
768.255015
 30
0.0
 10
25.515843
 20
768.028232
 30
0.0
 10
25.689797
 20
765.936816
 30
0.0
  0
SPLINE
  5
132
100
AcDbEntity
  8
Layer_1
 62
7
100
AcDbSpline
 70
8
 71
3
 72
8
 73
4
 74
0
 40
0
 40
0
 40
0
 40
0
 40
1
 40
1
 40
1
 40
1
 10
25.689797
 20
765.936816
 30
0.0
 10
25.820417
 20
764.366193
 30
0.0
 10
25.941230
 20
764.236349
 30
0.0
 10
27.220027
 20
764.291996
 30
0.0
  0
SPLINE
  5
133
100
AcDbEntity
  8
Layer_1
 62
7
100
AcDbSpline
 70
8
 71
3
 72
8
 73
4
 74
0
 40
0
 40
0
 40
0
 40
0
 40
1
 40
1
 40
1
 40
1
 10
27.220027
 20
764.291996
 30
0.0
 10
41.936851
 20
764.932382
 30
0.0
 10
48.505626
 20
764.976342
 30
0.0
 10
55.219380
 20
764.479366
 30
0.0
  0
SPLINE
  5
134
100
AcDbEntity
  8
Layer_1
 62
7
100
AcDbSpline
 70
8
 71
3
 72
8
 73
4
 74
0
 40
0
 40
0
 40
0
 40
0
 40
1
 40
1
 40
1
 40
1
 10
55.219380
 20
764.479366
 30
0.0
 10
59.419284
 20
764.168471
 30
0.0
 10
62.993279
 20
763.777276
 30
0.0
 10
63.161592
 20
763.610046
 30
0.0
  0
SPLINE
  5
135
100
AcDbEntity
  8
Layer_1
 62
7
100
AcDbSpline
 70
8
 71
3
 72
8
 73
4
 74
0
 40
0
 40
0
 40
0
 40
0
 40
1
 40
1
 40
1
 40
1
 10
63.161592
 20
763.610046
 30
0.0
 10
63.428956
 20
763.344411
 30
0.0
 10
66.803695
 20
692.440557
 30
0.0
 10
66.793309
 20
687.307331
 30
0.0
  0
SPLINE
  5
136
100
AcDbEntity
  8
Layer_1
 62
7
100
AcDbSpline
 70
8
 71
3
 72
8
 73
4
 74
0
 40
0
 40
0
 40
0
 40
0
 40
1
 40
1
 40
1
 40
1
 10
66.793309
 20
687.307331
 30
0.0
 10
66.789907
 20
685.788588
 30
0.0
 10
66.471250
 20
684.994224
 30
0.0
 10
65.353022
 20
683.720646
 30
0.0
  0
SPLINE
  5
137
100
AcDbEntity
  8
Layer_1
 62
7
100
AcDbSpline
 70
8
 71
3
 72
8
 73
4
 74
0
 40
0
 40
0
 40
0
 40
0
 40
1
 40
1
 40
1
 40
1
 10
65.353022
 20
683.720646
 30
0.0
 10
64.534881
 20
682.788810
 30
0.0
 10
63.489146
 20
682.088797
 30
0.0
 10
62.923329
 20
682.094183
 30
0.0
  0
SPLINE
  5
138
100
AcDbEntity
  8
Layer_1
 62
7
100
AcDbSpline
 70
8
 71
3
 72
8
 73
4
 74
0
 40
0
 40
0
 40
0
 40
0
 40
1
 40
1
 40
1
 40
1
 10
62.923329
 20
682.094183
 30
0.0
 10
62.376979
 20
682.099569
 30
0.0
 10
60.055634
 20
683.004940
 30
0.0
 10
57.764775
 20
684.106517
 30
0.0
  0
LWPOLYLINE
  5
139
100
AcDbEntity
  8
Layer_1
 62
7
100
AcDbPolyline
 90
3
 70
0
 10
83.287106
 20
684.068460
 30
0.0
 10
81.872597
 20
685.820809
 30
0.0
 10
83.611032
 20
724.563397
 30
0.0
  0
SPLINE
  5
13a
100
AcDbEntity
  8
Layer_1
 62
7
100
AcDbSpline
 70
8
 71
3
 72
8
 73
4
 74
0
 40
0
 40
0
 40
0
 40
0
 40
1
 40
1
 40
1
 40
1
 10
60.521066
 20
687.059804
 30
0.0
 10
58.232582
 20
703.361917
 30
0.0
 10
55.077316
 20
715.715425
 30
0.0
 10
51.153267
 20
723.736641
 30
0.0
  0
SPLINE
  5
13b
100
AcDbEntity
  8
Layer_1
 62
7
100
AcDbSpline
 70
8
 71
3
 72
8
 73
4
 74
0
 40
0
 40
0
 40
0
 40
0
 40
1
 40
1
 40
1
 40
1
 10
51.153267
 20
723.736641
 30
0.0
 10
49.162005
 20
727.807025
 30
0.0
 10
48.503370
 20
728.631366
 30
0.0
 10
42.276404
 20
734.846783
 30
0.0
  0
SPLINE
  5
13c
100
AcDbEntity
  8
Layer_1
 62
7
100
AcDbSpline
 70
8
 71
3
 72
8
 73
4
 74
0
 40
0
 40
0
 40
0
 40
0
 40
1
 40
1
 40
1
 40
1
 10
42.276404
 20
734.846783
 30
0.0
 10
36.540386
 20
740.572157
 30
0.0
 10
26.063006
 20
749.734183
 30
0.0
 10
26.063006
 20
749.024711
 30
0.0
  0
SPLINE
  5
13d
100
AcDbEntity
  8
Layer_1
 62
7
100
AcDbSpline
 70
8
 71
3
 72
8
 73
4
 74
0
 40
0
 40
0
 40
0
 40
0
 40
1
 40
1
 40
1
 40
1
 10
26.063006
 20
749.024711
 30
0.0
 10
26.063006
 20
748.901035
 30
0.0
 10
27.375459
 20
747.059720
 30
0.0
 10
28.979566
 20
744.932869
 30
0.0
  0
SPLINE
  5
13e
100
AcDbEntity
  8
Layer_1
 62
7
100
AcDbSpline
 70
8
 71
3
 72
8
 73
4
 74
0
 40
0
 40
0
 40
0
 40
0
 40
1
 40
1
 40
1
 40
1
 10
28.979566
 20
744.932869
 30
0.0
 10
31.938814
 20
741.009277
 30
0.0
 10
36.633368
 20
733.686956
 30
0.0
 10
37.921507
 20
730.985706
 30
0.0
  0
SPLINE
  5
13f
100
AcDbEntity
  8
Layer_1
 62
7
100
AcDbSpline
 70
8
 71
3
 72
8
 73
4
 74
0
 40
0
 40
0
 40
0
 40
0
 40
1
 40
1
 40
1
 40
1
 10
37.921507
 20
730.985706
 30
0.0
 10
38.617316
 20
729.526564
 30
0.0
 10
38.549605
 20
729.300645
 30
0.0
 10
33.461643
 20
716.105302
 30
0.0
  0
SPLINE
  5
140
100
AcDbEntity
  8
Layer_1
 62
7
100
AcDbSpline
 70
8
 71
3
 72
8
 73
4
 74
0
 40
0
 40
0
 40
0
 40
0
 40
1
 40
1
 40
1
 40
1
 10
33.461643
 20
716.105302
 30
0.0
 10
30.620126
 20
708.735977
 30
0.0
 10
28.473157
 20
702.647223
 30
0.0
 10
28.690603
 20
702.574744
 30
0.0
  0
SPLINE
  5
141
100
AcDbEntity
  8
Layer_1
 62
7
100
AcDbSpline
 70
8
 71
3
 72
8
 73
4
 74
0
 40
0
 40
0
 40
0
 40
0
 40
1
 40
1
 40
1
 40
1
 10
28.690603
 20
702.574744
 30
0.0
 10
28.908048
 20
702.502177
 30
0.0
 10
36.059340
 20
698.506866
 30
0.0
 10
44.582357
 20
693.696084
 30
0.0
  0
SPLINE
  5
142
100
AcDbEntity
  8
Layer_1
 62
7
100
AcDbSpline
 70
8
 71
3
 72
8
 73
4
 74
0
 40
0
 40
0
 40
0
 40
0
 40
1
 40
1
 40
1
 40
1
 10
44.582357
 20
693.696084
 30
0.0
 10
53.105374
 20
688.885325
 30
0.0
 10
60.247706
 20
684.929486
 30
0.0
 10
60.454208
 20
684.905366
 30
0.0
  0
SPLINE
  5
143
100
AcDbEntity
  8
Layer_1
 62
7
100
AcDbSpline
 70
8
 71
3
 72
8
 73
4
 74
0
 40
0
 40
0
 40
0
 40
0
 40
1
 40
1
 40
1
 40
1
 10
60.454208
 20
684.905366
 30
0.0
 10
60.660711
 20
684.881272
 30
0.0
 10
60.690787
 20
685.850737
 30
0.0
 10
60.521077
 20
687.059804
 30
0.0
  0
LWPOLYLINE
  5
144
100
AcDbEntity
  8
Layer_1
 62
7
100
AcDbPolyline
 90
1
 70
1
 10
57.764775
 20
684.106517
 30
0.0
  0
SPLINE
  5
145
100
AcDbEntity
  8
Layer_1
 62
7
100
AcDbSpline
 70
8
 71
3
 72
8
 73
4
 74
0
 40
0
 40
0
 40
0
 40
0
 40
1
 40
1
 40
1
 40
1
 10
96.026519
 20
689.078069
 30
0.0
 10
110.802362
 20
697.324314
 30
0.0
 10
120.245207
 20
702.616054
 30
0.0
 10
120.422727
 20
702.749642
 30
0.0
  0
SPLINE
  5
146
100
AcDbEntity
  8
Layer_1
 62
7
100
AcDbSpline
 70
8
 71
3
 72
8
 73
4
 74
0
 40
0
 40
0
 40
0
 40
0
 40
1
 40
1
 40
1
 40
1
 10
120.422727
 20
702.749642
 30
0.0
 10
120.521769
 20
702.824136
 30
0.0
 10
118.267430
 20
708.929110
 30
0.0
 10
115.413089
 20
716.316168
 30
0.0
  0
LWPOLYLINE
  5
147
100
AcDbEntity
  8
Layer_1
 62
7
100
AcDbPolyline
 90
1
 70
1
 10
60.521077
 20
687.059804
 30
0.0
  0
SPLINE
  5
148
100
AcDbEntity
  8
Layer_1
 62
7
100
AcDbSpline
 70
8
 71
3
 72
8
 73
4
 74
0
 40
0
 40
0
 40
0
 40
0
 40
1
 40
1
 40
1
 40
1
 10
113.443095
 20
735.188012
 30
0.0
 10
115.213941
 20
738.180454
 30
0.0
 10
118.151691
 20
742.555219
 30
0.0
 10
119.971431
 20
744.909710
 30
0.0
  0
SPLINE
  5
149
100
AcDbEntity
  8
Layer_1
 62
7
100
AcDbSpline
 70
8
 71
3
 72
8
 73
4
 74
0
 40
0
 40
0
 40
0
 40
0
 40
1
 40
1
 40
1
 40
1
 10
119.971431
 20
744.909710
 30
0.0
 10
121.791175
 20
747.264203
 30
0.0
 10
123.177260
 20
749.190606
 30
0.0
 10
123.051623
 20
749.190606
 30
0.0
  0
SPLINE
  5
14a
100
AcDbEntity
  8
Layer_1
 62
7
100
AcDbSpline
 70
8
 71
3
 72
8
 73
4
 74
0
 40
0
 40
0
 40
0
 40
0
 40
1
 40
1
 40
1
 40
1
 10
123.051623
 20
749.190606
 30
0.0
 10
122.664249
 20
749.190606
 30
0.0
 10
114.461606
 20
742.285706
 30
0.0
 10
109.888730
 20
738.110225
 30
0.0
  0
SPLINE
  5
14b
100
AcDbEntity
  8
Layer_1
 62
7
100
AcDbSpline
 70
8
 71
3
 72
8
 73
4
 74
0
 40
0
 40
0
 40
0
 40
0
 40
1
 40
1
 40
1
 40
1
 10
109.888730
 20
738.110225
 30
0.0
 10
98.978136
 20
728.147769
 30
0.0
 10
95.302715
 20
721.441140
 30
0.0
 10
91.612885
 20
704.761869
 30
0.0
  0
SPLINE
  5
14c
100
AcDbEntity
  8
Layer_1
 62
7
100
AcDbSpline
 70
8
 71
3
 72
8
 73
4
 74
0
 40
0
 40
0
 40
0
 40
0
 40
1
 40
1
 40
1
 40
1
 10
91.612885
 20
704.761869
 30
0.0
 10
90.120790
 20
698.017088
 30
0.0
 10
87.933197
 20
684.861511
 30
0.0
 10
88.303728
 20
684.861511
 30
0.0
  0
SPLINE
  5
14d
100
AcDbEntity
  8
Layer_1
 62
7
100
AcDbSpline
 70
8
 71
3
 72
8
 73
4
 74
0
 40
0
 40
0
 40
0
 40
0
 40
1
 40
1
 40
1
 40
1
 10
88.303728
 20
684.861511
 30
0.0
 10
88.395826
 20
684.861511
 30
0.0
 10
91.871070
 20
686.758961
 30
0.0
 10
96.026519
 20
689.078069
 30
0.0
  0
LWPOLYLINE
  5
14e
100
AcDbEntity
  8
Layer_1
 62
7
100
AcDbPolyline
 90
3
 70
0
 10
115.413089
 20
716.316168
 30
0.0
 10
110.223383
 20
729.747196
 30
0.0
 10
113.443095
 20
735.188012
 30
0.0
  0
SPLINE
  5
14f
100
AcDbEntity
  8
Layer_1
 62
7
100
AcDbSpline
 70
8
 71
3
 72
8
 73
4
 74
0
 40
0
 40
0
 40
0
 40
0
 40
1
 40
1
 40
1
 40
1
 10
30.690995
 20
773.449767
 30
0.0
 10
38.041534
 20
774.899050
 30
0.0
 10
46.476598
 20
775.844714
 30
0.0
 10
58.372775
 20
776.553211
 30
0.0
  0
LWPOLYLINE
  5
150
100
AcDbEntity
  8
Layer_1
 62
7
100
AcDbPolyline
 90
1
 70
1
 10
96.026519
 20
689.078069
 30
0.0
  0
SPLINE
  5
151
100
AcDbEntity
  8
Layer_1
 62
7
100
AcDbSpline
 70
8
 71
3
 72
8
 73
4
 74
0
 40
0
 40
0
 40
0
 40
0
 40
1
 40
1
 40
1
 40
1
 10
56.084598
 20
779.307650
 30
0.0
 10
37.665788
 20
778.217383
 30
0.0
 10
25.729751
 20
776.625301
 30
0.0
 10
24.152903
 20
775.048456
 30
0.0
  0
SPLINE
  5
152
100
AcDbEntity
  8
Layer_1
 62
7
100
AcDbSpline
 70
8
 71
3
 72
8
 73
4
 74
0
 40
0
 40
0
 40
0
 40
0
 40
1
 40
1
 40
1
 40
1
 10
24.152903
 20
775.048456
 30
0.0
 10
23.002014
 20
773.897567
 30
0.0
 10
22.960365
 20
771.704053
 30
0.0
 10
24.096097
 20
772.057278
 30
0.0
  0
SPLINE
  5
153
100
AcDbEntity
  8
Layer_1
 62
7
100
AcDbSpline
 70
8
 71
3
 72
8
 73
4
 74
0
 40
0
 40
0
 40
0
 40
0
 40
1
 40
1
 40
1
 40
1
 10
24.096097
 20
772.057278
 30
0.0
 10
24.541542
 20
772.195836
 30
0.0
 10
27.509243
 20
772.822434
 30
0.0
 10
30.690986
 20
773.449767
 30
0.0
  0
LWPOLYLINE
  5
154
100
AcDbEntity
  8
Layer_1
 62
7
100
AcDbPolyline
 90
5
 70
0
 10
58.372775
 20
776.553211
 30
0.0
 10
67.773986
 20
777.113116
 30
0.0
 10
66.411403
 20
778.475693
 30
0.0
 10
65.048828
 20
779.838270
 30
0.0
 10
56.084598
 20
779.307650
 30
0.0
  0
SPLINE
  5
155
100
AcDbEntity
  8
Layer_1
 62
7
100
AcDbSpline
 70
8
 71
3
 72
8
 73
4
 74
0
 40
0
 40
0
 40
0
 40
0
 40
1
 40
1
 40
1
 40
1
 10
125.534231
 20
773.371871
 30
0.0
 10
125.298388
 20
774.199120
 30
0.0
 10
124.778633
 20
775.117162
 30
0.0
 10
124.379218
 20
775.411957
 30
0.0
  0
SPLINE
  5
156
100
AcDbEntity
  8
Layer_1
 62
7
100
AcDbSpline
 70
8
 71
3
 72
8
 73
4
 74
0
 40
0
 40
0
 40
0
 40
0
 40
1
 40
1
 40
1
 40
1
 10
124.379218
 20
775.411957
 30
0.0
 10
122.689633
 20
776.658983
 30
0.0
 10
109.347942
 20
778.308982
 30
0.0
 10
92.988952
 20
779.294064
 30
0.0
  0
LWPOLYLINE
  5
157
100
AcDbEntity
  8
Layer_1
 62
7
100
AcDbPolyline
 90
1
 70
1
 10
30.690986
 20
773.449767
 30
0.0
  0
SPLINE
  5
158
100
AcDbEntity
  8
Layer_1
 62
7
100
AcDbSpline
 70
8
 71
3
 72
8
 73
4
 74
0
 40
0
 40
0
 40
0
 40
0
 40
1
 40
1
 40
1
 40
1
 10
90.713849
 20
776.554404
 30
0.0
 10
103.129379
 20
775.786283
 30
0.0
 10
111.577839
 20
774.796351
 30
0.0
 10
118.812283
 20
773.262034
 30
0.0
  0
SPLINE
  5
159
100
AcDbEntity
  8
Layer_1
 62
7
100
AcDbSpline
 70
8
 71
3
 72
8
 73
4
 74
0
 40
0
 40
0
 40
0
 40
0
 40
1
 40
1
 40
1
 40
1
 10
118.812283
 20
773.262034
 30
0.0
 10
126.657544
 20
771.598171
 30
0.0
 10
126.042758
 20
771.588130
 30
0.0
 10
125.534231
 20
773.371848
 30
0.0
  0
LWPOLYLINE
  5
15a
100
AcDbEntity
  8
Layer_1
 62
7
100
AcDbPolyline
 90
5
 70
0
 10
92.988952
 20
779.294064
 30
0.0
 10
84.247217
 20
779.820460
 30
0.0
 10
82.897716
 20
778.470959
 30
0.0
 10
81.548218
 20
777.121461
 30
0.0
 10
90.713849
 20
776.554404
 30
0.0
  0
LWPOLYLINE
  5
15b
100
AcDbEntity
  8
Layer_1
 62
7
100
AcDbPolyline
 90
1
 70
1
 10
125.534231
 20
773.371848
 30
0.0
  0
SPLINE
  5
15c
100
AcDbEntity
  8
Layer_1
 62
7
100
AcDbSpline
 70
8
 71
3
 72
8
 73
4
 74
0
 40
0
 40
0
 40
0
 40
0
 40
1
 40
1
 40
1
 40
1
 10
80.637752
 20
817.875158
 30
0.0
 10
79.854608
 20
818.534137
 30
0.0
 10
78.813309
 20
819.073298
 30
0.0
 10
78.323754
 20
819.073298
 30
0.0
  0
SPLINE
  5
15d
100
AcDbEntity
  8
Layer_1
 62
7
100
AcDbSpline
 70
8
 71
3
 72
8
 73
4
 74
0
 40
0
 40
0
 40
0
 40
0
 40
1
 40
1
 40
1
 40
1
 10
78.323754
 20
819.073298
 30
0.0
 10
77.460956
 20
819.073298
 30
0.0
 10
77.433664
 20
818.528487
 30
0.0
 10
77.433664
 20
801.305042
 30
0.0
  0
SPLINE
  5
15e
100
AcDbEntity
  8
Layer_1
 62
7
100
AcDbSpline
 70
8
 71
3
 72
8
 73
4
 74
0
 40
0
 40
0
 40
0
 40
0
 40
1
 40
1
 40
1
 40
1
 10
77.433664
 20
801.305042
 30
0.0
 10
77.433664
 20
781.569941
 30
0.0
 10
77.677784
 20
782.974956
 30
0.0
 10
74.248778
 20
782.974956
 30
0.0
  0
SPLINE
  5
15f
100
AcDbEntity
  8
Layer_1
 62
7
100
AcDbSpline
 70
8
 71
3
 72
8
 73
4
 74
0
 40
0
 40
0
 40
0
 40
0
 40
1
 40
1
 40
1
 40
1
 10
74.248778
 20
782.974956
 30
0.0
 10
73.302350
 20
782.974956
 30
0.0
 10
72.278082
 20
783.224858
 30
0.0
 10
71.972634
 20
783.530314
 30
0.0
  0
SPLINE
  5
160
100
AcDbEntity
  8
Layer_1
 62
7
100
AcDbSpline
 70
8
 71
3
 72
8
 73
4
 74
0
 40
0
 40
0
 40
0
 40
0
 40
1
 40
1
 40
1
 40
1
 10
71.972634
 20
783.530314
 30
0.0
 10
71.560012
 20
783.942939
 30
0.0
 10
71.417282
 20
788.644312
 30
0.0
 10
71.417282
 20
801.822767
 30
0.0
  0
LWPOLYLINE
  5
161
100
AcDbEntity
  8
Layer_1
 62
7
100
AcDbPolyline
 90
5
 70
0
 10
79.543315
 20
779.156864
 30
0.0
 10
82.050035
 20
781.355160
 30
0.0
 10
82.055704
 20
799.016088
 30
0.0
 10
82.061657
 20
816.677021
 30
0.0
 10
80.637752
 20
817.875158
 30
0.0
  0
SPLINE
  5
162
100
AcDbEntity
  8
Layer_1
 62
7
100
AcDbSpline
 70
8
 71
3
 72
8
 73
4
 74
0
 40
0
 40
0
 40
0
 40
0
 40
1
 40
1
 40
1
 40
1
 10
70.143494
 20
818.901153
 30
0.0
 10
67.296042
 20
817.428682
 30
0.0
 10
67.399614
 20
818.102273
 30
0.0
 10
67.096174
 20
799.083037
 30
0.0
  0
LWPOLYLINE
  5
163
100
AcDbEntity
  8
Layer_1
 62
7
100
AcDbPolyline
 90
3
 70
0
 10
71.417282
 20
801.822767
 30
0.0
 10
71.417282
 20
819.559856
 30
0.0
 10
70.143494
 20
818.901153
 30
0.0
  0
SPLINE
  5
164
100
AcDbEntity
  8
Layer_1
 62
7
100
AcDbSpline
 70
8
 71
3
 72
8
 73
4
 74
0
 40
0
 40
0
 40
0
 40
0
 40
1
 40
1
 40
1
 40
1
 10
69.464667
 20
779.304915
 30
0.0
 10
71.931821
 20
777.130027
 30
0.0
 10
72.278637
 20
776.971205
 30
0.0
 10
74.574014
 20
776.965102
 30
0.0
  0
SPLINE
  5
165
100
AcDbEntity
  8
Layer_1
 62
7
100
AcDbSpline
 70
8
 71
3
 72
8
 73
4
 74
0
 40
0
 40
0
 40
0
 40
0
 40
1
 40
1
 40
1
 40
1
 10
74.574014
 20
776.965102
 30
0.0
 10
76.855380
 20
776.959149
 30
0.0
 10
77.220972
 20
777.120299
 30
0.0
 10
79.543267
 20
779.156855
 30
0.0
  0
LWPOLYLINE
  5
166
100
AcDbEntity
  8
Layer_1
 62
7
100
AcDbPolyline
 90
3
 70
0
 10
67.096174
 20
799.083037
 30
0.0
 10
66.817840
 20
781.638180
 30
0.0
 10
69.464667
 20
779.304915
 30
0.0
  0
SPLINE
  5
167
100
AcDbEntity
  8
Layer_1
 62
7
100
AcDbSpline
 70
8
 71
3
 72
8
 73
4
 74
0
 40
0
 40
0
 40
0
 40
0
 40
1
 40
1
 40
1
 40
1
 10
195.806256
 20
692.042746
 30
0.0
 10
187.915071
 20
692.467262
 30
0.0
 10
182.709941
 20
693.882743
 30
0.0
 10
179.137035
 20
696.575713
 30
0.0
  0
SPLINE
  5
168
100
AcDbEntity
  8
Layer_1
 62
7
100
AcDbSpline
 70
8
 71
3
 72
8
 73
4
 74
0
 40
0
 40
0
 40
0
 40
0
 40
1
 40
1
 40
1
 40
1
 10
179.137035
 20
696.575713
 30
0.0
 10
176.427859
 20
698.617678
 30
0.0
 10
174.305055
 20
702.688314
 30
0.0
 10
173.272397
 20
707.821574
 30
0.0
  0
SPLINE
  5
169
100
AcDbEntity
  8
Layer_1
 62
7
100
AcDbSpline
 70
8
 71
3
 72
8
 73
4
 74
0
 40
0
 40
0
 40
0
 40
0
 40
1
 40
1
 40
1
 40
1
 10
173.272397
 20
707.821574
 30
0.0
 10
173.064504
 20
708.854944
 30
0.0
 10
172.849127
 20
710.251092
 30
0.0
 10
172.793764
 20
710.924094
 30
0.0
  0
LWPOLYLINE
  5
16a
100
AcDbEntity
  8
Layer_1
 62
7
100
AcDbPolyline
 90
1
 70
1
 10
79.543267
 20
779.156855
 30
0.0
  0
SPLINE
  5
16b
100
AcDbEntity
  8
Layer_1
 62
7
100
AcDbSpline
 70
8
 71
3
 72
8
 73
4
 74
0
 40
0
 40
0
 40
0
 40
0
 40
1
 40
1
 40
1
 40
1
 10
171.398140
 20
712.703855
 30
0.0
 10
167.025934
 20
714.581410
 30
0.0
 10
162.741725
 20
717.416169
 30
0.0
 10
159.613013
 20
720.501795
 30
0.0
  0
SPLINE
  5
16c
100
AcDbEntity
  8
Layer_1
 62
7
100
AcDbSpline
 70
8
 71
3
 72
8
 73
4
 74
0
 40
0
 40
0
 40
0
 40
0
 40
1
 40
1
 40
1
 40
1
 10
159.613013
 20
720.501795
 30
0.0
 10
154.377578
 20
725.665130
 30
0.0
 10
151.893924
 20
731.522670
 30
0.0
 10
150.840882
 20
741.190286
 30
0.0
  0
SPLINE
  5
16d
100
AcDbEntity
  8
Layer_1
 62
7
100
AcDbSpline
 70
8
 71
3
 72
8
 73
4
 74
0
 40
0
 40
0
 40
0
 40
0
 40
1
 40
1
 40
1
 40
1
 10
150.840882
 20
741.190286
 30
0.0
 10
150.474129
 20
744.557335
 30
0.0
 10
150.473452
 20
752.340988
 30
0.0
 10
150.839654
 20
755.319407
 30
0.0
  0
SPLINE
  5
16e
100
AcDbEntity
  8
Layer_1
 62
7
100
AcDbSpline
 70
8
 71
3
 72
8
 73
4
 74
0
 40
0
 40
0
 40
0
 40
0
 40
1
 40
1
 40
1
 40
1
 10
150.839654
 20
755.319407
 30
0.0
 10
152.349418
 20
767.598695
 30
0.0
 10
156.901207
 20
777.484267
 30
0.0
 10
165.316073
 20
786.759228
 30
0.0
  0
SPLINE
  5
16f
100
AcDbEntity
  8
Layer_1
 62
7
100
AcDbSpline
 70
8
 71
3
 72
8
 73
4
 74
0
 40
0
 40
0
 40
0
 40
0
 40
1
 40
1
 40
1
 40
1
 10
165.316073
 20
786.759228
 30
0.0
 10
174.575962
 20
796.965605
 30
0.0
 10
187.021548
 20
803.127044
 30
0.0
 10
201.442728
 20
804.644427
 30
0.0
  0
SPLINE
  5
170
100
AcDbEntity
  8
Layer_1
 62
7
100
AcDbSpline
 70
8
 71
3
 72
8
 73
4
 74
0
 40
0
 40
0
 40
0
 40
0
 40
1
 40
1
 40
1
 40
1
 10
201.442728
 20
804.644427
 30
0.0
 10
203.885456
 20
804.901473
 30
0.0
 10
210.976951
 20
804.900935
 30
0.0
 10
213.692958
 20
804.643557
 30
0.0
  0
SPLINE
  5
171
100
AcDbEntity
  8
Layer_1
 62
7
100
AcDbSpline
 70
8
 71
3
 72
8
 73
4
 74
0
 40
0
 40
0
 40
0
 40
0
 40
1
 40
1
 40
1
 40
1
 10
213.692958
 20
804.643557
 30
0.0
 10
230.014987
 20
803.096717
 30
0.0
 10
241.336494
 20
796.624917
 30
0.0
 10
251.324793
 20
783.131817
 30
0.0
  0
SPLINE
  5
172
100
AcDbEntity
  8
Layer_1
 62
7
100
AcDbSpline
 70
8
 71
3
 72
8
 73
4
 74
0
 40
0
 40
0
 40
0
 40
0
 40
1
 40
1
 40
1
 40
1
 10
251.324793
 20
783.131817
 30
0.0
 10
257.547209
 20
774.726015
 30
0.0
 10
261.807738
 20
765.246365
 30
0.0
 10
263.284843
 20
756.520645
 30
0.0
  0
SPLINE
  5
173
100
AcDbEntity
  8
Layer_1
 62
7
100
AcDbSpline
 70
8
 71
3
 72
8
 73
4
 74
0
 40
0
 40
0
 40
0
 40
0
 40
1
 40
1
 40
1
 40
1
 10
263.284843
 20
756.520645
 30
0.0
 10
263.868866
 20
753.070711
 30
0.0
 10
264.025168
 20
750.690374
 30
0.0
 10
263.921392
 20
746.826922
 30
0.0
  0
SPLINE
  5
174
100
AcDbEntity
  8
Layer_1
 62
7
100
AcDbSpline
 70
8
 71
3
 72
8
 73
4
 74
0
 40
0
 40
0
 40
0
 40
0
 40
1
 40
1
 40
1
 40
1
 10
263.921392
 20
746.826922
 30
0.0
 10
263.636906
 20
736.236147
 30
0.0
 10
261.627171
 20
729.486629
 30
0.0
 10
257.051288
 20
723.754380
 30
0.0
  0
SPLINE
  5
175
100
AcDbEntity
  8
Layer_1
 62
7
100
AcDbSpline
 70
8
 71
3
 72
8
 73
4
 74
0
 40
0
 40
0
 40
0
 40
0
 40
1
 40
1
 40
1
 40
1
 10
257.051288
 20
723.754380
 30
0.0
 10
255.876610
 20
722.282831
 30
0.0
 10
253.253628
 20
719.679549
 30
0.0
 10
251.721275
 20
718.464365
 30
0.0
  0
SPLINE
  5
176
100
AcDbEntity
  8
Layer_1
 62
7
100
AcDbSpline
 70
8
 71
3
 72
8
 73
4
 74
0
 40
0
 40
0
 40
0
 40
0
 40
1
 40
1
 40
1
 40
1
 10
251.721275
 20
718.464365
 30
0.0
 10
249.353240
 20
716.586469
 30
0.0
 10
244.919571
 20
713.929385
 30
0.0
 10
242.376242
 20
712.863927
 30
0.0
  0
LWPOLYLINE
  5
177
100
AcDbEntity
  8
Layer_1
 62
7
100
AcDbPolyline
 90
3
 70
0
 10
172.793764
 20
710.924094
 30
0.0
 10
172.693106
 20
712.147754
 30
0.0
 10
171.398140
 20
712.703855
 30
0.0
  0
SPLINE
  5
178
100
AcDbEntity
  8
Layer_1
 62
7
100
AcDbSpline
 70
8
 71
3
 72
8
 73
4
 74
0
 40
0
 40
0
 40
0
 40
0
 40
1
 40
1
 40
1
 40
1
 10
241.215880
 20
710.516160
 30
0.0
 10
240.902765
 20
704.585259
 30
0.0
 10
239.536976
 20
700.920743
 30
0.0
 10
236.594642
 20
698.116881
 30
0.0
  0
SPLINE
  5
179
100
AcDbEntity
  8
Layer_1
 62
7
100
AcDbSpline
 70
8
 71
3
 72
8
 73
4
 74
0
 40
0
 40
0
 40
0
 40
0
 40
1
 40
1
 40
1
 40
1
 10
236.594642
 20
698.116881
 30
0.0
 10
234.429880
 20
696.054025
 30
0.0
 10
232.293705
 20
694.984343
 30
0.0
 10
228.357714
 20
693.992217
 30
0.0
  0
SPLINE
  5
17a
100
AcDbEntity
  8
Layer_1
 62
7
100
AcDbSpline
 70
8
 71
3
 72
8
 73
4
 74
0
 40
0
 40
0
 40
0
 40
0
 40
1
 40
1
 40
1
 40
1
 10
228.357714
 20
693.992217
 30
0.0
 10
225.114834
 20
693.174790
 30
0.0
 10
220.991329
 20
692.588160
 30
0.0
 10
215.646863
 20
692.183883
 30
0.0
  0
SPLINE
  5
17b
100
AcDbEntity
  8
Layer_1
 62
7
100
AcDbSpline
 70
8
 71
3
 72
8
 73
4
 74
0
 40
0
 40
0
 40
0
 40
0
 40
1
 40
1
 40
1
 40
1
 10
215.646863
 20
692.183883
 30
0.0
 10
212.899751
 20
691.976103
 30
0.0
 10
198.896706
 20
691.876494
 30
0.0
 10
195.806134
 20
692.042717
 30
0.0
  0
LWPOLYLINE
  5
17c
100
AcDbEntity
  8
Layer_1
 62
7
100
AcDbPolyline
 90
3
 70
0
 10
242.376242
 20
712.863927
 30
0.0
 10
241.316510
 20
712.419965
 30
0.0
 10
241.215880
 20
710.516160
 30
0.0
  0
SPLINE
  5
17d
100
AcDbEntity
  8
Layer_1
 62
7
100
AcDbSpline
 70
8
 71
3
 72
8
 73
4
 74
0
 40
0
 40
0
 40
0
 40
0
 40
1
 40
1
 40
1
 40
1
 10
218.277403
 20
696.694371
 30
0.0
 10
227.612183
 20
697.347275
 30
0.0
 10
233.374229
 20
699.200878
 30
0.0
 10
235.641039
 20
702.280125
 30
0.0
  0
SPLINE
  5
17e
100
AcDbEntity
  8
Layer_1
 62
7
100
AcDbSpline
 70
8
 71
3
 72
8
 73
4
 74
0
 40
0
 40
0
 40
0
 40
0
 40
1
 40
1
 40
1
 40
1
 10
235.641039
 20
702.280125
 30
0.0
 10
236.973521
 20
704.090217
 30
0.0
 10
237.819691
 20
707.326872
 30
0.0
 10
238.131020
 20
711.804790
 30
0.0
  0
SPLINE
  5
17f
100
AcDbEntity
  8
Layer_1
 62
7
100
AcDbSpline
 70
8
 71
3
 72
8
 73
4
 74
0
 40
0
 40
0
 40
0
 40
0
 40
1
 40
1
 40
1
 40
1
 10
238.131020
 20
711.804790
 30
0.0
 10
238.430897
 20
716.117477
 30
0.0
 10
238.122516
 20
718.472075
 30
0.0
 10
237.036110
 20
720.185590
 30
0.0
  0
SPLINE
  5
180
100
AcDbEntity
  8
Layer_1
 62
7
100
AcDbSpline
 70
8
 71
3
 72
8
 73
4
 74
0
 40
0
 40
0
 40
0
 40
0
 40
1
 40
1
 40
1
 40
1
 10
237.036110
 20
720.185590
 30
0.0
 10
236.038059
 20
721.758705
 30
0.0
 10
233.624245
 20
723.589206
 30
0.0
 10
230.436408
 20
725.190497
 30
0.0
  0
SPLINE
  5
181
100
AcDbEntity
  8
Layer_1
 62
7
100
AcDbSpline
 70
8
 71
3
 72
8
 73
4
 74
0
 40
0
 40
0
 40
0
 40
0
 40
1
 40
1
 40
1
 40
1
 10
230.436408
 20
725.190497
 30
0.0
 10
224.431013
 20
728.207099
 30
0.0
 10
221.309427
 20
729.279615
 30
0.0
 10
216.815409
 20
729.870384
 30
0.0
  0
SPLINE
  5
182
100
AcDbEntity
  8
Layer_1
 62
7
100
AcDbSpline
 70
8
 71
3
 72
8
 73
4
 74
0
 40
0
 40
0
 40
0
 40
0
 40
1
 40
1
 40
1
 40
1
 10
216.815409
 20
729.870384
 30
0.0
 10
215.059873
 20
730.101124
 30
0.0
 10
213.671098
 20
730.141376
 30
0.0
 10
207.680576
 20
730.134006
 30
0.0
  0
SPLINE
  5
183
100
AcDbEntity
  8
Layer_1
 62
7
100
AcDbSpline
 70
8
 71
3
 72
8
 73
4
 74
0
 40
0
 40
0
 40
0
 40
0
 40
1
 40
1
 40
1
 40
1
 10
207.680576
 20
730.134006
 30
0.0
 10
201.405424
 20
730.125502
 30
0.0
 10
200.322099
 20
730.089218
 30
0.0
 10
197.985606
 20
729.802749
 30
0.0
  0
SPLINE
  5
184
100
AcDbEntity
  8
Layer_1
 62
7
100
AcDbSpline
 70
8
 71
3
 72
8
 73
4
 74
0
 40
0
 40
0
 40
0
 40
0
 40
1
 40
1
 40
1
 40
1
 10
197.985606
 20
729.802749
 30
0.0
 10
193.145284
 20
729.208891
 30
0.0
 10
189.953419
 20
728.430695
 30
0.0
 10
185.971833
 20
726.873766
 30
0.0
  0
SPLINE
  5
185
100
AcDbEntity
  8
Layer_1
 62
7
100
AcDbSpline
 70
8
 71
3
 72
8
 73
4
 74
0
 40
0
 40
0
 40
0
 40
0
 40
1
 40
1
 40
1
 40
1
 10
185.971833
 20
726.873766
 30
0.0
 10
180.038373
 20
724.553552
 30
0.0
 10
175.645106
 20
721.670122
 30
0.0
 10
174.663972
 20
719.452097
 30
0.0
  0
SPLINE
  5
186
100
AcDbEntity
  8
Layer_1
 62
7
100
AcDbSpline
 70
8
 71
3
 72
8
 73
4
 74
0
 40
0
 40
0
 40
0
 40
0
 40
1
 40
1
 40
1
 40
1
 10
174.663972
 20
719.452097
 30
0.0
 10
174.374033
 20
718.796670
 30
0.0
 10
174.363914
 20
718.640084
 30
0.0
 10
174.515579
 20
717.155609
 30
0.0
  0
SPLINE
  5
187
100
AcDbEntity
  8
Layer_1
 62
7
100
AcDbSpline
 70
8
 71
3
 72
8
 73
4
 74
0
 40
0
 40
0
 40
0
 40
0
 40
1
 40
1
 40
1
 40
1
 10
174.515579
 20
717.155609
 30
0.0
 10
174.605097
 20
716.279392
 30
0.0
 10
174.751790
 20
714.649385
 30
0.0
 10
174.841600
 20
713.533329
 30
0.0
  0
SPLINE
  5
188
100
AcDbEntity
  8
Layer_1
 62
7
100
AcDbSpline
 70
8
 71
3
 72
8
 73
4
 74
0
 40
0
 40
0
 40
0
 40
0
 40
1
 40
1
 40
1
 40
1
 10
174.841600
 20
713.533329
 30
0.0
 10
175.209126
 20
708.965524
 30
0.0
 10
176.513394
 20
704.910138
 30
0.0
 10
178.426071
 20
702.388040
 30
0.0
  0
SPLINE
  5
189
100
AcDbEntity
  8
Layer_1
 62
7
100
AcDbSpline
 70
8
 71
3
 72
8
 73
4
 74
0
 40
0
 40
0
 40
0
 40
0
 40
1
 40
1
 40
1
 40
1
 10
178.426071
 20
702.388040
 30
0.0
 10
181.024234
 20
698.962088
 30
0.0
 10
187.855716
 20
697.063187
 30
0.0
 10
199.438713
 20
696.547338
 30
0.0
  0
SPLINE
  5
18a
100
AcDbEntity
  8
Layer_1
 62
7
100
AcDbSpline
 70
8
 71
3
 72
8
 73
4
 74
0
 40
0
 40
0
 40
0
 40
0
 40
1
 40
1
 40
1
 40
1
 10
199.438713
 20
696.547338
 30
0.0
 10
202.941624
 20
696.391149
 30
0.0
 10
215.326814
 20
696.488094
 30
0.0
 10
218.277414
 20
696.694456
 30
0.0
  0
LWPOLYLINE
  5
18b
100
AcDbEntity
  8
Layer_1
 62
7
100
AcDbPolyline
 90
2
 70
0
 10
195.806134
 20
692.042717
 30
0.0
 10
195.806256
 20
692.042746
 30
0.0
  0
SPLINE
  5
18c
100
AcDbEntity
  8
Layer_1
 62
7
100
AcDbSpline
 70
8
 71
3
 72
8
 73
4
 74
0
 40
0
 40
0
 40
0
 40
0
 40
1
 40
1
 40
1
 40
1
 10
193.831792
 20
705.855379
 30
0.0
 10
193.228296
 20
706.223373
 30
0.0
 10
192.660242
 20
707.398532
 30
0.0
 10
192.356257
 20
708.907867
 30
0.0
  0
SPLINE
  5
18d
100
AcDbEntity
  8
Layer_1
 62
7
100
AcDbSpline
 70
8
 71
3
 72
8
 73
4
 74
0
 40
0
 40
0
 40
0
 40
0
 40
1
 40
1
 40
1
 40
1
 10
192.356257
 20
708.907867
 30
0.0
 10
191.577991
 20
712.772084
 30
0.0
 10
191.747211
 20
720.742116
 30
0.0
 10
192.667703
 20
723.576563
 30
0.0
  0
SPLINE
  5
18e
100
AcDbEntity
  8
Layer_1
 62
7
100
AcDbSpline
 70
8
 71
3
 72
8
 73
4
 74
0
 40
0
 40
0
 40
0
 40
0
 40
1
 40
1
 40
1
 40
1
 10
192.667703
 20
723.576563
 30
0.0
 10
192.810455
 20
724.016132
 30
0.0
 10
193.169154
 20
724.648229
 30
0.0
 10
193.464822
 20
724.981272
 30
0.0
  0
SPLINE
  5
18f
100
AcDbEntity
  8
Layer_1
 62
7
100
AcDbSpline
 70
8
 71
3
 72
8
 73
4
 74
0
 40
0
 40
0
 40
0
 40
0
 40
1
 40
1
 40
1
 40
1
 10
193.464822
 20
724.981272
 30
0.0
 10
193.905711
 20
725.477873
 30
0.0
 10
194.124056
 20
725.600103
 30
0.0
 10
194.678796
 20
725.660878
 30
0.0
  0
SPLINE
  5
190
100
AcDbEntity
  8
Layer_1
 62
7
100
AcDbSpline
 70
8
 71
3
 72
8
 73
4
 74
0
 40
0
 40
0
 40
0
 40
0
 40
1
 40
1
 40
1
 40
1
 10
194.678796
 20
725.660878
 30
0.0
 10
196.039843
 20
725.809980
 30
0.0
 10
196.883963
 20
724.774541
 30
0.0
 10
197.429530
 20
722.286743
 30
0.0
  0
SPLINE
  5
191
100
AcDbEntity
  8
Layer_1
 62
7
100
AcDbSpline
 70
8
 71
3
 72
8
 73
4
 74
0
 40
0
 40
0
 40
0
 40
0
 40
1
 40
1
 40
1
 40
1
 10
197.429530
 20
722.286743
 30
0.0
 10
197.721556
 20
720.955140
 30
0.0
 10
197.750891
 20
720.363124
 30
0.0
 10
197.755296
 20
715.712831
 30
0.0
  0
SPLINE
  5
192
100
AcDbEntity
  8
Layer_1
 62
7
100
AcDbSpline
 70
8
 71
3
 72
8
 73
4
 74
0
 40
0
 40
0
 40
0
 40
0
 40
1
 40
1
 40
1
 40
1
 10
197.755296
 20
715.712831
 30
0.0
 10
197.759548
 20
711.342091
 30
0.0
 10
197.720374
 20
710.406516
 30
0.0
 10
197.485296
 20
709.249924
 30
0.0
  0
SPLINE
  5
193
100
AcDbEntity
  8
Layer_1
 62
7
100
AcDbSpline
 70
8
 71
3
 72
8
 73
4
 74
0
 40
0
 40
0
 40
0
 40
0
 40
1
 40
1
 40
1
 40
1
 10
197.485296
 20
709.249924
 30
0.0
 10
196.966403
 20
706.696758
 30
0.0
 10
196.184035
 20
705.566387
 30
0.0
 10
194.936613
 20
705.567492
 30
0.0
  0
SPLINE
  5
194
100
AcDbEntity
  8
Layer_1
 62
7
100
AcDbSpline
 70
8
 71
3
 72
8
 73
4
 74
0
 40
0
 40
0
 40
0
 40
0
 40
1
 40
1
 40
1
 40
1
 10
194.936613
 20
705.567492
 30
0.0
 10
194.578231
 20
705.567776
 30
0.0
 10
194.098348
 20
705.692784
 30
0.0
 10
193.831801
 20
705.855379
 30
0.0
  0
LWPOLYLINE
  5
195
100
AcDbEntity
  8
Layer_1
 62
7
100
AcDbPolyline
 90
1
 70
1
 10
218.277414
 20
696.694456
 30
0.0
  0
SPLINE
  5
196
100
AcDbEntity
  8
Layer_1
 62
7
100
AcDbSpline
 70
8
 71
3
 72
8
 73
4
 74
0
 40
0
 40
0
 40
0
 40
0
 40
1
 40
1
 40
1
 40
1
 10
218.031151
 20
705.855691
 30
0.0
 10
217.441704
 20
706.215124
 30
0.0
 10
216.882913
 20
707.363609
 30
0.0
 10
216.562708
 20
708.873738
 30
0.0
  0
SPLINE
  5
197
100
AcDbEntity
  8
Layer_1
 62
7
100
AcDbSpline
 70
8
 71
3
 72
8
 73
4
 74
0
 40
0
 40
0
 40
0
 40
0
 40
1
 40
1
 40
1
 40
1
 10
216.562708
 20
708.873738
 30
0.0
 10
216.140975
 20
710.862752
 30
0.0
 10
215.950649
 20
715.297215
 30
0.0
 10
216.150934
 20
718.467993
 30
0.0
  0
SPLINE
  5
198
100
AcDbEntity
  8
Layer_1
 62
7
100
AcDbSpline
 70
8
 71
3
 72
8
 73
4
 74
0
 40
0
 40
0
 40
0
 40
0
 40
1
 40
1
 40
1
 40
1
 10
216.150934
 20
718.467993
 30
0.0
 10
216.403019
 20
722.459061
 30
0.0
 10
216.848747
 20
724.245596
 30
0.0
 10
217.825957
 20
725.181823
 30
0.0
  0
SPLINE
  5
199
100
AcDbEntity
  8
Layer_1
 62
7
100
AcDbSpline
 70
8
 71
3
 72
8
 73
4
 74
0
 40
0
 40
0
 40
0
 40
0
 40
1
 40
1
 40
1
 40
1
 10
217.825957
 20
725.181823
 30
0.0
 10
218.440573
 20
725.770692
 30
0.0
 10
219.381282
 20
725.853010
 30
0.0
 10
220.078828
 20
725.379114
 30
0.0
  0
SPLINE
  5
19a
100
AcDbEntity
  8
Layer_1
 62
7
100
AcDbSpline
 70
8
 71
3
 72
8
 73
4
 74
0
 40
0
 40
0
 40
0
 40
0
 40
1
 40
1
 40
1
 40
1
 10
220.078828
 20
725.379114
 30
0.0
 10
221.507246
 20
724.408532
 30
0.0
 10
222.054812
 20
721.707596
 30
0.0
 10
222.053743
 20
715.637741
 30
0.0
  0
SPLINE
  5
19b
100
AcDbEntity
  8
Layer_1
 62
7
100
AcDbSpline
 70
8
 71
3
 72
8
 73
4
 74
0
 40
0
 40
0
 40
0
 40
0
 40
1
 40
1
 40
1
 40
1
 10
222.053743
 20
715.637741
 30
0.0
 10
222.052689
 20
709.734025
 30
0.0
 10
221.550746
 20
707.075977
 30
0.0
 10
220.226485
 20
705.961678
 30
0.0
  0
SPLINE
  5
19c
100
AcDbEntity
  8
Layer_1
 62
7
100
AcDbSpline
 70
8
 71
3
 72
8
 73
4
 74
0
 40
0
 40
0
 40
0
 40
0
 40
1
 40
1
 40
1
 40
1
 10
220.226485
 20
705.961678
 30
0.0
 10
219.649388
 20
705.476103
 30
0.0
 10
218.726804
 20
705.431571
 30
0.0
 10
218.031151
 20
705.855662
 30
0.0
  0
LWPOLYLINE
  5
19d
100
AcDbEntity
  8
Layer_1
 62
7
100
AcDbPolyline
 90
1
 70
1
 10
193.831801
 20
705.855379
 30
0.0
  0
SPLINE
  5
19e
100
AcDbEntity
  8
Layer_1
 62
7
100
AcDbSpline
 70
8
 71
3
 72
8
 73
4
 74
0
 40
0
 40
0
 40
0
 40
0
 40
1
 40
1
 40
1
 40
1
 10
258.101836
 20
737.954708
 30
0.0
 10
260.886932
 20
739.394935
 30
0.0
 10
261.923930
 20
747.155769
 30
0.0
 10
260.422078
 20
755.319407
 30
0.0
  0
SPLINE
  5
19f
100
AcDbEntity
  8
Layer_1
 62
7
100
AcDbSpline
 70
8
 71
3
 72
8
 73
4
 74
0
 40
0
 40
0
 40
0
 40
0
 40
1
 40
1
 40
1
 40
1
 10
260.422078
 20
755.319407
 30
0.0
 10
259.721722
 20
759.126365
 30
0.0
 10
258.883347
 20
762.069039
 30
0.0
 10
257.467329
 20
765.690752
 30
0.0
  0
SPLINE
  5
1a0
100
AcDbEntity
  8
Layer_1
 62
7
100
AcDbSpline
 70
8
 71
3
 72
8
 73
4
 74
0
 40
0
 40
0
 40
0
 40
0
 40
1
 40
1
 40
1
 40
1
 10
257.467329
 20
765.690752
 30
0.0
 10
254.720047
 20
772.717442
 30
0.0
 10
250.951329
 20
778.016132
 30
0.0
 10
248.700847
 20
778.016132
 30
0.0
  0
SPLINE
  5
1a1
100
AcDbEntity
  8
Layer_1
 62
7
100
AcDbSpline
 70
8
 71
3
 72
8
 73
4
 74
0
 40
0
 40
0
 40
0
 40
0
 40
1
 40
1
 40
1
 40
1
 10
248.700847
 20
778.016132
 30
0.0
 10
247.512421
 20
778.016132
 30
0.0
 10
246.777738
 20
776.977291
 30
0.0
 10
246.273511
 20
774.583773
 30
0.0
  0
SPLINE
  5
1a2
100
AcDbEntity
  8
Layer_1
 62
7
100
AcDbSpline
 70
8
 71
3
 72
8
 73
4
 74
0
 40
0
 40
0
 40
0
 40
0
 40
1
 40
1
 40
1
 40
1
 10
246.273511
 20
774.583773
 30
0.0
 10
245.894377
 20
772.784141
 30
0.0
 10
245.941631
 20
767.678066
 30
0.0
 10
246.367621
 20
764.413149
 30
0.0
  0
SPLINE
  5
1a3
100
AcDbEntity
  8
Layer_1
 62
7
100
AcDbSpline
 70
8
 71
3
 72
8
 73
4
 74
0
 40
0
 40
0
 40
0
 40
0
 40
1
 40
1
 40
1
 40
1
 10
246.367621
 20
764.413149
 30
0.0
 10
247.776327
 20
753.616891
 30
0.0
 10
251.681987
 20
742.346935
 30
0.0
 10
255.207010
 20
738.906497
 30
0.0
  0
SPLINE
  5
1a4
100
AcDbEntity
  8
Layer_1
 62
7
100
AcDbSpline
 70
8
 71
3
 72
8
 73
4
 74
0
 40
0
 40
0
 40
0
 40
0
 40
1
 40
1
 40
1
 40
1
 10
255.207010
 20
738.906497
 30
0.0
 10
256.393196
 20
737.748799
 30
0.0
 10
257.194267
 20
737.485404
 30
0.0
 10
258.101779
 20
737.954708
 30
0.0
  0
LWPOLYLINE
  5
1a5
100
AcDbEntity
  8
Layer_1
 62
7
100
AcDbPolyline
 90
1
 70
1
 10
218.031151
 20
705.855662
 30
0.0
  0
SPLINE
  5
1a6
100
AcDbEntity
  8
Layer_1
 62
7
100
AcDbSpline
 70
8
 71
3
 72
8
 73
4
 74
0
 40
0
 40
0
 40
0
 40
0
 40
1
 40
1
 40
1
 40
1
 10
158.138237
 20
739.378777
 30
0.0
 10
159.009143
 20
739.823080
 30
0.0
 10
160.524652
 20
741.566018
 30
0.0
 10
161.574528
 20
743.330755
 30
0.0
  0
SPLINE
  5
1a7
100
AcDbEntity
  8
Layer_1
 62
7
100
AcDbSpline
 70
8
 71
3
 72
8
 73
4
 74
0
 40
0
 40
0
 40
0
 40
0
 40
1
 40
1
 40
1
 40
1
 10
161.574528
 20
743.330755
 30
0.0
 10
167.424412
 20
753.163801
 30
0.0
 10
171.438106
 20
773.002777
 30
0.0
 10
168.582855
 20
777.971628
 30
0.0
  0
SPLINE
  5
1a8
100
AcDbEntity
  8
Layer_1
 62
7
100
AcDbSpline
 70
8
 71
3
 72
8
 73
4
 74
0
 40
0
 40
0
 40
0
 40
0
 40
1
 40
1
 40
1
 40
1
 10
168.582855
 20
777.971628
 30
0.0
 10
168.101986
 20
778.808472
 30
0.0
 10
167.696473
 20
779.068636
 30
0.0
 10
166.875650
 20
779.066850
 30
0.0
  0
SPLINE
  5
1a9
100
AcDbEntity
  8
Layer_1
 62
7
100
AcDbSpline
 70
8
 71
3
 72
8
 73
4
 74
0
 40
0
 40
0
 40
0
 40
0
 40
1
 40
1
 40
1
 40
1
 10
166.875650
 20
779.066850
 30
0.0
 10
165.754083
 20
779.064752
 30
0.0
 10
164.715752
 20
778.467464
 30
0.0
 10
163.269065
 20
776.993392
 30
0.0
  0
SPLINE
  5
1aa
100
AcDbEntity
  8
Layer_1
 62
7
100
AcDbSpline
 70
8
 71
3
 72
8
 73
4
 74
0
 40
0
 40
0
 40
0
 40
0
 40
1
 40
1
 40
1
 40
1
 10
163.269065
 20
776.993392
 30
0.0
 10
157.996843
 20
771.621369
 30
0.0
 10
154.095945
 20
759.574267
 30
0.0
 10
154.095330
 20
748.662270
 30
0.0
  0
SPLINE
  5
1ab
100
AcDbEntity
  8
Layer_1
 62
7
100
AcDbSpline
 70
8
 71
3
 72
8
 73
4
 74
0
 40
0
 40
0
 40
0
 40
0
 40
1
 40
1
 40
1
 40
1
 10
154.095330
 20
748.662270
 30
0.0
 10
154.095117
 20
745.034292
 30
0.0
 10
154.471796
 20
742.439174
 30
0.0
 10
155.250408
 20
740.704201
 30
0.0
  0
SPLINE
  5
1ac
100
AcDbEntity
  8
Layer_1
 62
7
100
AcDbSpline
 70
8
 71
3
 72
8
 73
4
 74
0
 40
0
 40
0
 40
0
 40
0
 40
1
 40
1
 40
1
 40
1
 10
155.250408
 20
740.704201
 30
0.0
 10
155.944774
 20
739.156938
 30
0.0
 10
156.870550
 20
738.732025
 30
0.0
 10
158.138237
 20
739.378777
 30
0.0
  0
LWPOLYLINE
  5
1ad
100
AcDbEntity
  8
Layer_1
 62
7
100
AcDbPolyline
 90
1
 70
1
 10
258.101779
 20
737.954708
 30
0.0
  0
SPLINE
  5
1ae
100
AcDbEntity
  8
Layer_1
 62
7
100
AcDbSpline
 70
8
 71
3
 72
8
 73
4
 74
0
 40
0
 40
0
 40
0
 40
0
 40
1
 40
1
 40
1
 40
1
 10
210.742631
 20
742.627366
 30
0.0
 10
213.901481
 20
743.091228
 30
0.0
 10
216.226006
 20
743.821744
 30
0.0
 10
219.104104
 20
745.255055
 30
0.0
  0
SPLINE
  5
1af
100
AcDbEntity
  8
Layer_1
 62
7
100
AcDbSpline
 70
8
 71
3
 72
8
 73
4
 74
0
 40
0
 40
0
 40
0
 40
0
 40
1
 40
1
 40
1
 40
1
 10
219.104104
 20
745.255055
 30
0.0
 10
224.452894
 20
747.918828
 30
0.0
 10
228.676238
 20
752.118242
 30
0.0
 10
231.266494
 20
757.348588
 30
0.0
  0
SPLINE
  5
1b0
100
AcDbEntity
  8
Layer_1
 62
7
100
AcDbSpline
 70
8
 71
3
 72
8
 73
4
 74
0
 40
0
 40
0
 40
0
 40
0
 40
1
 40
1
 40
1
 40
1
 10
231.266494
 20
757.348588
 30
0.0
 10
232.801121
 20
760.447338
 30
0.0
 10
233.549524
 20
762.885672
 30
0.0
 10
233.979284
 20
766.186985
 30
0.0
  0
SPLINE
  5
1b1
100
AcDbEntity
  8
Layer_1
 62
7
100
AcDbSpline
 70
8
 71
3
 72
8
 73
4
 74
0
 40
0
 40
0
 40
0
 40
0
 40
1
 40
1
 40
1
 40
1
 10
233.979284
 20
766.186985
 30
0.0
 10
234.984251
 20
773.906576
 30
0.0
 10
232.598075
 20
781.630815
 30
0.0
 10
227.338929
 20
787.682245
 30
0.0
  0
SPLINE
  5
1b2
100
AcDbEntity
  8
Layer_1
 62
7
100
AcDbSpline
 70
8
 71
3
 72
8
 73
4
 74
0
 40
0
 40
0
 40
0
 40
0
 40
1
 40
1
 40
1
 40
1
 10
227.338929
 20
787.682245
 30
0.0
 10
223.982541
 20
791.544280
 30
0.0
 10
218.905940
 20
794.648075
 30
0.0
 10
213.770775
 20
795.977637
 30
0.0
  0
SPLINE
  5
1b3
100
AcDbEntity
  8
Layer_1
 62
7
100
AcDbSpline
 70
8
 71
3
 72
8
 73
4
 74
0
 40
0
 40
0
 40
0
 40
0
 40
1
 40
1
 40
1
 40
1
 10
213.770775
 20
795.977637
 30
0.0
 10
210.890991
 20
796.723271
 30
0.0
 10
207.006732
 20
796.993464
 30
0.0
 10
203.976984
 20
796.658879
 30
0.0
  0
SPLINE
  5
1b4
100
AcDbEntity
  8
Layer_1
 62
7
100
AcDbSpline
 70
8
 71
3
 72
8
 73
4
 74
0
 40
0
 40
0
 40
0
 40
0
 40
1
 40
1
 40
1
 40
1
 10
203.976984
 20
796.658879
 30
0.0
 10
194.903643
 20
795.656925
 30
0.0
 10
186.789609
 20
790.030636
 30
0.0
 10
182.727743
 20
781.924569
 30
0.0
  0
SPLINE
  5
1b5
100
AcDbEntity
  8
Layer_1
 62
7
100
AcDbSpline
 70
8
 71
3
 72
8
 73
4
 74
0
 40
0
 40
0
 40
0
 40
0
 40
1
 40
1
 40
1
 40
1
 10
182.727743
 20
781.924569
 30
0.0
 10
180.534393
 20
777.547423
 30
0.0
 10
179.698717
 20
773.711240
 30
0.0
 10
179.846235
 20
768.696951
 30
0.0
  0
SPLINE
  5
1b6
100
AcDbEntity
  8
Layer_1
 62
7
100
AcDbSpline
 70
8
 71
3
 72
8
 73
4
 74
0
 40
0
 40
0
 40
0
 40
0
 40
1
 40
1
 40
1
 40
1
 10
179.846235
 20
768.696951
 30
0.0
 10
179.975211
 20
764.312803
 30
0.0
 10
180.749134
 20
761.273240
 30
0.0
 10
182.754859
 20
757.273442
 30
0.0
  0
SPLINE
  5
1b7
100
AcDbEntity
  8
Layer_1
 62
7
100
AcDbSpline
 70
8
 71
3
 72
8
 73
4
 74
0
 40
0
 40
0
 40
0
 40
0
 40
1
 40
1
 40
1
 40
1
 10
182.754859
 20
757.273442
 30
0.0
 10
186.718201
 20
749.369713
 30
0.0
 10
194.211051
 20
743.994913
 30
0.0
 10
203.171287
 20
742.628245
 30
0.0
  0
SPLINE
  5
1b8
100
AcDbEntity
  8
Layer_1
 62
7
100
AcDbSpline
 70
8
 71
3
 72
8
 73
4
 74
0
 40
0
 40
0
 40
0
 40
0
 40
1
 40
1
 40
1
 40
1
 10
203.171287
 20
742.628245
 30
0.0
 10
205.053245
 20
742.341180
 30
0.0
 10
208.790821
 20
742.340755
 30
0.0
 10
210.742631
 20
742.627338
 30
0.0
  0
LWPOLYLINE
  5
1b9
100
AcDbEntity
  8
Layer_1
 62
7
100
AcDbPolyline
 90
1
 70
1
 10
158.138237
 20
739.378777
 30
0.0
  0
SPLINE
  5
1ba
100
AcDbEntity
  8
Layer_1
 62
7
100
AcDbSpline
 70
8
 71
3
 72
8
 73
4
 74
0
 40
0
 40
0
 40
0
 40
0
 40
1
 40
1
 40
1
 40
1
 10
401.131106
 20
677.471553
 30
0.0
 10
401.630258
 20
678.030403
 30
0.0
 10
411.301304
 20
687.989364
 30
0.0
 10
422.622283
 20
699.602511
 30
0.0
  0
SPLINE
  5
1bb
100
AcDbEntity
  8
Layer_1
 62
7
100
AcDbSpline
 70
8
 71
3
 72
8
 73
4
 74
0
 40
0
 40
0
 40
0
 40
0
 40
1
 40
1
 40
1
 40
1
 10
422.622283
 20
699.602511
 30
0.0
 10
433.943263
 20
711.215714
 30
0.0
 10
443.224233
 20
720.794605
 30
0.0
 10
443.246627
 20
720.888999
 30
0.0
  0
SPLINE
  5
1bc
100
AcDbEntity
  8
Layer_1
 62
7
100
AcDbSpline
 70
8
 71
3
 72
8
 73
4
 74
0
 40
0
 40
0
 40
0
 40
0
 40
1
 40
1
 40
1
 40
1
 10
443.246627
 20
720.888999
 30
0.0
 10
443.269304
 20
720.983392
 30
0.0
 10
442.101912
 20
721.339481
 30
0.0
 10
440.653096
 20
721.680375
 30
0.0
  0
SPLINE
  5
1bd
100
AcDbEntity
  8
Layer_1
 62
7
100
AcDbSpline
 70
8
 71
3
 72
8
 73
4
 74
0
 40
0
 40
0
 40
0
 40
0
 40
1
 40
1
 40
1
 40
1
 10
440.653096
 20
721.680375
 30
0.0
 10
439.204280
 20
722.021270
 30
0.0
 10
436.394721
 20
722.682989
 30
0.0
 10
434.409647
 20
723.150876
 30
0.0
  0
LWPOLYLINE
  5
1be
100
AcDbEntity
  8
Layer_1
 62
7
100
AcDbPolyline
 90
1
 70
1
 10
210.742631
 20
742.627338
 30
0.0
  0
SPLINE
  5
1bf
100
AcDbEntity
  8
Layer_1
 62
7
100
AcDbSpline
 70
8
 71
3
 72
8
 73
4
 74
0
 40
0
 40
0
 40
0
 40
0
 40
1
 40
1
 40
1
 40
1
 10
468.254976
 20
776.777298
 30
0.0
 10
488.790425
 20
787.553969
 30
0.0
 10
507.396019
 20
797.311159
 30
0.0
 10
509.600778
 20
798.459928
 30
0.0
  0
LWPOLYLINE
  5
1c0
100
AcDbEntity
  8
Layer_1
 62
7
100
AcDbPolyline
 90
5
 70
0
 10
434.409647
 20
723.150876
 30
0.0
 10
430.800435
 20
724.001553
 30
0.0
 10
430.859112
 20
740.592451
 30
0.0
 10
430.917789
 20
757.183377
 30
0.0
 10
468.254976
 20
776.777298
 30
0.0
  0
SPLINE
  5
1c1
100
AcDbEntity
  8
Layer_1
 62
7
100
AcDbSpline
 70
8
 71
3
 72
8
 73
4
 74
0
 40
0
 40
0
 40
0
 40
0
 40
1
 40
1
 40
1
 40
1
 10
512.701824
 20
799.532501
 30
0.0
 10
512.202671
 20
798.973651
 30
0.0
 10
502.549682
 20
789.033229
 30
0.0
 10
491.250728
 20
777.442674
 30
0.0
  0
SPLINE
  5
1c2
100
AcDbEntity
  8
Layer_1
 62
7
100
AcDbSpline
 70
8
 71
3
 72
8
 73
4
 74
0
 40
0
 40
0
 40
0
 40
0
 40
1
 40
1
 40
1
 40
1
 10
491.250728
 20
777.442674
 30
0.0
 10
479.951802
 20
765.852120
 30
0.0
 10
470.691099
 20
756.268381
 30
0.0
 10
470.671427
 20
756.145528
 30
0.0
  0
SPLINE
  5
1c3
100
AcDbEntity
  8
Layer_1
 62
7
100
AcDbSpline
 70
8
 71
3
 72
8
 73
4
 74
0
 40
0
 40
0
 40
0
 40
0
 40
1
 40
1
 40
1
 40
1
 10
470.671427
 20
756.145528
 30
0.0
 10
470.651584
 20
756.022504
 30
0.0
 10
471.800778
 20
755.648019
 30
0.0
 10
473.224847
 20
755.312992
 30
0.0
  0
SPLINE
  5
1c4
100
AcDbEntity
  8
Layer_1
 62
7
100
AcDbSpline
 70
8
 71
3
 72
8
 73
4
 74
0
 40
0
 40
0
 40
0
 40
0
 40
1
 40
1
 40
1
 40
1
 10
473.224847
 20
755.312992
 30
0.0
 10
474.648888
 20
754.977994
 30
0.0
 10
477.438180
 20
754.321093
 30
0.0
 10
479.423282
 20
753.853235
 30
0.0
  0
LWPOLYLINE
  5
1c5
100
AcDbEntity
  8
Layer_1
 62
7
100
AcDbPolyline
 90
3
 70
0
 10
509.600778
 20
798.459928
 30
0.0
 10
513.609364
 20
800.548608
 30
0.0
 10
512.701824
 20
799.532501
 30
0.0
  0
SPLINE
  5
1c6
100
AcDbEntity
  8
Layer_1
 62
7
100
AcDbSpline
 70
8
 71
3
 72
8
 73
4
 74
0
 40
0
 40
0
 40
0
 40
0
 40
1
 40
1
 40
1
 40
1
 10
445.577953
 20
700.226785
 30
0.0
 10
425.042504
 20
689.450114
 30
0.0
 10
406.436882
 20
679.692923
 30
0.0
 10
404.232180
 20
678.544155
 30
0.0
  0
LWPOLYLINE
  5
1c7
100
AcDbEntity
  8
Layer_1
 62
7
100
AcDbPolyline
 90
5
 70
0
 10
479.423282
 20
753.853235
 30
0.0
 10
483.032494
 20
753.002558
 30
0.0
 10
482.973817
 20
736.411632
 30
0.0
 10
482.915140
 20
719.820734
 30
0.0
 10
445.577953
 20
700.226785
 30
0.0
  0
LWPOLYLINE
  5
1c8
100
AcDbEntity
  8
Layer_1
 62
7
100
AcDbPolyline
 90
3
 70
0
 10
404.232180
 20
678.544155
 30
0.0
 10
400.223565
 20
676.455474
 30
0.0
 10
401.131106
 20
677.471553
 30
0.0
  0
SPLINE
  5
1c9
100
AcDbEntity
  8
Layer_1
 62
7
100
AcDbSpline
 70
8
 71
3
 72
8
 73
4
 74
0
 40
0
 40
0
 40
0
 40
0
 40
1
 40
1
 40
1
 40
1
 10
465.570737
 20
748.349742
 30
0.0
 10
454.136287
 20
741.306243
 30
0.0
 10
453.010167
 20
740.648152
 30
0.0
 10
452.512800
 20
740.718734
 30
0.0
  0
SPLINE
  5
1ca
100
AcDbEntity
  8
Layer_1
 62
7
100
AcDbSpline
 70
8
 71
3
 72
8
 73
4
 74
0
 40
0
 40
0
 40
0
 40
0
 40
1
 40
1
 40
1
 40
1
 10
452.512800
 20
740.718734
 30
0.0
 10
452.142935
 20
740.771175
 30
0.0
 10
451.971241
 20
740.969317
 30
0.0
 10
451.921238
 20
741.401487
 30
0.0
  0
SPLINE
  5
1cb
100
AcDbEntity
  8
Layer_1
 62
7
100
AcDbSpline
 70
8
 71
3
 72
8
 73
4
 74
0
 40
0
 40
0
 40
0
 40
0
 40
1
 40
1
 40
1
 40
1
 10
451.921238
 20
741.401487
 30
0.0
 10
451.862844
 20
741.906252
 30
0.0
 10
452.410951
 20
742.627925
 30
0.0
 10
455.128101
 20
745.623777
 30
0.0
  0
SPLINE
  5
1cc
100
AcDbEntity
  8
Layer_1
 62
7
100
AcDbSpline
 70
8
 71
3
 72
8
 73
4
 74
0
 40
0
 40
0
 40
0
 40
0
 40
1
 40
1
 40
1
 40
1
 10
455.128101
 20
745.623777
 30
0.0
 10
456.930624
 20
747.611175
 30
0.0
 10
464.744721
 20
756.206473
 30
0.0
 10
472.492772
 20
764.724413
 30
0.0
  0
SPLINE
  5
1cd
100
AcDbEntity
  8
Layer_1
 62
7
100
AcDbSpline
 70
8
 71
3
 72
8
 73
4
 74
0
 40
0
 40
0
 40
0
 40
0
 40
1
 40
1
 40
1
 40
1
 10
472.492772
 20
764.724413
 30
0.0
 10
480.240794
 20
773.242325
 30
0.0
 10
486.734740
 20
780.409103
 30
0.0
 10
486.923726
 20
780.650558
 30
0.0
  0
SPLINE
  5
1ce
100
AcDbEntity
  8
Layer_1
 62
7
100
AcDbSpline
 70
8
 71
3
 72
8
 73
4
 74
0
 40
0
 40
0
 40
0
 40
0
 40
1
 40
1
 40
1
 40
1
 10
486.923726
 20
780.650558
 30
0.0
 10
487.208183
 20
781.014016
 30
0.0
 10
487.090120
 20
780.988986
 30
0.0
 10
486.236523
 20
780.504857
 30
0.0
  0
SPLINE
  5
1cf
100
AcDbEntity
  8
Layer_1
 62
7
100
AcDbSpline
 70
8
 71
3
 72
8
 73
4
 74
0
 40
0
 40
0
 40
0
 40
0
 40
1
 40
1
 40
1
 40
1
 10
486.236523
 20
780.504857
 30
0.0
 10
485.669594
 20
780.183323
 30
0.0
 10
474.099080
 20
773.757408
 30
0.0
 10
460.524246
 20
766.224989
 30
0.0
  0
LWPOLYLINE
  5
1d0
100
AcDbEntity
  8
Layer_1
 62
7
100
AcDbPolyline
 90
5
 70
0
 10
477.935008
 20
736.364718
 30
0.0
 10
477.994252
 20
748.361988
 30
0.0
 10
473.303594
 20
749.292857
 30
0.0
 10
468.612935
 20
750.223726
 30
0.0
 10
465.570737
 20
748.349742
 30
0.0
  0
SPLINE
  5
1d1
100
AcDbEntity
  8
Layer_1
 62
7
100
AcDbSpline
 70
8
 71
3
 72
8
 73
4
 74
0
 40
0
 40
0
 40
0
 40
0
 40
1
 40
1
 40
1
 40
1
 10
441.283011
 20
727.740139
 30
0.0
 10
444.275121
 20
727.246655
 30
0.0
 10
446.877865
 20
726.842633
 30
0.0
 10
447.066822
 20
726.842350
 30
0.0
  0
SPLINE
  5
1d2
100
AcDbEntity
  8
Layer_1
 62
7
100
AcDbSpline
 70
8
 71
3
 72
8
 73
4
 74
0
 40
0
 40
0
 40
0
 40
0
 40
1
 40
1
 40
1
 40
1
 10
447.066822
 20
726.842350
 30
0.0
 10
447.255893
 20
726.842123
 30
0.0
 10
450.373068
 20
728.931484
 30
0.0
 10
453.994044
 20
731.485528
 30
0.0
  0
SPLINE
  5
1d3
100
AcDbEntity
  8
Layer_1
 62
7
100
AcDbSpline
 70
8
 71
3
 72
8
 73
4
 74
0
 40
0
 40
0
 40
0
 40
0
 40
1
 40
1
 40
1
 40
1
 10
453.994044
 20
731.485528
 30
0.0
 10
460.893827
 20
736.352189
 30
0.0
 10
461.532529
 20
736.674092
 30
0.0
 10
461.683928
 20
735.361282
 30
0.0
  0
SPLINE
  5
1d4
100
AcDbEntity
  8
Layer_1
 62
7
100
AcDbSpline
 70
8
 71
3
 72
8
 73
4
 74
0
 40
0
 40
0
 40
0
 40
0
 40
1
 40
1
 40
1
 40
1
 10
461.683928
 20
735.361282
 30
0.0
 10
461.746006
 20
734.822048
 30
0.0
 10
459.469389
 20
732.228177
 30
0.0
 10
444.389698
 20
715.658000
 30
0.0
  0
SPLINE
  5
1d5
100
AcDbEntity
  8
Layer_1
 62
7
100
AcDbSpline
 70
8
 71
3
 72
8
 73
4
 74
0
 40
0
 40
0
 40
0
 40
0
 40
1
 40
1
 40
1
 40
1
 10
444.389698
 20
715.658000
 30
0.0
 10
434.838501
 20
705.162753
 30
0.0
 10
426.887405
 20
696.403103
 30
0.0
 10
426.720614
 20
696.192177
 30
0.0
  0
SPLINE
  5
1d6
100
AcDbEntity
  8
Layer_1
 62
7
100
AcDbSpline
 70
8
 71
3
 72
8
 73
4
 74
0
 40
0
 40
0
 40
0
 40
0
 40
1
 40
1
 40
1
 40
1
 10
426.720614
 20
696.192177
 30
0.0
 10
426.553937
 20
695.980996
 30
0.0
 10
437.995502
 20
702.234337
 30
0.0
 10
452.146535
 20
710.088007
 30
0.0
  0
LWPOLYLINE
  5
1d7
100
AcDbEntity
  8
Layer_1
 62
7
100
AcDbPolyline
 90
5
 70
0
 10
460.524246
 20
766.224989
 30
0.0
 10
435.842759
 20
752.529767
 30
0.0
 10
435.842759
 20
740.583578
 30
0.0
 10
435.842759
 20
728.637418
 30
0.0
 10
441.283011
 20
727.740139
 30
0.0
  0
SPLINE
  5
1d8
100
AcDbEntity
  8
Layer_1
 62
7
100
AcDbSpline
 70
8
 71
3
 72
8
 73
4
 74
0
 40
0
 40
0
 40
0
 40
0
 40
1
 40
1
 40
1
 40
1
 10
452.335294
 20
693.071317
 30
0.0
 10
449.846702
 20
693.305742
 30
0.0
 10
445.401921
 20
694.176205
 30
0.0
 10
443.083946
 20
694.883137
 30
0.0
  0
LWPOLYLINE
  5
1d9
100
AcDbEntity
  8
Layer_1
 62
7
100
AcDbPolyline
 90
3
 70
0
 10
452.146535
 20
710.088007
 30
0.0
 10
477.875735
 20
724.367392
 30
0.0
 10
477.935008
 20
736.364718
 30
0.0
  0
SPLINE
  5
1da
100
AcDbEntity
  8
Layer_1
 62
7
100
AcDbSpline
 70
8
 71
3
 72
8
 73
4
 74
0
 40
0
 40
0
 40
0
 40
0
 40
1
 40
1
 40
1
 40
1
 10
442.854907
 20
696.105862
 30
0.0
 10
443.596677
 20
696.513711
 30
0.0
 10
453.304091
 20
701.619531
 30
0.0
 10
464.426929
 20
707.452155
 30
0.0
  0
SPLINE
  5
1db
100
AcDbEntity
  8
Layer_1
 62
7
100
AcDbSpline
 70
8
 71
3
 72
8
 73
4
 74
0
 40
0
 40
0
 40
0
 40
0
 40
1
 40
1
 40
1
 40
1
 10
464.426929
 20
707.452155
 30
0.0
 10
481.103235
 20
716.196866
 30
0.0
 10
484.709017
 20
718.170489
 30
0.0
 10
484.985282
 20
718.704706
 30
0.0
  0
SPLINE
  5
1dc
100
AcDbEntity
  8
Layer_1
 62
7
100
AcDbSpline
 70
8
 71
3
 72
8
 73
4
 74
0
 40
0
 40
0
 40
0
 40
0
 40
1
 40
1
 40
1
 40
1
 10
484.985282
 20
718.704706
 30
0.0
 10
485.487439
 20
719.675799
 30
0.0
 10
485.487666
 20
753.204753
 30
0.0
 10
484.985509
 20
754.175789
 30
0.0
  0
SPLINE
  5
1dd
100
AcDbEntity
  8
Layer_1
 62
7
100
AcDbSpline
 70
8
 71
3
 72
8
 73
4
 74
0
 40
0
 40
0
 40
0
 40
0
 40
1
 40
1
 40
1
 40
1
 10
484.985509
 20
754.175789
 30
0.0
 10
484.550249
 20
755.017481
 30
0.0
 10
483.745748
 20
755.319087
 30
0.0
 10
479.078334
 20
756.390271
 30
0.0
  0
SPLINE
  5
1de
100
AcDbEntity
  8
Layer_1
 62
7
100
AcDbSpline
 70
8
 71
3
 72
8
 73
4
 74
0
 40
0
 40
0
 40
0
 40
0
 40
1
 40
1
 40
1
 40
1
 10
479.078334
 20
756.390271
 30
0.0
 10
476.968110
 20
756.874570
 30
0.0
 10
475.241613
 20
757.325591
 30
0.0
 10
475.241669
 20
757.392545
 30
0.0
  0
SPLINE
  5
1df
100
AcDbEntity
  8
Layer_1
 62
7
100
AcDbSpline
 70
8
 71
3
 72
8
 73
4
 74
0
 40
0
 40
0
 40
0
 40
0
 40
1
 40
1
 40
1
 40
1
 10
475.241669
 20
757.392545
 30
0.0
 10
475.241839
 20
757.561490
 30
0.0
 10
488.774778
 20
771.467610
 30
0.0
 10
489.038060
 20
771.569515
 30
0.0
  0
SPLINE
  5
1e0
100
AcDbEntity
  8
Layer_1
 62
7
100
AcDbSpline
 70
8
 71
3
 72
8
 73
4
 74
0
 40
0
 40
0
 40
0
 40
0
 40
1
 40
1
 40
1
 40
1
 10
489.038060
 20
771.569515
 30
0.0
 10
489.338759
 20
771.685736
 30
0.0
 10
490.332387
 20
770.707811
 30
0.0
 10
492.709209
 20
767.955682
 30
0.0
  0
SPLINE
  5
1e1
100
AcDbEntity
  8
Layer_1
 62
7
100
AcDbSpline
 70
8
 71
3
 72
8
 73
4
 74
0
 40
0
 40
0
 40
0
 40
0
 40
1
 40
1
 40
1
 40
1
 10
492.709209
 20
767.955682
 30
0.0
 10
509.806091
 20
748.158942
 30
0.0
 10
506.797767
 20
718.876542
 30
0.0
 10
486.007483
 20
702.722690
 30
0.0
  0
SPLINE
  5
1e2
100
AcDbEntity
  8
Layer_1
 62
7
100
AcDbSpline
 70
8
 71
3
 72
8
 73
4
 74
0
 40
0
 40
0
 40
0
 40
0
 40
1
 40
1
 40
1
 40
1
 10
486.007483
 20
702.722690
 30
0.0
 10
476.693376
 20
695.485726
 30
0.0
 10
464.328624
 20
691.941654
 30
0.0
 10
452.335294
 20
693.071317
 30
0.0
  0
LWPOLYLINE
  5
1e3
100
AcDbEntity
  8
Layer_1
 62
7
100
AcDbPolyline
 90
3
 70
0
 10
443.083946
 20
694.883137
 30
0.0
 10
441.506211
 20
695.364347
 30
0.0
 10
442.854907
 20
696.105862
 30
0.0
  0
SPLINE
  5
1e4
100
AcDbEntity
  8
Layer_1
 62
7
100
AcDbSpline
 70
8
 71
3
 72
8
 73
4
 74
0
 40
0
 40
0
 40
0
 40
0
 40
1
 40
1
 40
1
 40
1
 10
423.220876
 20
706.713616
 30
0.0
 10
419.598000
 20
710.455944
 30
0.0
 10
416.689483
 20
714.578227
 30
0.0
 10
414.529682
 20
719.031739
 30
0.0
  0
SPLINE
  5
1e5
100
AcDbEntity
  8
Layer_1
 62
7
100
AcDbSpline
 70
8
 71
3
 72
8
 73
4
 74
0
 40
0
 40
0
 40
0
 40
0
 40
1
 40
1
 40
1
 40
1
 10
414.529682
 20
719.031739
 30
0.0
 10
405.215348
 20
738.237881
 30
0.0
 10
410.684088
 20
760.962555
 30
0.0
 10
427.825616
 20
774.281364
 30
0.0
  0
SPLINE
  5
1e6
100
AcDbEntity
  8
Layer_1
 62
7
100
AcDbSpline
 70
8
 71
3
 72
8
 73
4
 74
0
 40
0
 40
0
 40
0
 40
0
 40
1
 40
1
 40
1
 40
1
 10
427.825616
 20
774.281364
 30
0.0
 10
436.811216
 20
781.263096
 30
0.0
 10
449.012523
 20
784.917181
 30
0.0
 10
460.295206
 20
784.005418
 30
0.0
  0
SPLINE
  5
1e7
100
AcDbEntity
  8
Layer_1
 62
7
100
AcDbSpline
 70
8
 71
3
 72
8
 73
4
 74
0
 40
0
 40
0
 40
0
 40
0
 40
1
 40
1
 40
1
 40
1
 10
460.295206
 20
784.005418
 30
0.0
 10
463.815865
 20
783.720904
 30
0.0
 10
467.742557
 20
783.015900
 30
0.0
 10
470.635994
 20
782.148838
 30
0.0
  0
LWPOLYLINE
  5
1e8
100
AcDbEntity
  8
Layer_1
 62
7
100
AcDbPolyline
 90
1
 70
1
 10
452.335294
 20
693.071317
 30
0.0
  0
SPLINE
  5
1e9
100
AcDbEntity
  8
Layer_1
 62
7
100
AcDbSpline
 70
8
 71
3
 72
8
 73
4
 74
0
 40
0
 40
0
 40
0
 40
0
 40
1
 40
1
 40
1
 40
1
 10
470.979581
 20
780.898986
 30
0.0
 10
470.237046
 20
780.490712
 30
0.0
 10
460.529008
 20
775.384552
 30
0.0
 10
449.406170
 20
769.551956
 30
0.0
  0
SPLINE
  5
1ea
100
AcDbEntity
  8
Layer_1
 62
7
100
AcDbSpline
 70
8
 71
3
 72
8
 73
4
 74
0
 40
0
 40
0
 40
0
 40
0
 40
1
 40
1
 40
1
 40
1
 10
449.406170
 20
769.551956
 30
0.0
 10
432.729836
 20
760.807188
 30
0.0
 10
429.124054
 20
758.833566
 30
0.0
 10
428.847817
 20
758.299377
 30
0.0
  0
SPLINE
  5
1eb
100
AcDbEntity
  8
Layer_1
 62
7
100
AcDbSpline
 70
8
 71
3
 72
8
 73
4
 74
0
 40
0
 40
0
 40
0
 40
0
 40
1
 40
1
 40
1
 40
1
 10
428.847817
 20
758.299377
 30
0.0
 10
428.345632
 20
757.328255
 30
0.0
 10
428.345433
 20
723.799329
 30
0.0
 10
428.847591
 20
722.828265
 30
0.0
  0
SPLINE
  5
1ec
100
AcDbEntity
  8
Layer_1
 62
7
100
AcDbSpline
 70
8
 71
3
 72
8
 73
4
 74
0
 40
0
 40
0
 40
0
 40
0
 40
1
 40
1
 40
1
 40
1
 10
428.847591
 20
722.828265
 30
0.0
 10
429.282822
 20
721.986602
 30
0.0
 10
430.087351
 20
721.684996
 30
0.0
 10
434.754737
 20
720.613811
 30
0.0
  0
SPLINE
  5
1ed
100
AcDbEntity
  8
Layer_1
 62
7
100
AcDbSpline
 70
8
 71
3
 72
8
 73
4
 74
0
 40
0
 40
0
 40
0
 40
0
 40
1
 40
1
 40
1
 40
1
 10
434.754737
 20
720.613811
 30
0.0
 10
436.864989
 20
720.129484
 30
0.0
 10
438.591487
 20
719.678463
 30
0.0
 10
438.591430
 20
719.611537
 30
0.0
  0
SPLINE
  5
1ee
100
AcDbEntity
  8
Layer_1
 62
7
100
AcDbSpline
 70
8
 71
3
 72
8
 73
4
 74
0
 40
0
 40
0
 40
0
 40
0
 40
1
 40
1
 40
1
 40
1
 10
438.591430
 20
719.611537
 30
0.0
 10
438.591203
 20
719.404608
 30
0.0
 10
425.021159
 20
705.520967
 30
0.0
 10
424.753569
 20
705.453758
 30
0.0
  0
SPLINE
  5
1ef
100
AcDbEntity
  8
Layer_1
 62
7
100
AcDbSpline
 70
8
 71
3
 72
8
 73
4
 74
0
 40
0
 40
0
 40
0
 40
0
 40
1
 40
1
 40
1
 40
1
 10
424.753569
 20
705.453758
 30
0.0
 10
424.614954
 20
705.418892
 30
0.0
 10
423.925342
 20
705.985906
 30
0.0
 10
423.220876
 20
706.713616
 30
0.0
  0
LWPOLYLINE
  5
1f0
100
AcDbEntity
  8
Layer_1
 62
7
100
AcDbPolyline
 90
3
 70
0
 10
470.635994
 20
782.148838
 30
0.0
 10
472.329666
 20
781.641295
 30
0.0
 10
470.979581
 20
780.898986
 30
0.0
  0
SPLINE
  5
1f1
100
AcDbEntity
  8
Layer_1
 62
7
100
AcDbSpline
 70
8
 71
3
 72
8
 73
4
 74
0
 40
0
 40
0
 40
0
 40
0
 40
1
 40
1
 40
1
 40
1
 10
274.749599
 20
696.291902
 30
0.0
 10
280.611193
 20
705.776173
 30
0.0
 10
302.896545
 20
741.264633
 30
0.0
 10
303.016734
 20
741.306132
 30
0.0
  0
SPLINE
  5
1f2
100
AcDbEntity
  8
Layer_1
 62
7
100
AcDbSpline
 70
8
 71
3
 72
8
 73
4
 74
0
 40
0
 40
0
 40
0
 40
0
 40
1
 40
1
 40
1
 40
1
 10
303.016734
 20
741.306132
 30
0.0
 10
303.111411
 20
741.338731
 30
0.0
 10
309.520913
 20
731.233786
 30
0.0
 10
317.259836
 20
718.850409
 30
0.0
  0
SPLINE
  5
1f3
100
AcDbEntity
  8
Layer_1
 62
7
100
AcDbSpline
 70
8
 71
3
 72
8
 73
4
 74
0
 40
0
 40
0
 40
0
 40
0
 40
1
 40
1
 40
1
 40
1
 10
317.259836
 20
718.850409
 30
0.0
 10
324.998759
 20
706.467033
 30
0.0
 10
331.380907
 20
696.335216
 30
0.0
 10
331.442391
 20
696.335216
 30
0.0
  0
SPLINE
  5
1f4
100
AcDbEntity
  8
Layer_1
 62
7
100
AcDbSpline
 70
8
 71
3
 72
8
 73
4
 74
0
 40
0
 40
0
 40
0
 40
0
 40
1
 40
1
 40
1
 40
1
 10
331.442391
 20
696.335216
 30
0.0
 10
331.503902
 20
696.335216
 30
0.0
 10
337.886050
 20
706.467033
 30
0.0
 10
345.624973
 20
718.850409
 30
0.0
  0
SPLINE
  5
1f5
100
AcDbEntity
  8
Layer_1
 62
7
100
AcDbSpline
 70
8
 71
3
 72
8
 73
4
 74
0
 40
0
 40
0
 40
0
 40
0
 40
1
 40
1
 40
1
 40
1
 10
345.624973
 20
718.850409
 30
0.0
 10
353.363896
 20
731.233786
 30
0.0
 10
359.773285
 20
741.338844
 30
0.0
 10
359.868076
 20
741.306132
 30
0.0
  0
SPLINE
  5
1f6
100
AcDbEntity
  8
Layer_1
 62
7
100
AcDbSpline
 70
8
 71
3
 72
8
 73
4
 74
0
 40
0
 40
0
 40
0
 40
0
 40
1
 40
1
 40
1
 40
1
 10
359.868076
 20
741.306132
 30
0.0
 10
359.988265
 20
741.264746
 30
0.0
 10
382.273597
 20
705.776173
 30
0.0
 10
388.135219
 20
696.291902
 30
0.0
  0
SPLINE
  5
1f7
100
AcDbEntity
  8
Layer_1
 62
7
100
AcDbSpline
 70
8
 71
3
 72
8
 73
4
 74
0
 40
0
 40
0
 40
0
 40
0
 40
1
 40
1
 40
1
 40
1
 10
388.135219
 20
696.291902
 30
0.0
 10
388.195880
 20
696.193824
 30
0.0
 10
362.684126
 20
696.113320
 30
0.0
 10
331.442391
 20
696.113320
 30
0.0
  0
SPLINE
  5
1f8
100
AcDbEntity
  8
Layer_1
 62
7
100
AcDbSpline
 70
8
 71
3
 72
8
 73
4
 74
0
 40
0
 40
0
 40
0
 40
0
 40
1
 40
1
 40
1
 40
1
 10
331.442391
 20
696.113320
 30
0.0
 10
300.200683
 20
696.113320
 30
0.0
 10
274.688938
 20
696.193540
 30
0.0
 10
274.749599
 20
696.291902
 30
0.0
  0
LWPOLYLINE
  5
1f9
100
AcDbEntity
  8
Layer_1
 62
7
100
AcDbPolyline
 90
1
 70
1
 10
423.220876
 20
706.713616
 30
0.0
  0
SPLINE
  5
1fa
100
AcDbEntity
  8
Layer_1
 62
7
100
AcDbSpline
 70
8
 71
3
 72
8
 73
4
 74
0
 40
0
 40
0
 40
0
 40
0
 40
1
 40
1
 40
1
 40
1
 10
303.997465
 20
743.089408
 30
0.0
 10
317.426995
 20
764.626110
 30
0.0
 10
331.356728
 20
786.823427
 30
0.0
 10
331.442391
 20
786.823427
 30
0.0
  0
SPLINE
  5
1fb
100
AcDbEntity
  8
Layer_1
 62
7
100
AcDbSpline
 70
8
 71
3
 72
8
 73
4
 74
0
 40
0
 40
0
 40
0
 40
0
 40
1
 40
1
 40
1
 40
1
 10
331.442391
 20
786.823427
 30
0.0
 10
331.527997
 20
786.823427
 30
0.0
 10
345.457814
 20
764.626110
 30
0.0
 10
358.887345
 20
743.089408
 30
0.0
  0
LWPOLYLINE
  5
1fc
100
AcDbEntity
  8
Layer_1
 62
7
100
AcDbPolyline
 90
1
 70
1
 10
274.749599
 20
696.291902
 30
0.0
  0
SPLINE
  5
1fd
100
AcDbEntity
  8
Layer_1
 62
7
100
AcDbSpline
 70
8
 71
3
 72
8
 73
4
 74
0
 40
0
 40
0
 40
0
 40
0
 40
1
 40
1
 40
1
 40
1
 10
29.551783
 20
619.238037
 30
0.0
 10
30.074826
 20
633.104742
 30
0.0
 10
37.102266
 20
645.894245
 30
0.0
 10
49.948963
 20
654.345606
 30
0.0
  0
SPLINE
  5
1fe
100
AcDbEntity
  8
Layer_1
 62
7
100
AcDbSpline
 70
8
 71
3
 72
8
 73
4
 74
0
 40
0
 40
0
 40
0
 40
0
 40
1
 40
1
 40
1
 40
1
 10
49.948963
 20
654.345606
 30
0.0
 10
49.986895
 20
654.331382
 30
0.0
 10
50.319686
 20
654.452586
 30
0.0
 10
50.167663
 20
654.164838
 30
0.0
  0
SPLINE
  5
1ff
100
AcDbEntity
  8
Layer_1
 62
7
100
AcDbSpline
 70
8
 71
3
 72
8
 73
4
 74
0
 40
0
 40
0
 40
0
 40
0
 40
1
 40
1
 40
1
 40
1
 10
50.167663
 20
654.164838
 30
0.0
 10
49.150027
 20
653.221287
 30
0.0
 10
30.854500
 20
631.609107
 30
0.0
 10
47.694990
 20
614.549916
 30
0.0
  0
SPLINE
  5
200
100
AcDbEntity
  8
Layer_1
 62
7
100
AcDbSpline
 70
8
 71
3
 72
8
 73
4
 74
0
 40
0
 40
0
 40
0
 40
0
 40
1
 40
1
 40
1
 40
1
 10
47.694990
 20
614.549916
 30
0.0
 10
47.694990
 20
614.549916
 30
0.0
 10
56.543153
 20
606.043732
 30
0.0
 10
63.404346
 20
614.114887
 30
0.0
  0
SPLINE
  5
201
100
AcDbEntity
  8
Layer_1
 62
7
100
AcDbSpline
 70
8
 71
3
 72
8
 73
4
 74
0
 40
0
 40
0
 40
0
 40
0
 40
1
 40
1
 40
1
 40
1
 10
63.404346
 20
614.114887
 30
0.0
 10
63.404346
 20
614.114887
 30
0.0
 10
70.174858
 20
622.879777
 30
0.0
 10
63.318703
 20
636.166541
 30
0.0
  0
SPLINE
  5
202
100
AcDbEntity
  8
Layer_1
 62
7
100
AcDbSpline
 70
8
 71
3
 72
8
 73
4
 74
0
 40
0
 40
0
 40
0
 40
0
 40
1
 40
1
 40
1
 40
1
 10
63.318703
 20
636.166541
 30
0.0
 10
63.318703
 20
636.166541
 30
0.0
 10
61.583328
 20
640.504980
 30
0.0
 10
55.330820
 20
643.196056
 30
0.0
  0
LWPOLYLINE
  5
203
100
AcDbEntity
  8
Layer_1
 62
7
100
AcDbPolyline
 90
5
 70
0
 10
358.887345
 20
743.089408
 30
0.0
 10
359.828957
 20
741.579307
 30
0.0
 10
331.442391
 20
741.579307
 30
0.0
 10
303.055824
 20
741.579307
 30
0.0
 10
303.997465
 20
743.089408
 30
0.0
  0
SPLINE
  5
204
100
AcDbEntity
  8
Layer_1
 62
7
100
AcDbSpline
 70
8
 71
3
 72
8
 73
4
 74
0
 40
0
 40
0
 40
0
 40
0
 40
1
 40
1
 40
1
 40
1
 10
60.366254
 20
648.751866
 30
0.0
 10
60.366254
 20
648.751866
 30
0.0
 10
64.621420
 20
646.926106
 30
0.0
 10
67.916440
 20
641.974241
 30
0.0
  0
SPLINE
  5
205
100
AcDbEntity
  8
Layer_1
 62
7
100
AcDbSpline
 70
8
 71
3
 72
8
 73
4
 74
0
 40
0
 40
0
 40
0
 40
0
 40
1
 40
1
 40
1
 40
1
 10
67.916440
 20
641.974241
 30
0.0
 10
67.916440
 20
641.974241
 30
0.0
 10
68.092171
 20
647.187775
 30
0.0
 10
64.098377
 20
652.743288
 30
0.0
  0
LWPOLYLINE
  5
206
100
AcDbEntity
  8
Layer_1
 62
7
100
AcDbPolyline
 90
2
 70
0
 10
55.330820
 20
643.196056
 30
0.0
 10
60.366254
 20
648.751866
 30
0.0
  0
SPLINE
  5
207
100
AcDbEntity
  8
Layer_1
 62
7
100
AcDbSpline
 70
8
 71
3
 72
8
 73
4
 74
0
 40
0
 40
0
 40
0
 40
0
 40
1
 40
1
 40
1
 40
1
 10
79.634077
 20
652.826560
 30
0.0
 10
79.634077
 20
652.826560
 30
0.0
 10
76.080054
 20
647.791423
 30
0.0
 10
75.818385
 20
641.890969
 30
0.0
  0
SPLINE
  5
208
100
AcDbEntity
  8
Layer_1
 62
7
100
AcDbSpline
 70
8
 71
3
 72
8
 73
4
 74
0
 40
0
 40
0
 40
0
 40
0
 40
1
 40
1
 40
1
 40
1
 10
75.818385
 20
641.890969
 30
0.0
 10
75.818385
 20
641.890969
 30
0.0
 10
78.245717
 20
645.884762
 30
0.0
 10
83.456881
 20
648.751569
 30
0.0
  0
LWPOLYLINE
  5
209
100
AcDbEntity
  8
Layer_1
 62
7
100
AcDbPolyline
 90
3
 70
0
 10
64.098377
 20
652.743288
 30
0.0
 10
71.905492
 20
661.600933
 30
0.0
 10
79.634077
 20
652.826560
 30
0.0
  0
SPLINE
  5
20a
100
AcDbEntity
  8
Layer_1
 62
7
100
AcDbSpline
 70
8
 71
3
 72
8
 73
4
 74
0
 40
0
 40
0
 40
0
 40
0
 40
1
 40
1
 40
1
 40
1
 10
88.401634
 20
643.195760
 30
0.0
 10
88.401634
 20
643.195760
 30
0.0
 10
83.646836
 20
641.629003
 30
0.0
 10
80.461462
 20
636.223143
 30
0.0
  0
SPLINE
  5
20b
100
AcDbEntity
  8
Layer_1
 62
7
100
AcDbSpline
 70
8
 71
3
 72
8
 73
4
 74
0
 40
0
 40
0
 40
0
 40
0
 40
1
 40
1
 40
1
 40
1
 10
80.461462
 20
636.223143
 30
0.0
 10
77.722675
 20
631.214380
 30
0.0
 10
75.614205
 20
620.502230
 30
0.0
 10
80.584740
 20
613.931452
 30
0.0
  0
SPLINE
  5
20c
100
AcDbEntity
  8
Layer_1
 62
7
100
AcDbSpline
 70
8
 71
3
 72
8
 73
4
 74
0
 40
0
 40
0
 40
0
 40
0
 40
1
 40
1
 40
1
 40
1
 10
80.584740
 20
613.931452
 30
0.0
 10
80.584740
 20
613.931452
 30
0.0
 10
86.147661
 20
606.043435
 30
0.0
 10
95.932855
 20
614.397004
 30
0.0
  0
SPLINE
  5
20d
100
AcDbEntity
  8
Layer_1
 62
7
100
AcDbSpline
 70
8
 71
3
 72
8
 73
4
 74
0
 40
0
 40
0
 40
0
 40
0
 40
1
 40
1
 40
1
 40
1
 10
95.932855
 20
614.397004
 30
0.0
 10
95.932855
 20
614.397004
 30
0.0
 10
113.924336
 20
630.517681
 30
0.0
 10
94.087833
 20
653.824638
 30
0.0
  0
SPLINE
  5
20e
100
AcDbEntity
  8
Layer_1
 62
7
100
AcDbSpline
 70
8
 71
3
 72
8
 73
4
 74
0
 40
0
 40
0
 40
0
 40
0
 40
1
 40
1
 40
1
 40
1
 10
94.087833
 20
653.824638
 30
0.0
 10
94.087833
 20
653.824638
 30
0.0
 10
93.003817
 20
654.782710
 30
0.0
 10
94.220891
 20
654.262038
 30
0.0
  0
SPLINE
  5
20f
100
AcDbEntity
  8
Layer_1
 62
7
100
AcDbSpline
 70
8
 71
3
 72
8
 73
4
 74
0
 40
0
 40
0
 40
0
 40
0
 40
1
 40
1
 40
1
 40
1
 10
94.220891
 20
654.262038
 30
0.0
 10
102.988448
 20
647.878844
 30
0.0
 10
113.486640
 20
639.460969
 30
0.0
 10
114.570657
 20
618.453029
 30
0.0
  0
SPLINE
  5
210
100
AcDbEntity
  8
Layer_1
 62
7
100
AcDbSpline
 70
8
 71
3
 72
8
 73
4
 74
0
 40
0
 40
0
 40
0
 40
0
 40
1
 40
1
 40
1
 40
1
 10
114.570657
 20
618.453029
 30
0.0
 10
114.142740
 20
592.977742
 30
0.0
 10
97.082956
 20
574.791861
 30
0.0
 10
72.171903
 20
574.791861
 30
0.0
  0
SPLINE
  5
211
100
AcDbEntity
  8
Layer_1
 62
7
100
AcDbSpline
 70
8
 71
3
 72
8
 73
4
 74
0
 40
0
 40
0
 40
0
 40
0
 40
1
 40
1
 40
1
 40
1
 10
72.171903
 20
574.791861
 30
0.0
 10
47.780929
 20
574.792158
 30
0.0
 10
28.819820
 20
595.146369
 30
0.0
 10
29.551783
 20
619.238037
 30
0.0
  0
SPLINE
  5
212
100
AcDbEntity
  8
Layer_1
 62
7
100
AcDbSpline
 70
8
 71
3
 72
8
 73
4
 74
0
 40
0
 40
0
 40
0
 40
0
 40
1
 40
1
 40
1
 40
1
 10
137.500811
 20
617.648782
 30
0.0
 10
138.023854
 20
631.515486
 30
0.0
 10
145.051294
 20
644.304990
 30
0.0
 10
157.897992
 20
652.756351
 30
0.0
  0
SPLINE
  5
213
100
AcDbEntity
  8
Layer_1
 62
7
100
AcDbSpline
 70
8
 71
3
 72
8
 73
4
 74
0
 40
0
 40
0
 40
0
 40
0
 40
1
 40
1
 40
1
 40
1
 10
157.897992
 20
652.756351
 30
0.0
 10
157.935923
 20
652.742127
 30
0.0
 10
158.268715
 20
652.863330
 30
0.0
 10
158.116692
 20
652.575583
 30
0.0
  0
SPLINE
  5
214
100
AcDbEntity
  8
Layer_1
 62
7
100
AcDbSpline
 70
8
 71
3
 72
8
 73
4
 74
0
 40
0
 40
0
 40
0
 40
0
 40
1
 40
1
 40
1
 40
1
 10
158.116692
 20
652.575583
 30
0.0
 10
157.099055
 20
651.632032
 30
0.0
 10
138.803528
 20
630.019851
 30
0.0
 10
155.644019
 20
612.960661
 30
0.0
  0
SPLINE
  5
215
100
AcDbEntity
  8
Layer_1
 62
7
100
AcDbSpline
 70
8
 71
3
 72
8
 73
4
 74
0
 40
0
 40
0
 40
0
 40
0
 40
1
 40
1
 40
1
 40
1
 10
155.644019
 20
612.960661
 30
0.0
 10
155.644019
 20
612.960661
 30
0.0
 10
164.492181
 20
604.454476
 30
0.0
 10
171.353374
 20
612.525631
 30
0.0
  0
SPLINE
  5
216
100
AcDbEntity
  8
Layer_1
 62
7
100
AcDbSpline
 70
8
 71
3
 72
8
 73
4
 74
0
 40
0
 40
0
 40
0
 40
0
 40
1
 40
1
 40
1
 40
1
 10
171.353374
 20
612.525631
 30
0.0
 10
171.353374
 20
612.525631
 30
0.0
 10
178.123887
 20
621.290522
 30
0.0
 10
171.267731
 20
634.577286
 30
0.0
  0
SPLINE
  5
217
100
AcDbEntity
  8
Layer_1
 62
7
100
AcDbSpline
 70
8
 71
3
 72
8
 73
4
 74
0
 40
0
 40
0
 40
0
 40
0
 40
1
 40
1
 40
1
 40
1
 10
171.267731
 20
634.577286
 30
0.0
 10
171.267731
 20
634.577286
 30
0.0
 10
169.532356
 20
638.915725
 30
0.0
 10
163.279848
 20
641.606801
 30
0.0
  0
LWPOLYLINE
  5
218
100
AcDbEntity
  8
Layer_1
 62
7
100
AcDbPolyline
 90
2
 70
0
 10
83.456881
 20
648.751569
 30
0.0
 10
88.401634
 20
643.195760
 30
0.0
  0
SPLINE
  5
219
100
AcDbEntity
  8
Layer_1
 62
7
100
AcDbSpline
 70
8
 71
3
 72
8
 73
4
 74
0
 40
0
 40
0
 40
0
 40
0
 40
1
 40
1
 40
1
 40
1
 10
168.315282
 20
647.162610
 30
0.0
 10
168.315282
 20
647.162610
 30
0.0
 10
172.570448
 20
645.336851
 30
0.0
 10
175.865469
 20
640.384985
 30
0.0
  0
SPLINE
  5
21a
100
AcDbEntity
  8
Layer_1
 62
7
100
AcDbSpline
 70
8
 71
3
 72
8
 73
4
 74
0
 40
0
 40
0
 40
0
 40
0
 40
1
 40
1
 40
1
 40
1
 10
175.865469
 20
640.384985
 30
0.0
 10
175.865469
 20
640.384985
 30
0.0
 10
176.041199
 20
645.598520
 30
0.0
 10
172.047406
 20
651.154033
 30
0.0
  0
LWPOLYLINE
  5
21b
100
AcDbEntity
  8
Layer_1
 62
7
100
AcDbPolyline
 90
2
 70
0
 10
163.279848
 20
641.606801
 30
0.0
 10
168.315282
 20
647.162610
 30
0.0
  0
SPLINE
  5
21c
100
AcDbEntity
  8
Layer_1
 62
7
100
AcDbSpline
 70
8
 71
3
 72
8
 73
4
 74
0
 40
0
 40
0
 40
0
 40
0
 40
1
 40
1
 40
1
 40
1
 10
187.583105
 20
651.237305
 30
0.0
 10
187.583105
 20
651.237305
 30
0.0
 10
184.029082
 20
646.202168
 30
0.0
 10
183.767413
 20
640.301713
 30
0.0
  0
SPLINE
  5
21d
100
AcDbEntity
  8
Layer_1
 62
7
100
AcDbSpline
 70
8
 71
3
 72
8
 73
4
 74
0
 40
0
 40
0
 40
0
 40
0
 40
1
 40
1
 40
1
 40
1
 10
183.767413
 20
640.301713
 30
0.0
 10
183.767413
 20
640.301713
 30
0.0
 10
186.194745
 20
644.295507
 30
0.0
 10
191.405909
 20
647.162314
 30
0.0
  0
LWPOLYLINE
  5
21e
100
AcDbEntity
  8
Layer_1
 62
7
100
AcDbPolyline
 90
3
 70
0
 10
172.047406
 20
651.154033
 30
0.0
 10
179.854521
 20
660.011678
 30
0.0
 10
187.583105
 20
651.237305
 30
0.0
  0
SPLINE
  5
21f
100
AcDbEntity
  8
Layer_1
 62
7
100
AcDbSpline
 70
8
 71
3
 72
8
 73
4
 74
0
 40
0
 40
0
 40
0
 40
0
 40
1
 40
1
 40
1
 40
1
 10
196.350662
 20
641.606505
 30
0.0
 10
196.350662
 20
641.606505
 30
0.0
 10
191.595864
 20
640.039748
 30
0.0
 10
188.410490
 20
634.633887
 30
0.0
  0
SPLINE
  5
220
100
AcDbEntity
  8
Layer_1
 62
7
100
AcDbSpline
 70
8
 71
3
 72
8
 73
4
 74
0
 40
0
 40
0
 40
0
 40
0
 40
1
 40
1
 40
1
 40
1
 10
188.410490
 20
634.633887
 30
0.0
 10
185.671703
 20
629.625124
 30
0.0
 10
183.563234
 20
618.912975
 30
0.0
 10
188.533768
 20
612.342196
 30
0.0
  0
SPLINE
  5
221
100
AcDbEntity
  8
Layer_1
 62
7
100
AcDbSpline
 70
8
 71
3
 72
8
 73
4
 74
0
 40
0
 40
0
 40
0
 40
0
 40
1
 40
1
 40
1
 40
1
 10
188.533768
 20
612.342196
 30
0.0
 10
188.533768
 20
612.342196
 30
0.0
 10
194.096690
 20
604.454180
 30
0.0
 10
203.881883
 20
612.807749
 30
0.0
  0
SPLINE
  5
222
100
AcDbEntity
  8
Layer_1
 62
7
100
AcDbSpline
 70
8
 71
3
 72
8
 73
4
 74
0
 40
0
 40
0
 40
0
 40
0
 40
1
 40
1
 40
1
 40
1
 10
203.881883
 20
612.807749
 30
0.0
 10
203.881883
 20
612.807749
 30
0.0
 10
221.873364
 20
628.928426
 30
0.0
 10
202.036862
 20
652.235383
 30
0.0
  0
SPLINE
  5
223
100
AcDbEntity
  8
Layer_1
 62
7
100
AcDbSpline
 70
8
 71
3
 72
8
 73
4
 74
0
 40
0
 40
0
 40
0
 40
0
 40
1
 40
1
 40
1
 40
1
 10
202.036862
 20
652.235383
 30
0.0
 10
202.036862
 20
652.235383
 30
0.0
 10
200.952845
 20
653.193454
 30
0.0
 10
202.169919
 20
652.672783
 30
0.0
  0
SPLINE
  5
224
100
AcDbEntity
  8
Layer_1
 62
7
100
AcDbSpline
 70
8
 71
3
 72
8
 73
4
 74
0
 40
0
 40
0
 40
0
 40
0
 40
1
 40
1
 40
1
 40
1
 10
202.169919
 20
652.672783
 30
0.0
 10
210.937476
 20
646.289588
 30
0.0
 10
221.435668
 20
637.871714
 30
0.0
 10
222.519685
 20
616.863774
 30
0.0
  0
SPLINE
  5
225
100
AcDbEntity
  8
Layer_1
 62
7
100
AcDbSpline
 70
8
 71
3
 72
8
 73
4
 74
0
 40
0
 40
0
 40
0
 40
0
 40
1
 40
1
 40
1
 40
1
 10
222.519685
 20
616.863774
 30
0.0
 10
222.091768
 20
591.388487
 30
0.0
 10
205.031985
 20
573.202606
 30
0.0
 10
180.120932
 20
573.202606
 30
0.0
  0
SPLINE
  5
226
100
AcDbEntity
  8
Layer_1
 62
7
100
AcDbSpline
 70
8
 71
3
 72
8
 73
4
 74
0
 40
0
 40
0
 40
0
 40
0
 40
1
 40
1
 40
1
 40
1
 10
180.120932
 20
573.202606
 30
0.0
 10
155.729958
 20
573.202902
 30
0.0
 10
136.768848
 20
593.557113
 30
0.0
 10
137.500811
 20
617.648782
 30
0.0
  0
LWPOLYLINE
  5
227
100
AcDbEntity
  8
Layer_1
 62
7
100
AcDbPolyline
 90
2
 70
0
 10
191.405909
 20
647.162314
 30
0.0
 10
196.350662
 20
641.606505
 30
0.0
  0
ENDSEC
  0
SECTION
  2
OBJECTS
  0
DICTIONARY
  5
C
330
0
100
AcDbDictionary
  3
ACAD_GROUP
350
D
  3
ACAD_MLINESTYLE
350
17
  0
DICTIONARY
  5
D
330
C
100
AcDbDictionary
  0
DICTIONARY
  5
1A
330
C
100
AcDbDictionary
  0
DICTIONARY
  5
17
330
C
100
AcDbDictionary
  3
STANDARD
350
18
  0
DICTIONARY
  5
19
330
C
100
AcDbDictionary
  0
ENDSEC
  0
EOF
