0
SECTION
2
HEADER
9
$INSUNITS
70
4
9
$ACADVER
1
AC1014
9
$HANDSEED
5
FFFF
0
ENDSEC
0
SECTION
2
TABLES
0
TABLE
2
VPORT
5
8
100
AcDbSymbolTable
0
ENDTAB
0
TABLE
2
LTYPE
5
5
100
AcDbSymbolTable
0
LTYPE
5
14
100
AcDbSymbolTableRecord
100
AcDbLinetypeTableRecord
2
BYBLOCK
70
0
0
LTYPE
5
15
100
AcDbSymbolTableRecord
100
AcDbLinetypeTableRecord
2
BYLAYER
70
0
0
ENDTAB
0
TABLE
2
LAYER
5
2
100
AcDbSymbolTable
70
2
0
LAYER
5
50
100
AcDbSymbolTableRecord
100
AcDbLayerTableRecord
2
0
70
0
6
CONTINUOUS
0
ENDTAB
0
TABLE
2
STYLE
5
3
100
AcDbSymbolTable
70
1
0
STYLE
5
11
100
AcDbSymbolTableRecord
100
AcDbTextStyleTableRecord
2
STANDARD
70
0
0
ENDTAB
0
TABLE
2
VIEW
5
6
100
AcDbSymbolTable
70
0
0
ENDTAB
0
TABLE
2
UCS
5
7
100
AcDbSymbolTable
70
0
0
ENDTAB
0
TABLE
2
APPID
5
9
100
AcDbSymbolTable
70
2
0
APPID
5
12
100
AcDbSymbolTableRecord
100
AcDbRegAppTableRecord
2
ACAD
70
0
0
ENDTAB
0
TABLE
2
DIMSTYLE
5
A
100
AcDbSymbolTable
70
1
0
ENDTAB
0
TABLE
2
BLOCK_RECORD
5
1
100
AcDbSymbolTable
70
1
0
BLOCK_RECORD
5
1F
100
AcDbSymbolTableRecord
100
AcDbBlockTableRecord
2
*MODEL_SPACE
0
BLOCK_RECORD
5
1B
100
AcDbSymbolTableRecord
100
AcDbBlockTableRecord
2
*PAPER_SPACE
0
ENDTAB
0
ENDSEC
0
SECTION
2
BLOCKS
0
BLOCK
5
20
100
AcDbEntity
100
AcDbBlockBegin
2
*MODEL_SPACE
0
ENDBLK
5
21
100
AcDbEntity
100
AcDbBlockEnd
0
BLOCK
5
1C
100
AcDbEntity
100
AcDbBlockBegin
2
*PAPER_SPACE
0
ENDBLK
5
1D
100
AcDbEntity
100
AcDbBlockEnd
0
ENDSEC
0
SECTION
2
ENTITIES
0
ARC
5
100
100
AcDbEntity
8
0
100
AcDbCircle
10
-466.27945747375549
20
-96.744062550863248
30
0
40
53.886714045206681
210
0
220
-0
230
-1
100
AcDbArc
50
180.00000858031893
51
270.00000858526118
0
ARC
5
101
100
AcDbEntity
8
0
100
AcDbCircle
10
-466.27945747375549
20
-96.744062550863248
30
0
40
53.886714045206716
210
0
220
-0
230
-1
100
AcDbArc
50
270.00000858526118
51
359.99999141968107
0
ARC
5
102
100
AcDbEntity
8
0
100
AcDbCircle
10
-466.27945747375549
20
-96.744062550863248
30
0
40
53.886722119650443
210
0
220
0
230
-1
100
AcDbArc
50
0
51
90
0
ARC
5
103
100
AcDbEntity
8
0
100
AcDbCircle
10
-466.27945747375549
20
-96.744062550863248
30
0
40
53.886705970765362
210
0
220
0
230
-1
100
AcDbArc
50
89.999991414739469
51
180
0
ARC
5
104
100
AcDbEntity
8
0
100
AcDbCircle
10
-466.27945747375549
20
-96.744062550863248
30
0
40
47.161866124471132
210
0
220
0
230
-1
100
AcDbArc
50
179.99999509544384
51
270.00000000000023
0
ARC
5
105
100
AcDbEntity
8
0
100
AcDbCircle
10
-466.27945747375549
20
-96.744062550863248
30
0
40
47.161882273356213
210
0
220
-0
230
-1
100
AcDbArc
50
-90.000000000000313
51
4.9045561968554799e-06
0
ARC
5
106
100
AcDbEntity
8
0
100
AcDbCircle
10
-466.27945747375549
20
-96.744062550863248
30
0
40
47.161882273356248
210
0
220
0
230
-1
100
AcDbArc
50
4.9045561968554799e-06
51
90
0
ARC
5
107
100
AcDbEntity
8
0
100
AcDbCircle
10
-466.27945747375549
20
-96.744062550863248
30
0
40
47.161862087251052
210
0
220
0
230
-1
100
AcDbArc
50
90
51
179.99999509544384
0
LWPOLYLINE
5
108
100
AcDbEntity
8
0
100
AcDbPolyline
90
4
70
1
43
0.0
10
468.05449447631838
20
-49.494822883605963
10
464.50439624786378
20
-49.494822883605963
10
464.50439624786378
20
-53.044937260945645
10
468.05449447631838
20
-53.044937260945645
0
LWPOLYLINE
5
109
100
AcDbEntity
8
0
100
AcDbPolyline
90
4
70
1
43
0.0
10
500.94485424447021
20
-64.588957324860587
10
498.43455000375855
20
-62.078653084148939
10
495.92424005355377
20
-64.588963034353682
10
498.43454429426549
20
-67.099267275065344
0
LWPOLYLINE
5
110
100
AcDbEntity
8
0
100
AcDbPolyline
90
4
70
1
43
0.0
10
513.52867291768393
20
-98.519107627868706
10
513.52867291768393
20
-94.969009399414119
10
509.97856661478681
20
-94.969009399414134
10
509.97856661478681
20
-98.519107627868721
0
LWPOLYLINE
5
111
100
AcDbEntity
8
0
100
AcDbPolyline
90
4
70
1
43
0.0
10
498.43455392903508
20
-131.40946894883533
10
500.94485477973524
20
-128.89916809813516
10
498.43453912003736
20
-126.38885243843734
10
495.92423826933725
20
-128.89915328913747
0
LWPOLYLINE
5
112
100
AcDbEntity
8
0
100
AcDbPolyline
90
4
70
1
43
0.0
10
464.50439624786378
20
-143.99329414367679
10
468.05449447631838
20
-143.99329414367679
10
468.05449447631838
20
-140.44317169189455
10
464.50439624786378
20
-140.44317169189455
0
LWPOLYLINE
5
113
100
AcDbEntity
8
0
100
AcDbPolyline
90
4
70
1
43
0.0
10
431.61404016400041
20
-128.89916292390708
10
434.12433869521897
20
-131.40946145512567
10
436.63464864542368
20
-128.89915150492095
10
434.12435011420519
20
-126.38885297370234
0
LWPOLYLINE
5
114
100
AcDbEntity
8
0
100
AcDbPolyline
90
4
70
1
43
0.0
10
419.03020973205571
20
-94.969009399414091
10
419.03020973205571
20
-98.519107627868664
10
422.58032410939535
20
-98.519107627868664
10
422.58032410939541
20
-94.969009399414091
0
LWPOLYLINE
5
115
100
AcDbEntity
8
0
100
AcDbPolyline
90
4
70
1
43
0.0
10
434.12434137154384
20
-62.078650407824043
10
431.61404052084373
20
-64.58895125852419
10
434.1243504710485
20
-67.099261208728947
10
436.63465132174861
20
-64.588960358028785
0
LWPOLYLINE
5
116
100
AcDbEntity
8
0
100
AcDbPolyline
90
4
70
1
43
0.0
10
455.7371130654858
20
-44.973225921220191
10
455.3887331713828
20
-44.973278504192365
10
455.38925936001812
20
-48.459455368524601
10
455.73763925412101
20
-48.459402785552427
0
LINE
5
117
100
AcDbEntity
8
0
100
AcDbLine
10
456.47904102187022
20
-45.880802406885493
30
0
11
456.80846212509209
21
-45.880752685472203
31
0
0
LINE
5
118
100
AcDbEntity
8
0
100
AcDbLine
10
456.80846212509209
20
-45.880752685472203
30
0
11
456.80852937416273
21
-46.326300420061763
31
0
0
SPLINE
5
119
100
AcDbEntity
8
0
100
AcDbSpline
70
0
71
2
72
6
73
3
74
0
42
0.000000001
43
0.0000000001
44
0.0000000001
40
0
40
0
40
0
40
1
40
1
40
1
10
456.80852937416284
20
-46.326300420061763
30
0
10
456.98149517668969
20
-46.079801951831676
30
0
10
457.16396848062095
20
-45.966017624992034
30
0
0
SPLINE
5
120
100
AcDbEntity
8
0
100
AcDbSpline
70
0
71
2
72
6
73
3
74
0
42
0.000000001
43
0.0000000001
44
0.0000000001
40
0
40
0
40
0
40
1
40
1
40
1
10
457.16396848062095
20
-45.966017624992034
30
0
10
457.41515764115707
20
-45.814305343848773
30
0
10
457.69244206945609
20
-45.814263491722329
30
0
0
SPLINE
5
121
100
AcDbEntity
8
0
100
AcDbSpline
70
0
71
2
72
6
73
3
74
0
42
0.000000001
43
0.0000000001
44
0.0000000001
40
0
40
0
40
0
40
1
40
1
40
1
10
457.69244206945609
20
-45.814263491722329
30
0
10
457.87966416662766
20
-45.814235233219208
30
0
10
458.04794663651057
20
-45.887679186941526
30
0
0
SPLINE
5
122
100
AcDbEntity
8
0
100
AcDbSpline
70
0
71
2
72
6
73
3
74
0
42
0.000000001
43
0.0000000001
44
0.0000000001
40
0
40
0
40
0
40
1
40
1
40
1
10
458.04794663651057
20
-45.887679186941526
30
0
10
458.21622103195114
20
-45.961123141882567
30
0
10
458.32288686862012
20
-46.084343222952654
30
0
0
SPLINE
5
123
100
AcDbEntity
8
0
100
AcDbSpline
70
0
71
2
72
6
73
3
74
0
42
0.000000001
43
0.0000000001
44
0.0000000001
40
0
40
0
40
0
40
1
40
1
40
1
10
458.32288686862012
20
-46.084343222952654
30
0
10
458.42955234759444
20
-46.205193455162608
30
0
10
458.50779573712498
20
-46.432695215637985
30
0
0
SPLINE
5
124
100
AcDbEntity
8
0
100
AcDbSpline
70
0
71
2
72
6
73
3
74
0
42
0.000000001
43
0.0000000001
44
0.0000000001
40
0
40
0
40
0
40
1
40
1
40
1
10
458.50779573712498
20
-46.432695215637985
30
0
10
458.67364744500674
20
-46.129317410018764
30
0
10
458.92246200407186
20
-45.972865789459448
30
0
0
SPLINE
5
125
100
AcDbEntity
8
0
100
AcDbSpline
70
0
71
2
72
6
73
3
74
0
42
0.000000001
43
0.0000000001
44
0.0000000001
40
0
40
0
40
0
40
1
40
1
40
1
10
458.92246200407186
20
-45.972865789459448
30
0
10
459.17128427927508
20
-45.814040281600057
30
0
10
459.45804002857216
20
-45.813996999912916
30
0
0
SPLINE
5
126
100
AcDbEntity
8
0
100
AcDbSpline
70
0
71
2
72
6
73
3
74
0
42
0.000000001
43
0.0000000001
44
0.0000000001
40
0
40
0
40
0
40
1
40
1
40
1
10
459.45804002857216
20
-45.813996999912916
30
0
10
459.72584506143073
20
-45.813956578565907
30
0
10
459.92968052706067
20
-45.949011237838128
30
0
0
SPLINE
5
127
100
AcDbEntity
8
0
100
AcDbSpline
70
0
71
2
72
6
73
3
74
0
42
0.000000001
43
0.0000000001
44
0.0000000001
40
0
40
0
40
0
40
1
40
1
40
1
10
459.92968052706067
20
-45.949011237838128
30
0
10
460.13588180432964
20
-46.084065540024852
30
0
10
460.2354600176011
20
-46.325787211019176
30
0
0
SPLINE
5
128
100
AcDbEntity
8
0
100
AcDbSpline
70
0
71
2
72
6
73
3
74
0
42
0.000000001
43
0.0000000001
44
0.0000000001
40
0
40
0
40
0
40
1
40
1
40
1
10
460.2354600176011
20
-46.325787211019176
30
0
10
460.33503015582085
20
-46.567504846010976
30
0
10
460.33510312861864
20
-47.050974199583877
30
0
0
LINE
5
129
100
AcDbEntity
8
0
100
AcDbLine
10
460.3351031286187
20
-47.050974199583877
30
0
11
460.33531560728585
21
-48.458716906377745
31
0
0
LINE
5
130
100
AcDbEntity
8
0
100
AcDbLine
10
460.33531560728585
20
-48.458716906377745
30
0
11
459.9964151086233
21
-48.458768058570485
31
0
0
LINE
5
131
100
AcDbEntity
8
0
100
AcDbLine
10
459.9964151086233
20
-48.458768058570485
30
0
11
459.99620262995614
21
-47.051025351776616
31
0
0
SPLINE
5
132
100
AcDbEntity
8
0
100
AcDbSpline
70
0
71
2
72
6
73
3
74
0
42
0.000000001
43
0.0000000001
44
0.0000000001
40
0
40
0
40
0
40
1
40
1
40
1
10
459.9962026299562
20
-47.051025351776616
30
0
10
459.99614003091864
20
-46.636285652368741
30
0
10
459.93687459586147
20
-46.482250381001073
30
0
0
SPLINE
5
133
100
AcDbEntity
8
0
100
AcDbSpline
70
0
71
2
72
6
73
3
74
0
42
0.000000001
43
0.0000000001
44
0.0000000001
40
0
40
0
40
0
40
1
40
1
40
1
10
459.93687459586147
20
-46.482250381001073
30
0
10
459.87760880250005
20
-46.325841223552047
30
0
10
459.73302160196477
20
-46.231065053139979
30
0
0
SPLINE
5
134
100
AcDbEntity
8
0
100
AcDbSpline
70
0
71
2
72
6
73
3
74
0
42
0.000000001
43
0.0000000001
44
0.0000000001
40
0
40
0
40
0
40
1
40
1
40
1
10
459.73302160196477
20
-46.231065053139979
30
0
10
459.59080828812006
20
-46.136292561644908
30
0
10
459.39173290942665
20
-46.136322609231684
30
0
0
SPLINE
5
135
100
AcDbEntity
8
0
100
AcDbSpline
70
0
71
2
72
6
73
3
74
0
42
0.000000001
43
0.0000000001
44
0.0000000001
40
0
40
0
40
0
40
1
40
1
40
1
10
459.39173290942665
20
-46.136322609231684
30
0
10
459.15000025125084
20
-46.136359095325894
30
0
10
458.94857244877676
20
-46.278584470045978
30
0
0
SPLINE
5
136
100
AcDbEntity
8
0
100
AcDbSpline
70
0
71
2
72
6
73
3
74
0
42
0.000000001
43
0.0000000001
44
0.0000000001
40
0
40
0
40
0
40
1
40
1
40
1
10
458.94857244877676
20
-46.278584470045978
30
0
10
458.74951853238417
20
-46.420809486461849
30
0
10
458.65712616093163
20
-46.657820434847459
30
0
0
SPLINE
5
137
100
AcDbEntity
8
0
100
AcDbSpline
70
0
71
2
72
6
73
3
74
0
42
0.000000001
43
0.0000000001
44
0.0000000001
40
0
40
0
40
0
40
1
40
1
40
1
10
458.65712616093163
20
-46.657820434847459
30
0
10
458.56473378886983
20
-46.894827346011844
30
0
10
458.56481749251327
20
-47.449392165388673
30
0
0
LINE
5
138
100
AcDbEntity
8
0
100
AcDbLine
10
458.56481749251327
20
-47.449392165388673
30
0
11
458.5649698760069
21
-48.458984114795598
31
0
0
LINE
5
139
100
AcDbEntity
8
0
100
AcDbLine
10
458.5649698760069
20
-48.458984114795598
30
0
11
458.23554877278502
21
-48.459033836208903
31
0
0
LINE
5
140
100
AcDbEntity
8
0
100
AcDbLine
10
458.23554877278502
20
-48.459033836208903
30
0
11
458.23534952943697
21
-47.138979574461111
31
0
0
SPLINE
5
141
100
AcDbEntity
8
0
100
AcDbSpline
70
0
71
2
72
6
73
3
74
0
42
0.000000001
43
0.0000000001
44
0.0000000001
40
0
40
0
40
0
40
1
40
1
40
1
10
458.23534952943697
20
-47.138979574461111
30
0
10
458.23527906050316
20
-46.672099162909134
30
0
10
458.17601183697172
20
-46.506214647240817
30
0
0
SPLINE
5
142
100
AcDbEntity
8
0
100
AcDbSpline
70
0
71
2
72
6
73
3
74
0
42
0.000000001
43
0.0000000001
44
0.0000000001
40
0
40
0
40
0
40
1
40
1
40
1
10
458.17601183697172
20
-46.506214647240817
30
0
10
458.11911006677497
20
-46.337955888405631
30
0
10
457.97452215084991
20
-46.238440020273302
30
0
0
SPLINE
5
143
100
AcDbEntity
8
0
100
AcDbSpline
70
0
71
2
72
6
73
3
74
0
42
0.000000001
43
0.0000000001
44
0.0000000001
40
0
40
0
40
0
40
1
40
1
40
1
10
457.97452215084991
20
-46.238440020273302
30
0
10
457.82994195167242
20
-46.136554302062109
30
0
10
457.6308665729789
20
-46.136584349648885
30
0
0
SPLINE
5
144
100
AcDbEntity
8
0
100
AcDbSpline
70
0
71
2
72
6
73
3
74
0
42
0.000000001
43
0.0000000001
44
0.0000000001
40
0
40
0
40
0
40
1
40
1
40
1
10
457.6308665729789
20
-46.136584349648885
30
0
10
457.40097912188253
20
-46.136619047878156
30
0
10
457.19955903615613
20
-46.27647457251939
30
0
0
SPLINE
5
145
100
AcDbEntity
8
0
100
AcDbSpline
70
0
71
2
72
6
73
3
74
0
42
0.000000001
43
0.0000000001
44
0.0000000001
40
0
40
0
40
0
40
1
40
1
40
1
10
457.19955903615613
20
-46.27647457251939
30
0
10
457.00050440437383
20
-46.413959891214994
30
0
10
456.90337197689678
20
-46.648597668908977
30
0
0
SPLINE
5
146
100
AcDbEntity
8
0
100
AcDbSpline
70
0
71
2
72
6
73
3
74
0
42
0.000000001
43
0.0000000001
44
0.0000000001
40
0
40
0
40
0
40
1
40
1
40
1
10
456.90337197689678
20
-46.648597668908977
30
0
10
456.80861343550123
20
-46.883235088298719
30
0
10
456.80868640829897
20
-47.366704441871619
30
0
0
LINE
5
147
100
AcDbEntity
8
0
100
AcDbLine
10
456.80868640829897
20
-47.366704441871619
30
0
11
456.80885131172204
21
-48.459245138604359
31
0
0
LINE
5
148
100
AcDbEntity
8
0
100
AcDbLine
10
456.80885131172204
20
-48.459245138604359
30
0
11
456.47943020850005
21
-48.459294860017657
31
0
0
LINE
5
149
100
AcDbEntity
8
0
100
AcDbLine
10
456.47943020850005
20
-48.459294860017657
30
0
11
456.47904102187022
21
-45.880802406885493
31
0
0
LINE
5
150
100
AcDbEntity
8
0
100
AcDbLine
10
461.03880786649654
20
-45.880114175167357
30
0
11
461.36822896971842
21
-45.880064453754052
31
0
0
LINE
5
151
100
AcDbEntity
8
0
100
AcDbLine
10
461.36822896971842
20
-45.880064453754052
30
0
11
461.36830051173683
21
-46.354054411886423
31
0
0
SPLINE
5
152
100
AcDbEntity
8
0
100
AcDbSpline
70
0
71
2
72
6
73
3
74
0
42
0.000000001
43
0.0000000001
44
0.0000000001
40
0
40
0
40
0
40
1
40
1
40
1
10
461.36830051173683
20
-46.354054411886423
30
0
10
461.56496122530712
20
-46.083849840885236
30
0
10
461.82090066186987
20
-45.948725785154437
30
0
0
SPLINE
5
153
100
AcDbEntity
8
0
100
AcDbSpline
70
0
71
2
72
6
73
3
74
0
42
0.000000001
43
0.0000000001
44
0.0000000001
40
0
40
0
40
0
40
1
40
1
40
1
10
461.82090066186987
20
-45.948725785154437
30
0
10
462.07683202399028
20
-45.813601730642397
30
0
10
462.39203403405145
20
-45.813554155398222
30
0
0
SPLINE
5
154
100
AcDbEntity
8
0
100
AcDbSpline
70
0
71
2
72
6
73
3
74
0
42
0.000000001
43
0.0000000001
44
0.0000000001
40
0
40
0
40
0
40
1
40
1
40
1
10
462.39203403405145
20
-45.813554155398222
30
0
10
462.94186319292919
20
-45.813471166535074
30
0
10
463.33296010399323
20
-46.209193053582283
30
0
0
SPLINE
5
155
100
AcDbEntity
8
0
100
AcDbSpline
70
0
71
2
72
6
73
3
74
0
42
0.000000001
43
0.0000000001
44
0.0000000001
40
0
40
0
40
0
40
1
40
1
40
1
10
463.33296010399323
20
-46.209193053582283
30
0
10
463.72405701505727
20
-46.604914940629492
30
0
10
463.72414107639554
20
-47.161849608866447
30
0
0
SPLINE
5
156
100
AcDbEntity
8
0
100
AcDbSpline
70
0
71
2
72
6
73
3
74
0
42
0.000000001
43
0.0000000001
44
0.0000000001
40
0
40
0
40
0
40
1
40
1
40
1
10
463.72414107639554
20
-47.161849608866447
30
0
10
463.7242269262083
20
-47.730633521404073
30
0
10
463.3356156594354
20
-48.12884294318512
30
0
0
SPLINE
5
157
100
AcDbEntity
8
0
100
AcDbSpline
70
0
71
2
72
6
73
3
74
0
42
0.000000001
43
0.0000000001
44
0.0000000001
40
0
40
0
40
0
40
1
40
1
40
1
10
463.3356156594354
20
-48.12884294318512
30
0
10
462.94937792104895
20
-48.524682157801841
30
0
10
462.40192264825254
20
-48.524764788360777
30
0
0
SPLINE
5
158
100
AcDbEntity
8
0
100
AcDbSpline
70
0
71
2
72
6
73
3
74
0
42
0.000000001
43
0.0000000001
44
0.0000000001
40
0
40
0
40
0
40
1
40
1
40
1
10
462.40192264825254
20
-48.524764788360777
30
0
10
462.09383422199301
20
-48.524811289911
30
0
10
461.83548926844338
20
-48.396874404810262
30
0
0
SPLINE
5
159
100
AcDbEntity
8
0
100
AcDbSpline
70
0
71
2
72
6
73
3
74
0
42
0.000000001
43
0.0000000001
44
0.0000000001
40
0
40
0
40
0
40
1
40
1
40
1
10
461.83548926844338
20
-48.396874404810262
30
0
10
461.57714431489376
20
-48.268937519709525
30
0
10
461.36855126558191
20
-48.015383058378013
30
0
0
LINE
5
160
100
AcDbEntity
8
0
100
AcDbLine
10
461.36855126558191
20
-48.015383058378013
30
0
11
461.36876052499537
21
-49.401797125430704
31
0
0
LINE
5
161
100
AcDbEntity
8
0
100
AcDbLine
10
461.36876052499537
20
-49.401797125430704
30
0
11
461.03933942177343
21
-49.401846846844009
31
0
0
LINE
5
162
100
AcDbEntity
8
0
100
AcDbLine
10
461.03933942177343
20
-49.401846846844009
30
0
11
461.03880786649654
21
-45.880114175167357
31
0
0
SPLINE
5
163
100
AcDbEntity
8
0
100
AcDbSpline
70
0
71
2
72
6
73
3
74
0
42
0.000000001
43
0.0000000001
44
0.0000000001
40
0
40
0
40
0
40
1
40
1
40
1
10
462.36600995000259
20
-46.133499798432418
30
0
10
461.93468130857383
20
-46.133564901333969
30
0
10
461.63848351846877
20
-46.434592531919606
30
0
0
SPLINE
5
164
100
AcDbEntity
8
0
100
AcDbSpline
70
0
71
2
72
6
73
3
74
0
42
0.000000001
43
0.0000000001
44
0.0000000001
40
0
40
0
40
0
40
1
40
1
40
1
10
461.63848351846877
20
-46.434592531919606
30
0
10
461.34465961444505
20
-46.735619804201022
30
0
10
461.34472722121063
20
-47.183537387650716
30
0
0
SPLINE
5
165
100
AcDbEntity
8
0
100
AcDbSpline
70
0
71
2
72
6
73
3
74
0
42
0.000000001
43
0.0000000001
44
0.0000000001
40
0
40
0
40
0
40
1
40
1
40
1
10
461.34472722121063
20
-47.183537387650716
30
0
10
461.34477157720107
20
-47.477410757970667
30
0
10
461.47515271473912
20
-47.712014195739584
30
0
0
SPLINE
5
166
100
AcDbEntity
8
0
100
AcDbSpline
70
0
71
2
72
6
73
3
74
0
42
0.000000001
43
0.0000000001
44
0.0000000001
40
0
40
0
40
0
40
1
40
1
40
1
10
461.47515271473912
20
-47.712014195739584
30
0
10
461.60790773835856
20
-47.946617275204268
30
0
10
461.85202695508445
20
-48.084035703133388
30
0
0
SPLINE
5
167
100
AcDbEntity
8
0
100
AcDbSpline
70
0
71
2
72
6
73
3
74
0
42
0.000000001
43
0.0000000001
44
0.0000000001
40
0
40
0
40
0
40
1
40
1
40
1
10
461.85202695508445
20
-48.084035703133388
30
0
10
462.09852005789162
20
-48.221453772758302
30
0
10
462.37106478847039
20
-48.221412636021583
30
0
0
SPLINE
5
168
100
AcDbEntity
8
0
100
AcDbSpline
70
0
71
2
72
6
73
3
74
0
42
0.000000001
43
0.0000000001
44
0.0000000001
40
0
40
0
40
0
40
1
40
1
40
1
10
462.37106478847039
20
-48.221412636021583
30
0
10
462.63886982132885
20
-48.221372214674574
30
0
10
462.87346814879197
20
-48.083881531165467
30
0
0
SPLINE
5
169
100
AcDbEntity
8
0
100
AcDbSpline
70
0
71
2
72
6
73
3
74
0
42
0.000000001
43
0.0000000001
44
0.0000000001
40
0
40
0
40
0
40
1
40
1
40
1
10
462.87346814879197
20
-48.083881531165467
30
0
10
463.11044000464165
20
-47.944020640492006
30
0
10
463.25022756482241
20
-47.695153293908589
30
0
0
SPLINE
5
170
100
AcDbEntity
8
0
100
AcDbSpline
70
0
71
2
72
6
73
3
74
0
42
0.000000001
43
0.0000000001
44
0.0000000001
40
0
40
0
40
0
40
1
40
1
40
1
10
463.25022756482241
20
-47.695153293908589
30
0
10
463.39001512561259
20
-47.446289984546397
30
0
10
463.38997398887591
20
-47.173745253967631
30
0
0
SPLINE
5
171
100
AcDbEntity
8
0
100
AcDbSpline
70
0
71
2
72
6
73
3
74
0
42
0.000000001
43
0.0000000001
44
0.0000000001
40
0
40
0
40
0
40
1
40
1
40
1
10
463.38997398887591
20
-47.173745253967631
30
0
10
463.38993249444428
20
-46.898830674528725
30
0
10
463.2500701729914
20
-46.652379423238592
30
0
0
SPLINE
5
172
100
AcDbEntity
8
0
100
AcDbSpline
70
0
71
2
72
6
73
3
74
0
42
0.000000001
43
0.0000000001
44
0.0000000001
40
0
40
0
40
0
40
1
40
1
40
1
10
463.2500701729914
20
-46.652379423238592
30
0
10
463.1125736631775
20
-46.40592781486297
30
0
10
462.87793419897758
20
-46.270873767793319
30
0
0
SPLINE
5
173
100
AcDbEntity
8
0
100
AcDbSpline
70
0
71
2
72
6
73
3
74
0
42
0.000000001
43
0.0000000001
44
0.0000000001
40
0
40
0
40
0
40
1
40
1
40
1
10
462.87793419897758
20
-46.270873767793319
30
0
10
462.64328630324985
20
-46.133453910303466
30
0
10
462.36600995000259
20
-46.133499798432418
30
0
0
SPLINE
5
174
100
AcDbEntity
8
0
100
AcDbSpline
70
0
71
2
72
6
73
3
74
0
42
0.000000001
43
0.0000000001
44
0.0000000001
40
0
40
0
40
0
40
1
40
1
40
1
10
465.56537873657334
20
-45.813071147091044
30
0
10
466.1602309865724
20
-45.81298136263495
30
0
10
466.55134133750164
20
-46.244250981365411
30
0
0
SPLINE
5
175
100
AcDbEntity
8
0
100
AcDbSpline
70
0
71
2
72
6
73
3
74
0
42
0.000000001
43
0.0000000001
44
0.0000000001
40
0
40
0
40
0
40
1
40
1
40
1
10
466.55134133750164
20
-46.244250981365411
30
0
10
466.90689419519009
20
-46.63760838436599
30
0
10
466.90697539496961
20
-47.175584261721902
30
0
0
SPLINE
5
176
100
AcDbEntity
8
0
100
AcDbSpline
70
0
71
2
72
6
73
3
74
0
42
0.000000001
43
0.0000000001
44
0.0000000001
40
0
40
0
40
0
40
1
40
1
40
1
10
466.90697539496961
20
-47.175584261721902
30
0
10
466.90705695244395
20
-47.71592998793794
30
0
10
466.53030004027755
20
-48.121247167215756
30
0
0
SPLINE
5
177
100
AcDbEntity
8
0
100
AcDbSpline
70
0
71
2
72
6
73
3
74
0
42
0.000000001
43
0.0000000001
44
0.0000000001
40
0
40
0
40
0
40
1
40
1
40
1
10
466.53030004027755
20
-48.121247167215756
30
0
10
466.15590858205513
20
-48.52419414054792
30
0
10
465.56579602977638
20
-48.524283209614303
30
0
0
SPLINE
5
178
100
AcDbEntity
8
0
100
AcDbSpline
70
0
71
2
72
6
73
3
74
0
42
0.000000001
43
0.0000000001
44
0.0000000001
40
0
40
0
40
0
40
1
40
1
40
1
10
465.56579602977638
20
-48.524283209614303
30
0
10
464.97330959141618
20
-48.5243726369849
30
0
10
464.59643070042841
20
-48.121539057188144
30
0
0
SPLINE
5
179
100
AcDbEntity
8
0
100
AcDbSpline
70
0
71
2
72
6
73
3
74
0
42
0.000000001
43
0.0000000001
44
0.0000000001
40
0
40
0
40
0
40
1
40
1
40
1
10
464.59643070042841
20
-48.121539057188144
30
0
10
464.22191726338468
20
-47.716335271445764
30
0
10
464.22183570591028
20
-47.175989545229726
30
0
0
SPLINE
5
180
100
AcDbEntity
8
0
100
AcDbSpline
70
0
71
2
72
6
73
3
74
0
42
0.000000001
43
0.0000000001
44
0.0000000001
40
0
40
0
40
0
40
1
40
1
40
1
10
464.22183570591028
20
-47.175989545229726
30
0
10
464.22175486382565
20
-46.640383516733941
30
0
10
464.57718896194643
20
-46.246918800401161
30
0
0
SPLINE
5
181
100
AcDbEntity
8
0
100
AcDbSpline
70
0
71
2
72
6
73
3
74
0
42
0.000000001
43
0.0000000001
44
0.0000000001
40
0
40
0
40
0
40
1
40
1
40
1
10
464.57718896194643
20
-46.246918800401161
30
0
10
464.96816067493535
20
-45.813161288632628
30
0
10
465.56537873657334
20
-45.813071147091044
30
0
0
SPLINE
5
182
100
AcDbEntity
8
0
100
AcDbSpline
70
0
71
2
72
6
73
3
74
0
42
0.000000001
43
0.0000000001
44
0.0000000001
40
0
40
0
40
0
40
1
40
1
40
1
10
465.56542774259691
20
-46.137752552592701
30
0
10
465.15305789204916
20
-46.137814793935384
30
0
10
464.85686081733377
20
-46.443582122241281
30
0
0
SPLINE
5
183
100
AcDbEntity
8
0
100
AcDbSpline
70
0
71
2
72
6
73
3
74
0
42
0.000000001
43
0.0000000001
44
0.0000000001
40
0
40
0
40
0
40
1
40
1
40
1
10
464.85686081733377
20
-46.443582122241281
30
0
10
464.56066374261843
20
-46.749349450547186
30
0
10
464.56072920321481
20
-47.183047940836104
30
0
0
SPLINE
5
184
100
AcDbEntity
8
0
100
AcDbSpline
70
0
71
2
72
6
73
3
74
0
42
0.000000001
43
0.0000000001
44
0.0000000001
40
0
40
0
40
0
40
1
40
1
40
1
10
464.56072920321481
20
-47.183047940836104
30
0
10
464.56077141242679
20
-47.462698180774041
30
0
10
464.69589332137906
20
-47.704414486954846
30
0
0
SPLINE
5
185
100
AcDbEntity
8
0
100
AcDbSpline
70
0
71
2
72
6
73
3
74
0
42
0.000000001
43
0.0000000001
44
0.0000000001
40
0
40
0
40
0
40
1
40
1
40
1
10
464.69589332137906
20
-47.704414486954846
30
0
10
464.83101522972197
20
-47.946126755914435
30
0
10
465.06092271294909
20
-48.078811668294946
30
0
0
SPLINE
5
186
100
AcDbEntity
8
0
100
AcDbSpline
70
0
71
2
72
6
73
3
74
0
42
0.000000001
43
0.0000000001
44
0.0000000001
40
0
40
0
40
0
40
1
40
1
40
1
10
465.06092271294909
20
-48.078811668294946
30
0
10
465.29082983787202
20
-48.209122694594114
30
0
10
465.56574038008978
20
-48.209081200771891
30
0
0
SPLINE
5
187
100
AcDbEntity
8
0
100
AcDbSpline
70
0
71
2
72
6
73
3
74
0
42
0.000000001
43
0.0000000001
44
0.0000000001
40
0
40
0
40
0
40
1
40
1
40
1
10
465.56574038008978
20
-48.209081200771891
30
0
10
465.84065092230742
20
-48.209039706949675
30
0
10
466.07051869957729
20
-48.078659284191943
30
0
0
SPLINE
5
188
100
AcDbEntity
8
0
100
AcDbSpline
70
0
71
2
72
6
73
3
74
0
42
0.000000001
43
0.0000000001
44
0.0000000001
40
0
40
0
40
0
40
1
40
1
40
1
10
466.07051869957729
20
-48.078659284191943
30
0
10
466.30038611915234
20
-47.945909012574091
30
0
10
466.43543505469745
20
-47.704151927960787
30
0
0
SPLINE
5
189
100
AcDbEntity
8
0
100
AcDbSpline
70
0
71
2
72
6
73
3
74
0
42
0.000000001
43
0.0000000001
44
0.0000000001
40
0
40
0
40
0
40
1
40
1
40
1
10
466.43543505469745
20
-47.704151927960787
30
0
10
466.57048399085193
20
-47.462398880568692
30
0
10
466.57044178103064
20
-47.182744603409539
30
0
0
SPLINE
5
190
100
AcDbEntity
8
0
100
AcDbSpline
70
0
71
2
72
6
73
3
74
0
42
0.000000001
43
0.0000000001
44
0.0000000001
40
0
40
0
40
0
40
1
40
1
40
1
10
466.57044178103064
20
-47.182744603409539
30
0
10
466.57037632043426
20
-46.74904611312062
30
0
10
466.27172114515048
20
-46.443368569270817
30
0
0
SPLINE
5
191
100
AcDbEntity
8
0
100
AcDbSpline
70
0
71
2
72
6
73
3
74
0
42
0.000000001
43
0.0000000001
44
0.0000000001
40
0
40
0
40
0
40
1
40
1
40
1
10
466.27172114515048
20
-46.443368569270817
30
0
10
465.97543178150573
20
-46.137690668335509
30
0
10
465.56542774259691
20
-46.137752552592701
30
0
0
LINE
5
192
100
AcDbEntity
8
0
100
AcDbLine
10
467.39735055428093
20
-45.879154443911794
30
0
11
467.73625105294337
21
-45.879103291719055
31
0
0
LINE
5
193
100
AcDbEntity
8
0
100
AcDbLine
10
467.73625105294337
20
-45.879103291719055
30
0
11
467.73630792886314
21
-46.255925409364814
31
0
0
SPLINE
5
194
100
AcDbEntity
8
0
100
AcDbSpline
70
0
71
2
72
6
73
3
74
0
42
0.000000001
43
0.0000000001
44
0.0000000001
40
0
40
0
40
0
40
1
40
1
40
1
10
467.7363079288632
20
-46.255925409364814
30
0
10
467.88795270581875
20
-46.033128648380419
30
0
10
468.05619955753639
20
-45.924086166648898
30
0
0
SPLINE
5
195
100
AcDbEntity
8
0
100
AcDbSpline
70
0
71
2
72
6
73
3
74
0
42
0.000000001
43
0.0000000001
44
0.0000000001
40
0
40
0
40
0
40
1
40
1
40
1
10
468.05619955753639
20
-45.924086166648898
30
0
10
468.22444605155931
20
-45.812673836057243
30
0
10
468.40693652545303
20
-45.812646291725116
30
0
0
SPLINE
5
196
100
AcDbEntity
8
0
100
AcDbSpline
70
0
71
2
72
6
73
3
74
0
42
0.000000001
43
0.0000000001
44
0.0000000001
40
0
40
0
40
0
40
1
40
1
40
1
10
468.40693652545303
20
-45.812646291725116
30
0
10
468.54439583378308
20
-45.81262554420465
30
0
10
468.70081909326154
20
-45.90028634416889
30
0
0
LINE
5
197
100
AcDbEntity
8
0
100
AcDbLine
10
468.70081909326143
20
-45.90028634416889
30
0
11
468.52785829907202
21
-46.179966733662027
31
0
0
SPLINE
5
198
100
AcDbEntity
8
0
100
AcDbSpline
70
0
71
2
72
6
73
3
74
0
42
0.000000001
43
0.0000000001
44
0.0000000001
40
0
40
0
40
0
40
1
40
1
40
1
10
468.52785829907202
20
-46.179966733662013
30
0
10
468.4235700779721
20
-46.134951307890759
30
0
10
468.35247461216818
20
-46.134962038736489
30
0
0
SPLINE
5
199
100
AcDbEntity
8
0
100
AcDbSpline
70
0
71
2
72
6
73
3
74
0
42
0.000000001
43
0.0000000001
44
0.0000000001
40
0
40
0
40
0
40
1
40
1
40
1
10
468.35247461216818
20
-46.134962038736489
30
0
10
468.18657711751655
20
-46.134987078595266
30
0
10
468.03255365129792
20
-46.272465600479208
30
0
0
SPLINE
5
200
100
AcDbEntity
8
0
100
AcDbSpline
70
0
71
2
72
6
73
3
74
0
42
0.000000001
43
0.0000000001
44
0.0000000001
40
0
40
0
40
0
40
1
40
1
40
1
10
468.03255365129792
20
-46.272465600479208
30
0
10
467.87852982738445
20
-46.407574273503023
30
0
10
467.79799017460334
20
-46.694350260086466
30
0
0
SPLINE
5
201
100
AcDbEntity
8
0
100
AcDbSpline
70
0
71
2
72
6
73
3
74
0
42
0.000000001
43
0.0000000001
44
0.0000000001
40
0
40
0
40
0
40
1
40
1
40
1
10
467.79799017460334
20
-46.694350260086466
30
0
10
467.73640737108047
20
-46.914763578587426
30
0
10
467.73650860238138
20
-47.585455029331911
30
0
0
LINE
5
202
100
AcDbEntity
8
0
100
AcDbLine
10
467.73650860238126
20
-47.585455029331911
30
0
11
467.7366402389639
21
-48.457591707629994
31
0
0
LINE
5
203
100
AcDbEntity
8
0
100
AcDbLine
10
467.7366402389639
20
-48.457591707629994
30
0
11
467.3977397403014
21
-48.457642859822734
31
0
0
LINE
5
204
100
AcDbEntity
8
0
100
AcDbLine
10
467.3977397403014
20
-48.457642859822734
30
0
11
467.39735055428093
21
-45.879154443911794
31
0
0
LWPOLYLINE
5
205
100
AcDbEntity
8
0
100
AcDbPolyline
90
12
70
1
43
0.0
10
469.60598592214097
20
-44.921365785633128
10
469.27182512119879
20
-44.921416222436157
10
469.27196963540558
20
-45.878871496920198
10
468.8193083170143
20
-45.878939819684817
10
468.81935124222537
20
-46.163333794564252
10
469.27201256061659
20
-46.163265471799626
10
469.27235882203541
20
-48.457363950052368
10
469.6065196229776
20
-48.457313513249346
10
469.60617336155872
20
-46.163215034996597
10
470.13230403183525
20
-46.163135623082013
10
470.13226110662424
20
-45.878741648202592
10
469.60613043634771
20
-45.878821060117176
0
LINE
5
206
100
AcDbEntity
8
0
100
AcDbLine
10
473.19658468774691
20
-45.878279132298807
30
0
11
473.19697387437679
21
-48.456771585430978
31
0
0
LINE
5
207
100
AcDbEntity
8
0
100
AcDbLine
10
473.19697387437679
20
-48.456771585430978
30
0
11
472.86991858279384
21
-48.456820949758786
31
0
0
LINE
5
208
100
AcDbEntity
8
0
100
AcDbLine
10
472.86991858279384
20
-48.456820949758786
30
0
11
472.86985169141792
21
-48.013643064029367
31
0
0
SPLINE
5
209
100
AcDbEntity
8
0
100
AcDbSpline
70
0
71
2
72
6
73
3
74
0
42
0.000000001
43
0.0000000001
44
0.0000000001
40
0
40
0
40
0
40
1
40
1
40
1
10
472.86985169141803
20
-48.013643064029353
30
0
10
472.66133519185246
20
-48.267256444872046
30
0
10
472.40066305953661
20
-48.395275705414647
30
0
0
SPLINE
5
210
100
AcDbEntity
8
0
100
AcDbSpline
70
0
71
2
72
6
73
3
74
0
42
0.000000001
43
0.0000000001
44
0.0000000001
40
0
40
0
40
0
40
1
40
1
40
1
10
472.40066305953661
20
-48.395275705414647
30
0
10
472.14235673825033
20
-48.523290571650548
30
0
10
471.83426831199085
20
-48.523337073200771
30
0
0
SPLINE
5
211
100
AcDbEntity
8
0
100
AcDbSpline
70
0
71
2
72
6
73
3
74
0
42
0.000000001
43
0.0000000001
44
0.0000000001
40
0
40
0
40
0
40
1
40
1
40
1
10
471.83426831199085
20
-48.523337073200771
30
0
10
471.28681303919439
20
-48.523419703759707
30
0
10
470.89808193976927
20
-48.127697459627001
30
0
0
SPLINE
5
212
100
AcDbEntity
8
0
100
AcDbSpline
70
0
71
2
72
6
73
3
74
0
42
0.000000001
43
0.0000000001
44
0.0000000001
40
0
40
0
40
0
40
1
40
1
40
1
10
470.89808193976927
20
-48.127697459627001
30
0
10
470.51172436873065
20
-47.729605008329948
30
0
10
470.51163851891801
20
-47.160821095792329
30
0
0
SPLINE
5
213
100
AcDbEntity
8
0
100
AcDbSpline
70
0
71
2
72
6
73
3
74
0
42
0.000000001
43
0.0000000001
44
0.0000000001
40
0
40
0
40
0
40
1
40
1
40
1
10
470.51163851891801
20
-47.160821095792329
30
0
10
470.51155445757962
20
-46.603886427555366
30
0
10
470.90253189368627
20
-46.208046497548942
30
0
0
SPLINE
5
214
100
AcDbEntity
8
0
100
AcDbSpline
70
0
71
2
72
6
73
3
74
0
42
0.000000001
43
0.0000000001
44
0.0000000001
40
0
40
0
40
0
40
1
40
1
40
1
10
470.90253189368627
20
-46.208046497548942
30
0
10
471.29350932979293
20
-45.812206567542518
30
0
10
471.84333848867072
20
-45.812123578679362
30
0
0
SPLINE
5
215
100
AcDbEntity
8
0
100
AcDbSpline
70
0
71
2
72
6
73
3
74
0
42
0.000000001
43
0.0000000001
44
0.0000000001
40
0
40
0
40
0
40
1
40
1
40
1
10
471.84333848867072
20
-45.812123578679362
30
0
10
472.16091438481322
20
-45.812075645130975
30
0
10
472.41688652536607
20
-45.947122435116341
30
0
0
SPLINE
5
216
100
AcDbEntity
8
0
100
AcDbSpline
70
0
71
2
72
6
73
3
74
0
42
0.000000001
43
0.0000000001
44
0.0000000001
40
0
40
0
40
0
40
1
40
1
40
1
10
472.41688652536607
20
-45.947122435116341
30
0
10
472.67523255200035
20
-46.08216886679746
30
0
10
472.86960901201542
20
-46.352314416319047
30
0
0
LINE
5
217
100
AcDbEntity
8
0
100
AcDbLine
10
472.86960901201542
20
-46.352314416319047
30
0
11
472.86953746999706
21
-45.878324458186668
31
0
0
LINE
5
218
100
AcDbEntity
8
0
100
AcDbLine
10
472.86953746999706
20
-45.878324458186668
30
0
11
473.19658468774691
21
-45.878279132298807
31
0
0
SPLINE
5
219
100
AcDbEntity
8
0
100
AcDbSpline
70
0
71
2
72
6
73
3
74
0
42
0.000000001
43
0.0000000001
44
0.0000000001
40
0
40
0
40
0
40
1
40
1
40
1
10
471.8694591545966
20
-46.132065388429183
30
0
10
471.59217472629763
20
-46.132107240555619
30
0
10
471.35757639883451
20
-46.269597924064733
30
0
0
SPLINE
5
220
100
AcDbEntity
8
0
100
AcDbSpline
70
0
71
2
72
6
73
3
74
0
42
0.000000001
43
0.0000000001
44
0.0000000001
40
0
40
0
40
0
40
1
40
1
40
1
10
471.35757639883451
20
-46.269597924064733
30
0
10
471.12297771367651
20
-46.404718758713713
30
0
10
470.98318172135839
20
-46.651216257655726
30
0
0
SPLINE
5
221
100
AcDbEntity
8
0
100
AcDbSpline
70
0
71
2
72
6
73
3
74
0
42
0.000000001
43
0.0000000001
44
0.0000000001
40
0
40
0
40
0
40
1
40
1
40
1
10
470.98318172135839
20
-46.651216257655726
30
0
10
470.84575961451219
20
-46.897709361072295
30
0
10
470.84580110894387
20
-47.172623940511187
30
0
0
SPLINE
5
222
100
AcDbEntity
8
0
100
AcDbSpline
70
0
71
2
72
6
73
3
74
0
42
0.000000001
43
0.0000000001
44
0.0000000001
40
0
40
0
40
0
40
1
40
1
40
1
10
470.84580110894387
20
-47.172623940511187
30
0
10
470.84584224568056
20
-47.445168671089952
30
0
10
470.98570492482827
20
-47.693989771240226
30
0
0
SPLINE
5
223
100
AcDbEntity
8
0
100
AcDbSpline
70
0
71
2
72
6
73
3
74
0
42
0.000000001
43
0.0000000001
44
0.0000000001
40
0
40
0
40
0
40
1
40
1
40
1
10
470.98570492482827
20
-47.693989771240226
30
0
10
471.12556760397609
20
-47.942810871390478
30
0
10
471.36021585800802
20
-48.082604614961674
30
0
0
SPLINE
5
224
100
AcDbEntity
8
0
100
AcDbSpline
70
0
71
2
72
6
73
3
74
0
42
0.000000001
43
0.0000000001
44
0.0000000001
40
0
40
0
40
0
40
1
40
1
40
1
10
471.36021585800802
20
-48.082604614961674
30
0
10
471.59722956537473
20
-48.220024115366023
30
0
10
471.86740040987218
20
-48.21998333693351
30
0
0
SPLINE
5
225
100
AcDbEntity
8
0
100
AcDbSpline
70
0
71
2
72
6
73
3
74
0
42
0.000000001
43
0.0000000001
44
0.0000000001
40
0
40
0
40
0
40
1
40
1
40
1
10
471.86740040987218
20
-48.21998333693351
30
0
10
472.13994514045089
20
-48.21994220019679
30
0
10
472.38402286335457
20
-48.082450085908242
30
0
0
SPLINE
5
226
100
AcDbEntity
8
0
100
AcDbSpline
70
0
71
2
72
6
73
3
74
0
42
0.000000001
43
0.0000000001
44
0.0000000001
40
0
40
0
40
0
40
1
40
1
40
1
10
472.38402286335457
20
-48.082450085908242
30
0
10
472.6281086607006
20
-47.944957970400985
30
0
10
472.75841897221943
20
-47.710315184979009
30
0
0
SPLINE
5
227
100
AcDbEntity
8
0
100
AcDbSpline
70
0
71
2
72
6
73
3
74
0
42
0.000000001
43
0.0000000001
44
0.0000000001
40
0
40
0
40
0
40
1
40
1
40
1
10
472.75841897221943
20
-47.710315184979009
30
0
10
472.89110316981964
20
-47.475672041252814
30
0
10
472.89105881382915
20
-47.181798670932864
30
0
0
SPLINE
5
228
100
AcDbEntity
8
0
100
AcDbSpline
70
0
71
2
72
6
73
3
74
0
42
0.000000001
43
0.0000000001
44
0.0000000001
40
0
40
0
40
0
40
1
40
1
40
1
10
472.89105881382915
20
-47.181798670932864
30
0
10
472.89099120706362
20
-46.733881087483162
30
0
10
472.59470255880848
20
-46.43294288426813
30
0
0
SPLINE
5
229
100
AcDbEntity
8
0
100
AcDbSpline
70
0
71
2
72
6
73
3
74
0
42
0.000000001
43
0.0000000001
44
0.0000000001
40
0
40
0
40
0
40
1
40
1
40
1
10
472.59470255880848
20
-46.43294288426813
30
0
10
472.30078779663472
20
-46.132004322748863
30
0
10
471.8694591545966
20
-46.132065388429183
30
0
0
LINE
5
230
100
AcDbEntity
8
0
100
AcDbLine
10
473.94311533923684
20
-45.878166454153096
30
0
11
474.2749022540977
21
-45.878116375654301
31
0
0
LINE
5
231
100
AcDbEntity
8
0
100
AcDbLine
10
474.2749022540977
20
-45.878116375654301
30
0
11
474.27497200703237
21
-46.340253052264792
31
0
0
SPLINE
5
232
100
AcDbEntity
8
0
100
AcDbSpline
70
0
71
2
72
6
73
3
74
0
42
0.000000001
43
0.0000000001
44
0.0000000001
40
0
40
0
40
0
40
1
40
1
40
1
10
474.27497200703243
20
-46.340253052264792
30
0
10
474.4740073220737
20
-46.074787820679646
30
0
10
474.71572030642301
20
-45.94440561005699
30
0
0
SPLINE
5
233
100
AcDbEntity
8
0
100
AcDbSpline
70
0
71
2
72
6
73
3
74
0
42
0.000000001
43
0.0000000001
44
0.0000000001
40
0
40
0
40
0
40
1
40
1
40
1
10
474.71572030642301
20
-45.94440561005699
30
0
10
474.95743293307748
20
-45.811653550574206
30
0
10
475.24182287073563
20
-45.811610625972563
30
0
0
SPLINE
5
234
100
AcDbEntity
8
0
100
AcDbSpline
70
0
71
2
72
6
73
3
74
0
42
0.000000001
43
0.0000000001
44
0.0000000001
40
0
40
0
40
0
40
1
40
1
40
1
10
475.24182287073563
20
-45.811610625972563
30
0
10
475.53095250611409
20
-45.811566985981202
30
0
10
475.75374855109942
20
-45.95846802799521
30
0
0
SPLINE
5
235
100
AcDbEntity
8
0
100
AcDbSpline
70
0
71
2
72
6
73
3
74
0
42
0.000000001
43
0.0000000001
44
0.0000000001
40
0
40
0
40
0
40
1
40
1
40
1
10
475.75374855109942
20
-45.95846802799521
30
0
10
475.97891040772367
20
-46.10536871292372
30
0
10
476.08559520343897
20
-46.354198858023217
30
0
0
SPLINE
5
236
100
AcDbEntity
8
0
100
AcDbSpline
70
0
71
2
72
6
73
3
74
0
42
0.000000001
43
0.0000000001
44
0.0000000001
40
0
40
0
40
0
40
1
40
1
40
1
10
476.08559520343897
20
-46.354198858023217
30
0
10
476.1922799985449
20
-46.60302496590149
30
0
10
476.19235940985004
20
-47.129151598956753
30
0
0
LINE
5
237
100
AcDbEntity
8
0
100
AcDbLine
10
476.19235940984998
20
-47.129151598956753
30
0
11
476.19255972628275
21
-48.456315407284933
31
0
0
LINE
5
238
100
AcDbEntity
8
0
100
AcDbLine
10
476.19255972628275
20
-48.456315407284933
30
0
11
475.86313862306088
21
-48.456365128698238
31
0
0
LINE
5
239
100
AcDbEntity
8
0
100
AcDbLine
10
475.86313862306088
20
-48.456365128698238
30
0
11
475.8629529727267
21
-47.226369160856663
31
0
0
SPLINE
5
240
100
AcDbEntity
8
0
100
AcDbSpline
70
0
71
2
72
6
73
3
74
0
42
0.000000001
43
0.0000000001
44
0.0000000001
40
0
40
0
40
0
40
1
40
1
40
1
10
475.8629529727267
20
-47.226369160856663
30
0
10
475.86288572365595
20
-46.780821426267096
30
0
10
475.82494560589913
20
-46.631518596754098
30
0
0
SPLINE
5
241
100
AcDbEntity
8
0
100
AcDbSpline
70
0
71
2
72
6
73
3
74
0
42
0.000000001
43
0.0000000001
44
0.0000000001
40
0
40
0
40
0
40
1
40
1
40
1
10
475.82494560589913
20
-46.631518596754098
30
0
10
475.76566478935371
20
-46.375575787179557
30
0
10
475.60211379020927
20
-46.247624594284517
30
0
0
SPLINE
5
242
100
AcDbEntity
8
0
100
AcDbSpline
70
0
71
2
72
6
73
3
74
0
42
0.000000001
43
0.0000000001
44
0.0000000001
40
0
40
0
40
0
40
1
40
1
40
1
10
475.60211379020927
20
-46.247624594284517
30
0
10
475.43857050781247
20
-46.11730355131062
30
0
10
475.17550517267421
20
-46.117343257267905
30
0
0
SPLINE
5
243
100
AcDbEntity
8
0
100
AcDbSpline
70
0
71
2
72
6
73
3
74
0
42
0.000000001
43
0.0000000001
44
0.0000000001
40
0
40
0
40
0
40
1
40
1
40
1
10
475.17550517267421
20
-46.117343257267905
30
0
10
474.87452225577391
20
-46.117388686342913
30
0
10
474.63518545682376
20
-46.316500194045098
30
0
0
SPLINE
5
244
100
AcDbEntity
8
0
100
AcDbSpline
70
0
71
2
72
6
73
3
74
0
42
0.000000001
43
0.0000000001
44
0.0000000001
40
0
40
0
40
0
40
1
40
1
40
1
10
474.63518545682376
20
-46.316500194045098
30
0
10
474.39822254395494
20
-46.515611343443069
30
0
10
474.32243173642121
20
-46.809496159998467
30
0
0
SPLINE
5
245
100
AcDbEntity
8
0
100
AcDbSpline
70
0
71
2
72
6
73
3
74
0
42
0.000000001
43
0.0000000001
44
0.0000000001
40
0
40
0
40
0
40
1
40
1
40
1
10
474.32243173642121
20
-46.809496159998467
30
0
10
474.27505565927834
20
-47.001469147227425
30
0
10
474.27513256611013
20
-47.511002801040533
30
0
0
LINE
5
246
100
AcDbEntity
8
0
100
AcDbLine
10
474.27513256611019
20
-47.51100280104054
30
0
11
474.2752752918426
21
-48.456608831223917
31
0
0
LINE
5
247
100
AcDbEntity
8
0
100
AcDbLine
10
474.2752752918426
20
-48.456608831223917
30
0
11
473.94348837698175
21
-48.456658909722712
31
0
0
LINE
5
248
100
AcDbEntity
8
0
100
AcDbLine
10
473.94348837698175
20
-48.456658909722712
30
0
11
473.94311533923684
21
-45.878166454153096
31
0
0
LWPOLYLINE
5
249
100
AcDbEntity
8
0
100
AcDbPolyline
90
12
70
1
43
0.0
10
477.52631956707023
20
-44.920170324325916
10
477.19215876612799
20
-44.920220761128945
10
477.19230328033473
20
-45.877676035612978
10
476.73964196194356
20
-45.877744358377612
10
476.73968488715451
20
-46.162138333257026
10
477.19234620554579
20
-46.1620700104924
10
477.19269246696462
20
-48.456168488745149
10
477.52685326790674
20
-48.456118051942127
10
477.52650700648792
20
-46.162019573689371
10
478.05263767676445
20
-46.161940161774808
10
478.05259475155344
20
-45.87754618689538
10
477.52646408127697
20
-45.877625598809956
0
LWPOLYLINE
5
250
100
AcDbEntity
8
0
100
AcDbPolyline
90
12
70
1
43
0.0
10
502.31382150424707
20
-58.807188093747044
10
500.90090842060988
20
-57.394701464852382
10
498.43618119183765
20
-59.860172838449884
10
499.83903834070423
20
-61.262606567722493
10
500.08199197785063
20
-61.019579578567935
10
498.92551379639542
20
-59.86345045298237
10
499.89230474948556
20
-58.896367608571992
10
501.04878293094077
20
-60.05249673415755
10
501.29006108481678
20
-59.811145734131429
10
500.13358290336163
20
-58.655016608545864
10
500.90433375087486
20
-57.884033057694005
10
502.07086786710073
20
-59.050215082901609
0
LINE
5
251
100
AcDbEntity
8
0
100
AcDbLine
10
504.07411933717361
20
-61.85042338890203
30
0
11
502.25112503546717
21
-63.673968084891598
31
0
0
LINE
5
252
100
AcDbEntity
8
0
100
AcDbLine
10
502.25112503546717
20
-63.673968084891598
30
0
11
502.01983282538902
21
-63.442745684953223
31
0
0
LINE
5
253
100
AcDbEntity
8
0
100
AcDbLine
10
502.01983282538902
20
-63.442745684953223
30
0
11
502.33315961420539
21
-63.129324297227207
31
0
0
SPLINE
5
254
100
AcDbEntity
8
0
100
AcDbSpline
70
0
71
2
72
6
73
3
74
0
42
0.000000001
43
0.0000000001
44
0.0000000001
40
0
40
0
40
0
40
1
40
1
40
1
10
502.33315961420539
20
-63.1293242972272
30
0
10
502.00638301483309
20
-63.161214035491433
30
0
10
501.73153954943695
20
-63.067411435235257
30
0
0
SPLINE
5
255
100
AcDbEntity
8
0
100
AcDbSpline
70
0
71
2
72
6
73
3
74
0
42
0.000000001
43
0.0000000001
44
0.0000000001
40
0
40
0
40
0
40
1
40
1
40
1
10
501.73153954943695
20
-63.067411435235257
30
0
10
501.45836921799179
20
-62.97528146393379
30
0
10
501.24048492094107
20
-62.757462930158155
30
0
0
SPLINE
5
256
100
AcDbEntity
8
0
100
AcDbSpline
70
0
71
2
72
6
73
3
74
0
42
0.000000001
43
0.0000000001
44
0.0000000001
40
0
40
0
40
0
40
1
40
1
40
1
10
501.24048492094107
20
-62.757462930158155
30
0
10
500.85331715638677
20
-62.37041202313118
30
0
10
500.85825921486628
20
-61.815721171963951
30
0
0
SPLINE
5
257
100
AcDbEntity
8
0
100
AcDbSpline
70
0
71
2
72
6
73
3
74
0
42
0.000000001
43
0.0000000001
44
0.0000000001
40
0
40
0
40
0
40
1
40
1
40
1
10
500.85825921486628
20
-61.815721171963951
30
0
10
500.86655560092203
20
-61.26103266925427
30
0
10
501.26868728453991
20
-60.858779574955349
30
0
0
SPLINE
5
258
100
AcDbEntity
8
0
100
AcDbSpline
70
0
71
2
72
6
73
3
74
0
42
0.000000001
43
0.0000000001
44
0.0000000001
40
0
40
0
40
0
40
1
40
1
40
1
10
501.26868728453991
20
-60.858779574955349
30
0
10
501.66244012464824
20
-60.464907853887276
30
0
10
502.21880401978092
20
-60.461469551283059
30
0
0
SPLINE
5
259
100
AcDbEntity
8
0
100
AcDbSpline
70
0
71
2
72
6
73
3
74
0
42
0.000000001
43
0.0000000001
44
0.0000000001
40
0
40
0
40
0
40
1
40
1
40
1
10
502.21880401978092
20
-60.461469551283059
30
0
10
502.77516648775583
20
-60.458032676267536
30
0
10
503.16401309661603
20
-60.846761920880482
30
0
0
SPLINE
5
260
100
AcDbEntity
8
0
100
AcDbSpline
70
0
71
2
72
6
73
3
74
0
42
0.000000001
43
0.0000000001
44
0.0000000001
40
0
40
0
40
0
40
1
40
1
40
1
10
503.16401309661603
20
-60.846761920880482
30
0
10
503.38860706053526
20
-61.071288096368725
30
0
10
503.47411419603537
20
-61.347780233694763
30
0
0
SPLINE
5
261
100
AcDbEntity
8
0
100
AcDbSpline
70
0
71
2
72
6
73
3
74
0
42
0.000000001
43
0.0000000001
44
0.0000000001
40
0
40
0
40
0
40
1
40
1
40
1
10
503.47411419603537
20
-61.347780233694763
30
0
10
503.56129874868361
20
-61.625952136195458
30
0
10
503.50772333896168
20
-61.95441737157924
30
0
0
LINE
5
262
100
AcDbEntity
8
0
100
AcDbLine
10
503.50772333896168
20
-61.95441737157924
30
0
11
503.84283283745026
21
-61.619206697594926
31
0
0
LINE
5
263
100
AcDbEntity
8
0
100
AcDbLine
10
503.84283283745026
20
-61.619206697594926
30
0
11
504.07411933717361
21
-61.85042338890203
31
0
0
SPLINE
5
264
100
AcDbEntity
8
0
100
AcDbSpline
70
0
71
2
72
6
73
3
74
0
42
0.000000001
43
0.0000000001
44
0.0000000001
40
0
40
0
40
0
40
1
40
1
40
1
10
502.95624731740838
20
-61.091456480408866
30
0
10
502.76014802384987
20
-60.895416374832052
30
0
10
502.49703993380467
20
-60.826752328967679
30
0
0
SPLINE
5
265
100
AcDbEntity
8
0
100
AcDbSpline
70
0
71
2
72
6
73
3
74
0
42
0.000000001
43
0.0000000001
44
0.0000000001
40
0
40
0
40
0
40
1
40
1
40
1
10
502.49703993380467
20
-60.826752328967679
30
0
10
502.23560304383278
20
-60.756405157754912
30
0
10
501.96245943417341
20
-60.831858797789387
30
0
0
SPLINE
5
266
100
AcDbEntity
8
0
100
AcDbSpline
70
0
71
2
72
6
73
3
74
0
42
0.000000001
43
0.0000000001
44
0.0000000001
40
0
40
0
40
0
40
1
40
1
40
1
10
501.96245943417341
20
-60.831858797789387
30
0
10
501.69099038562297
20
-60.90898363918987
30
0
10
501.49662719047427
20
-61.103405516031266
30
0
0
SPLINE
5
267
100
AcDbEntity
8
0
100
AcDbSpline
70
0
71
2
72
6
73
3
74
0
42
0.000000001
43
0.0000000001
44
0.0000000001
40
0
40
0
40
0
40
1
40
1
40
1
10
501.49662719047427
20
-61.103405516031266
30
0
10
501.30393947859596
20
-61.296151403744226
30
0
10
501.22689281317577
20
-61.570993767438665
30
0
0
SPLINE
5
268
100
AcDbEntity
8
0
100
AcDbSpline
70
0
71
2
72
6
73
3
74
0
42
0.000000001
43
0.0000000001
44
0.0000000001
40
0
40
0
40
0
40
1
40
1
40
1
10
501.22689281317577
20
-61.570993767438665
30
0
10
501.14984614775562
20
-61.845836131133098
30
0
10
501.2169212697367
20
-62.110603751598532
30
0
0
SPLINE
5
269
100
AcDbEntity
8
0
100
AcDbSpline
70
0
71
2
72
6
73
3
74
0
42
0.000000001
43
0.0000000001
44
0.0000000001
40
0
40
0
40
0
40
1
40
1
40
1
10
501.2169212697367
20
-62.110603751598532
30
0
10
501.28734358178122
20
-62.375369439478973
30
0
10
501.47841205277706
20
-62.566380240929149
30
0
0
SPLINE
5
270
100
AcDbEntity
8
0
100
AcDbSpline
70
0
71
2
72
6
73
3
74
0
42
0.000000001
43
0.0000000001
44
0.0000000001
40
0
40
0
40
0
40
1
40
1
40
1
10
501.47841205277706
20
-62.566380240929149
30
0
10
501.67115936807875
20
-62.759069379965283
30
0
10
501.94097141463772
20
-62.834435358911016
30
0
0
SPLINE
5
271
100
AcDbEntity
8
0
100
AcDbSpline
70
0
71
2
72
6
73
3
74
0
42
0.000000001
43
0.0000000001
44
0.0000000001
40
0
40
0
40
0
40
1
40
1
40
1
10
501.94097141463772
20
-62.834435358911016
30
0
10
502.21078917155137
20
-62.909807046488019
30
0
10
502.46884998118753
20
-62.836032846603025
30
0
0
SPLINE
5
272
100
AcDbEntity
8
0
100
AcDbSpline
70
0
71
2
72
6
73
3
74
0
42
0.000000001
43
0.0000000001
44
0.0000000001
40
0
40
0
40
0
40
1
40
1
40
1
10
502.46884998118753
20
-62.836032846603025
30
0
10
502.72858392477468
20
-62.763931275672782
30
0
10
502.93635241324387
20
-62.556100058215243
30
0
0
SPLINE
5
273
100
AcDbEntity
8
0
100
AcDbSpline
70
0
71
2
72
6
73
3
74
0
42
0.000000001
43
0.0000000001
44
0.0000000001
40
0
40
0
40
0
40
1
40
1
40
1
10
502.93635241324387
20
-62.556100058215243
30
0
10
503.2530301686009
20
-62.239326692232353
30
0
10
503.25632361064999
20
-61.817029244281223
30
0
0
SPLINE
5
274
100
AcDbEntity
8
0
100
AcDbSpline
70
0
71
2
72
6
73
3
74
0
42
0.000000001
43
0.0000000001
44
0.0000000001
40
0
40
0
40
0
40
1
40
1
40
1
10
503.25632361064999
20
-61.817029244281223
30
0
10
503.26128875949223
20
-61.396405852873499
30
0
10
502.95624731740838
20
-61.091456480408866
30
0
0
LWPOLYLINE
5
275
100
AcDbEntity
8
0
100
AcDbPolyline
90
12
70
1
43
0.0
10
505.91783705977787
20
-62.339742706664538
10
505.68151402713704
20
-62.103491002599533
10
505.0045930970785
20
-62.7806163070819
10
504.68446489766131
20
-62.460584730868561
10
504.48339834227352
20
-62.661711991812368
10
504.80352654169064
20
-62.981743568025699
10
503.18159879537205
20
-64.604161003071454
10
503.41792182801282
20
-64.840412707136466
10
505.03984957433147
20
-63.217995272090704
10
505.41193629190735
20
-63.589969684000238
10
505.61300284729521
20
-63.388842423056431
10
505.24091612971938
20
-63.016868011146904
0
SPLINE
5
276
100
AcDbEntity
8
0
100
AcDbSpline
70
0
71
2
72
6
73
3
74
0
42
0.000000001
43
0.0000000001
44
0.0000000001
40
0
40
0
40
0
40
1
40
1
40
1
10
517.86555339017593
20
-91.464348961998809
30
0
10
517.86567286480022
20
-92.255906741831183
30
0
10
517.33725686746084
20
-92.789222690651357
30
0
0
SPLINE
5
277
100
AcDbEntity
8
0
100
AcDbSpline
70
0
71
2
72
6
73
3
74
0
42
0.000000001
43
0.0000000001
44
0.0000000001
40
0
40
0
40
0
40
1
40
1
40
1
10
517.33725686746084
20
-92.789222690651357
30
0
10
516.80884087012134
20
-93.322538639471531
30
0
10
516.03623784394881
20
-93.322655253139729
30
0
0
SPLINE
5
278
100
AcDbEntity
8
0
100
AcDbSpline
70
0
71
2
72
6
73
3
74
0
42
0.000000001
43
0.0000000001
44
0.0000000001
40
0
40
0
40
0
40
1
40
1
40
1
10
516.03623784394881
20
-93.322655253139729
30
0
10
515.27074840157786
20
-93.322770793111516
30
0
10
514.73743173736636
20
-92.789615098051826
30
0
0
SPLINE
5
279
100
AcDbEntity
8
0
100
AcDbSpline
70
0
71
2
72
6
73
3
74
0
42
0.000000001
43
0.0000000001
44
0.0000000001
40
0
40
0
40
0
40
1
40
1
40
1
10
514.73743173736636
20
-92.789615098051826
30
0
10
514.20411543085049
20
-92.258829251852248
30
0
10
514.20399989087866
20
-91.493339809481341
30
0
0
SPLINE
5
280
100
AcDbEntity
8
0
100
AcDbSpline
70
0
71
2
72
6
73
3
74
0
42
0.000000001
43
0.0000000001
44
0.0000000001
40
0
40
0
40
0
40
1
40
1
40
1
10
514.20399989087866
20
-91.493339809481341
30
0
10
514.20388292012422
20
-90.718370971669884
30
0
10
514.73466472910252
20
-90.185054665763374
30
0
0
SPLINE
5
281
100
AcDbEntity
8
0
100
AcDbSpline
70
0
71
2
72
6
73
3
74
0
42
0.000000001
43
0.0000000001
44
0.0000000001
40
0
40
0
40
0
40
1
40
1
40
1
10
514.73466472910252
20
-90.185054665763374
30
0
10
515.26544653808082
20
-89.651738359856878
30
0
10
516.01909077337234
20
-89.651624607754172
30
0
0
SPLINE
5
282
100
AcDbEntity
8
0
100
AcDbSpline
70
0
71
2
72
6
73
3
74
0
42
0.000000001
43
0.0000000001
44
0.0000000001
40
0
40
0
40
0
40
1
40
1
40
1
10
516.01909077337234
20
-89.651624607754172
30
0
10
516.52151488060508
20
-89.651548773831507
30
0
10
516.95051419657352
20
-89.893216686041541
30
0
0
SPLINE
5
283
100
AcDbEntity
8
0
100
AcDbSpline
70
0
71
2
72
6
73
3
74
0
42
0.000000001
43
0.0000000001
44
0.0000000001
40
0
40
0
40
0
40
1
40
1
40
1
10
516.95051419657352
20
-89.893216686041541
30
0
10
517.37951387023759
20
-90.137254447111701
30
0
10
517.6213098429871
20
-90.556697358061214
30
0
0
SPLINE
5
284
100
AcDbEntity
8
0
100
AcDbSpline
70
0
71
2
72
6
73
3
74
0
42
0.000000001
43
0.0000000001
44
0.0000000001
40
0
40
0
40
0
40
1
40
1
40
1
10
517.6213098429871
20
-90.556697358061214
30
0
10
517.865479701818
20
-90.976139910705683
30
0
10
517.86555339017593
20
-91.464348961998809
30
0
0
SPLINE
5
285
100
AcDbEntity
8
0
100
AcDbSpline
70
0
71
2
72
6
73
3
74
0
42
0.000000001
43
0.0000000001
44
0.0000000001
40
0
40
0
40
0
40
1
40
1
40
1
10
517.52428958435371
20
-91.480993450638323
30
0
10
517.52423127751968
20
-91.094691937552042
30
0
10
517.3227297873467
20
-90.748712298270547
30
0
0
SPLINE
5
286
100
AcDbEntity
8
0
100
AcDbSpline
70
0
71
2
72
6
73
3
74
0
42
0.000000001
43
0.0000000001
44
0.0000000001
40
0
40
0
40
0
40
1
40
1
40
1
10
517.3227297873467
20
-90.748712298270547
30
0
10
517.12123637161631
20
-90.402732657770315
30
0
10
516.77993265460759
20
-90.208448487413193
30
0
0
SPLINE
5
287
100
AcDbEntity
8
0
100
AcDbSpline
70
0
71
2
72
6
73
3
74
0
42
0.000000001
43
0.0000000001
44
0.0000000001
40
0
40
0
40
0
40
1
40
1
40
1
10
516.77993265460759
20
-90.208448487413193
30
0
10
516.43862893759899
20
-90.014164317056085
30
0
10
516.01915357769212
20
-90.014227631020404
30
0
0
SPLINE
5
288
100
AcDbEntity
8
0
100
AcDbSpline
70
0
71
2
72
6
73
3
74
0
42
0.000000001
43
0.0000000001
44
0.0000000001
40
0
40
0
40
0
40
1
40
1
40
1
10
516.01915357769212
20
-90.014227631020404
30
0
10
515.3982289530104
20
-90.01432135094602
30
0
10
514.96933894301935
20
-90.44334488826172
30
0
0
SPLINE
5
289
100
AcDbEntity
8
0
100
AcDbSpline
70
0
71
2
72
6
73
3
74
0
42
0.000000001
43
0.0000000001
44
0.0000000001
40
0
40
0
40
0
40
1
40
1
40
1
10
514.96933894301935
20
-90.44334488826172
30
0
10
514.54281510236297
20
-90.874737917351226
30
0
10
514.54290667611451
20
-91.481443448872142
30
0
0
SPLINE
5
290
100
AcDbEntity
8
0
100
AcDbSpline
70
0
71
2
72
6
73
3
74
0
42
0.000000001
43
0.0000000001
44
0.0000000001
40
0
40
0
40
0
40
1
40
1
40
1
10
514.54290667611451
20
-91.481443448872142
30
0
10
514.54296784451412
20
-91.886703752839466
30
0
10
514.73972120482858
20
-92.230314259870937
30
0
0
SPLINE
5
291
100
AcDbEntity
8
0
100
AcDbSpline
70
0
71
2
72
6
73
3
74
0
42
0.000000001
43
0.0000000001
44
0.0000000001
40
0
40
0
40
0
40
1
40
1
40
1
10
514.73972120482858
20
-92.230314259870937
30
0
10
514.9364749228389
20
-92.576294615762549
30
0
10
515.27777828215176
20
-92.76820893725953
30
0
0
SPLINE
5
292
100
AcDbEntity
8
0
100
AcDbSpline
70
0
71
2
72
6
73
3
74
0
42
0.000000001
43
0.0000000001
44
0.0000000001
40
0
40
0
40
0
40
1
40
1
40
1
10
515.27777828215176
20
-92.76820893725953
30
0
10
515.61908199916047
20
-92.962493107616638
30
0
10
516.03619154742842
20
-92.962430150738626
30
0
0
SPLINE
5
293
100
AcDbEntity
8
0
100
AcDbSpline
70
0
71
2
72
6
73
3
74
0
42
0.000000001
43
0.0000000001
44
0.0000000001
40
0
40
0
40
0
40
1
40
1
40
1
10
516.03619154742842
20
-92.962430150738626
30
0
10
516.45092720961509
20
-92.962367552165674
30
0
10
516.78505867829233
20
-92.767981434272826
30
0
0
SPLINE
5
294
100
AcDbEntity
8
0
100
AcDbSpline
70
0
71
2
72
6
73
3
74
0
42
0.000000001
43
0.0000000001
44
0.0000000001
40
0
40
0
40
0
40
1
40
1
40
1
10
516.78505867829233
20
-92.767981434272826
30
0
10
517.12156439074658
20
-92.575964806935048
30
0
10
517.3229526402896
20
-92.22518465922937
30
0
0
SPLINE
5
295
100
AcDbEntity
8
0
100
AcDbSpline
70
0
71
2
72
6
73
3
74
0
42
0.000000001
43
0.0000000001
44
0.0000000001
40
0
40
0
40
0
40
1
40
1
40
1
10
517.3229526402896
20
-92.22518465922937
30
0
10
517.52434896427485
20
-91.87440451030497
30
0
10
517.52428958435371
20
-91.480993450638323
30
0
0
LINE
5
296
100
AcDbEntity
8
0
100
AcDbLine
10
516.8705775436481
20
-94.121564052928122
30
0
11
516.87062869595911
21
-94.460464551590547
31
0
0
LINE
5
297
100
AcDbEntity
8
0
100
AcDbLine
10
516.87062869595911
20
-94.460464551590547
30
0
11
516.49381061553458
21
-94.460521427032546
31
0
0
SPLINE
5
298
100
AcDbEntity
8
0
100
AcDbSpline
70
0
71
2
72
6
73
3
74
0
42
0.000000001
43
0.0000000001
44
0.0000000001
40
0
40
0
40
0
40
1
40
1
40
1
10
516.49381061553458
20
-94.460521427032546
30
0
10
516.71660737596255
20
-94.612162166689032
30
0
10
516.8256538955834
20
-94.780413054980556
30
0
0
SPLINE
5
299
100
AcDbEntity
8
0
100
AcDbSpline
70
0
71
2
72
6
73
3
74
0
42
0.000000001
43
0.0000000001
44
0.0000000001
40
0
40
0
40
0
40
1
40
1
40
1
10
516.8256538955834
20
-94.780413054980556
30
0
10
516.93706622684317
20
-94.948663586185774
30
0
10
516.93709377002028
20
-95.131145985637104
30
0
0
SPLINE
5
300
100
AcDbEntity
8
0
100
AcDbSpline
70
0
71
2
72
6
73
3
74
0
42
0.000000001
43
0.0000000001
44
0.0000000001
40
0
40
0
40
0
40
1
40
1
40
1
10
516.93709377002028
20
-95.131145985637104
30
0
10
516.93711451697936
20
-95.26860125674591
30
0
10
516.84945775550977
20
-95.425032590087994
30
0
0
LINE
5
301
100
AcDbEntity
8
0
100
AcDbLine
10
516.84945775550977
20
-95.425032590087994
30
0
11
516.56978140256808
21
-95.252067758165538
31
0
0
SPLINE
5
302
100
AcDbEntity
8
0
100
AcDbSpline
70
0
71
2
72
6
73
3
74
0
42
0.000000001
43
0.0000000001
44
0.0000000001
40
0
40
0
40
0
40
1
40
1
40
1
10
516.56978140256808
20
-95.252067758165538
30
0
10
516.61479682891229
20
-95.147783574271173
30
0
10
516.61478609743233
20
-95.076684071246007
30
0
0
SPLINE
5
303
100
AcDbEntity
8
0
100
AcDbSpline
70
0
71
2
72
6
73
3
74
0
42
0.000000001
43
0.0000000001
44
0.0000000001
40
0
40
0
40
0
40
1
40
1
40
1
10
516.61478609743233
20
-95.076684071246007
30
0
10
516.61476105751569
20
-94.910786576594376
30
0
10
516.47727849835678
20
-94.756763111033081
30
0
0
SPLINE
5
304
100
AcDbEntity
8
0
100
AcDbSpline
70
0
71
2
72
6
73
3
74
0
42
0.000000001
43
0.0000000001
44
0.0000000001
40
0
40
0
40
0
40
1
40
1
40
1
10
516.47727849835678
20
-94.756763111033081
30
0
10
516.34216982466978
20
-94.602735249945511
30
0
10
516.05539383927692
20
-94.522203671707032
30
0
0
SPLINE
5
305
100
AcDbEntity
8
0
100
AcDbSpline
70
0
71
2
72
6
73
3
74
0
42
0.000000001
43
0.0000000001
44
0.0000000001
40
0
40
0
40
0
40
1
40
1
40
1
10
516.05539383927692
20
-94.522203671707032
30
0
10
515.8349764835333
20
-94.460620868870407
30
0
10
515.16428907001011
20
-94.460722099796058
30
0
0
LINE
5
306
100
AcDbEntity
8
0
100
AcDbLine
10
515.16428907001011
20
-94.460722099796058
30
0
11
514.29215239171197
21
-94.460853736683021
31
0
0
LINE
5
307
100
AcDbEntity
8
0
100
AcDbLine
10
514.29215239171197
20
-94.460853736683021
30
0
11
514.29210123940106
21
-94.121953238020595
31
0
0
LINE
5
308
100
AcDbEntity
8
0
100
AcDbLine
10
514.29210123940106
20
-94.121953238020595
30
0
11
516.8705775436481
21
-94.121564052928122
31
0
0
LINE
5
309
100
AcDbEntity
8
0
100
AcDbLine
10
517.86662448156915
20
-98.560673642874249
30
0
11
514.29275513496987
21
-98.561213068685475
31
0
0
LINE
5
310
100
AcDbEntity
8
0
100
AcDbLine
10
514.29275513496987
20
-98.561213068685475
30
0
11
514.29270577113721
21
-98.234161814323699
31
0
0
LINE
5
311
100
AcDbEntity
8
0
100
AcDbLine
10
514.29270577113721
20
-98.234161814323699
30
0
11
514.73588769408786
21
-98.2340949221838
31
0
0
SPLINE
5
312
100
AcDbEntity
8
0
100
AcDbSpline
70
0
71
2
72
6
73
3
74
0
42
0.000000001
43
0.0000000001
44
0.0000000001
40
0
40
0
40
0
40
1
40
1
40
1
10
514.73588769408786
20
-98.2340949221838
30
0
10
514.48227027595112
20
-98.025578423316205
30
0
10
514.35425908976003
20
-97.764906289826314
30
0
0
SPLINE
5
313
100
AcDbEntity
8
0
100
AcDbSpline
70
0
71
2
72
6
73
3
74
0
42
0.000000001
43
0.0000000001
44
0.0000000001
40
0
40
0
40
0
40
1
40
1
40
1
10
514.35425908976003
20
-97.764906289826314
30
0
10
514.22624018682211
20
-97.506604006415287
30
0
10
514.22619368455491
20
-97.198511542934568
30
0
0
SPLINE
5
314
100
AcDbEntity
8
0
100
AcDbSpline
70
0
71
2
72
6
73
3
74
0
42
0.000000001
43
0.0000000001
44
0.0000000001
40
0
40
0
40
0
40
1
40
1
40
1
10
514.22619368455491
20
-97.198511542934568
30
0
10
514.22611105380486
20
-96.651056270138156
30
0
10
514.62182926058074
20
-96.262325171184273
30
0
0
SPLINE
5
315
100
AcDbEntity
8
0
100
AcDbSpline
70
0
71
2
72
6
73
3
74
0
42
0.000000001
43
0.0000000001
44
0.0000000001
40
0
40
0
40
0
40
1
40
1
40
1
10
514.62182926058074
20
-96.262325171184273
30
0
10
515.01992171113352
20
-95.8759635627855
30
0
10
515.58870158644982
20
-95.875877713383645
30
0
0
SPLINE
5
316
100
AcDbEntity
8
0
100
AcDbSpline
70
0
71
2
72
6
73
3
74
0
42
0.000000001
43
0.0000000001
44
0.0000000001
40
0
40
0
40
0
40
1
40
1
40
1
10
515.58870158644982
20
-95.875877713383645
30
0
10
516.14563625468679
20
-95.87579365185087
30
0
10
516.54147214821785
20
-96.266775125649929
30
0
0
SPLINE
5
317
100
AcDbEntity
8
0
100
AcDbSpline
70
0
71
2
72
6
73
3
74
0
42
0.000000001
43
0.0000000001
44
0.0000000001
40
0
40
0
40
0
40
1
40
1
40
1
10
516.54147214821785
20
-96.266775125649929
30
0
10
516.93730804174891
20
-96.657756599448987
30
0
10
516.93739103019459
20
-97.207581721105527
30
0
0
SPLINE
5
318
100
AcDbEntity
8
0
100
AcDbSpline
70
0
71
2
72
6
73
3
74
0
42
0.000000001
43
0.0000000001
44
0.0000000001
40
0
40
0
40
0
40
1
40
1
40
1
10
516.93739103019459
20
-97.207581721105527
30
0
10
516.93743896324452
20
-97.525153580026767
30
0
10
516.80239217395786
20
-97.781129757848021
30
0
0
SPLINE
5
319
100
AcDbEntity
8
0
100
AcDbSpline
70
0
71
2
72
6
73
3
74
0
42
0.000000001
43
0.0000000001
44
0.0000000001
40
0
40
0
40
0
40
1
40
1
40
1
10
516.80239217395786
20
-97.781129757848021
30
0
10
516.66734574175757
20
-98.039471747308156
30
0
10
516.39720422952507
20
-98.233848206808162
30
0
0
LINE
5
320
100
AcDbEntity
8
0
100
AcDbLine
10
516.39720422952507
20
-98.233848206808148
30
0
11
517.8665670439035
21
-98.233626426952412
31
0
0
LINE
5
321
100
AcDbEntity
8
0
100
AcDbLine
10
517.8665670439035
20
-98.233626426952412
30
0
11
517.86662448156915
21
-98.560673642874249
31
0
0
SPLINE
5
322
100
AcDbEntity
8
0
100
AcDbSpline
70
0
71
2
72
6
73
3
74
0
42
0.000000001
43
0.0000000001
44
0.0000000001
40
0
40
0
40
0
40
1
40
1
40
1
10
516.61746940595071
20
-97.233698346875087
30
0
10
516.61742755372745
20
-96.956413918576061
30
0
10
516.47993283230585
20
-96.721811554549092
30
0
0
SPLINE
5
323
100
AcDbEntity
8
0
100
AcDbSpline
70
0
71
2
72
6
73
3
74
0
42
0.000000001
43
0.0000000001
44
0.0000000001
40
0
40
0
40
0
40
1
40
1
40
1
10
516.47993283230585
20
-96.721811554549092
30
0
10
516.34481199696563
20
-96.487208832217064
30
0
10
516.09831853641481
20
-96.34742091381807
30
0
0
SPLINE
5
324
100
AcDbEntity
8
0
100
AcDbSpline
70
0
71
2
72
6
73
3
74
0
42
0.000000001
43
0.0000000001
44
0.0000000001
40
0
40
0
40
0
40
1
40
1
40
1
10
516.09831853641481
20
-96.34742091381807
30
0
10
515.8518254335595
20
-96.210002844279202
30
0
10
515.57691489134197
20
-96.210044338197363
30
0
0
SPLINE
5
325
100
AcDbEntity
8
0
100
AcDbSpline
70
0
71
2
72
6
73
3
74
0
42
0.000000001
43
0.0000000001
44
0.0000000001
40
0
40
0
40
0
40
1
40
1
40
1
10
515.57691489134197
20
-96.210044338197363
30
0
10
515.30437016076326
20
-96.210085475029231
30
0
10
515.05555309788303
20
-96.349948153654466
30
0
0
SPLINE
5
326
100
AcDbEntity
8
0
100
AcDbSpline
70
0
71
2
72
6
73
3
74
0
42
0.000000001
43
0.0000000001
44
0.0000000001
40
0
40
0
40
0
40
1
40
1
40
1
10
515.05555309788303
20
-96.349948153654466
30
0
10
514.80672796056035
20
-96.48981083349841
30
0
10
514.66693825429229
20
-96.724459086969858
30
0
0
SPLINE
5
327
100
AcDbEntity
8
0
100
AcDbSpline
70
0
71
2
72
6
73
3
74
0
42
0.000000001
43
0.0000000001
44
0.0000000001
40
0
40
0
40
0
40
1
40
1
40
1
10
514.66693825429229
20
-96.724459086969858
30
0
10
514.52951471674942
20
-96.961472794993867
30
0
10
514.52955549588557
20
-97.231647676712498
30
0
0
SPLINE
5
328
100
AcDbEntity
8
0
100
AcDbSpline
70
0
71
2
72
6
73
3
74
0
42
0.000000001
43
0.0000000001
44
0.0000000001
40
0
40
0
40
0
40
1
40
1
40
1
10
514.52955549588557
20
-97.231647676712498
30
0
10
514.52959663271736
20
-97.504192407291242
30
0
10
514.66709278492181
20
-97.748274166758748
30
0
0
SPLINE
5
329
100
AcDbEntity
8
0
100
AcDbSpline
70
0
71
2
72
6
73
3
74
0
42
0.000000001
43
0.0000000001
44
0.0000000001
40
0
40
0
40
0
40
1
40
1
40
1
10
514.66709278492181
20
-97.748274166758748
30
0
10
514.80458893712603
20
-97.992355926226239
30
0
10
515.0392276859817
20
-98.122670275493732
30
0
0
SPLINE
5
330
100
AcDbEntity
8
0
100
AcDbSpline
70
0
71
2
72
6
73
3
74
0
42
0.000000001
43
0.0000000001
44
0.0000000001
40
0
40
0
40
0
40
1
40
1
40
1
10
515.0392276859817
20
-98.122670275493732
30
0
10
515.2738748663661
20
-98.255350435181427
30
0
10
515.56774419946476
20
-98.255306079697746
30
0
0
SPLINE
5
331
100
AcDbEntity
8
0
100
AcDbSpline
70
0
71
2
72
6
73
3
74
0
42
0.000000001
43
0.0000000001
44
0.0000000001
40
0
40
0
40
0
40
1
40
1
40
1
10
515.56774419946476
20
-98.255306079697746
30
0
10
516.01566582013572
20
-98.255238472166468
30
0
10
516.31660402324724
20
-97.958949823806336
30
0
0
SPLINE
5
332
100
AcDbEntity
8
0
100
AcDbSpline
70
0
71
2
72
6
73
3
74
0
42
0.000000001
43
0.0000000001
44
0.0000000001
40
0
40
0
40
0
40
1
40
1
40
1
10
516.31660402324724
20
-97.958949823806336
30
0
10
516.6175425840546
20
-97.66503102430633
30
0
10
516.61746940595071
20
-97.233698346875087
30
0
0
LINE
5
333
100
AcDbEntity
8
0
100
AcDbLine
10
515.14878215401961
20
-101.76323421286193
30
0
11
515.00188566016789
21
-102.04291066837229
31
0
0
SPLINE
5
334
100
AcDbEntity
8
0
100
AcDbSpline
70
0
71
2
72
6
73
3
74
0
42
0.000000001
43
0.0000000001
44
0.0000000001
40
0
40
0
40
0
40
1
40
1
40
1
10
515.00188566016789
20
-102.04291066837229
30
0
10
514.73169406871148
20
-101.90549617579025
30
0
10
514.565769387969
20
-101.72540462789451
30
0
0
SPLINE
5
335
100
AcDbEntity
8
0
100
AcDbSpline
70
0
71
2
72
6
73
3
74
0
42
0.000000001
43
0.0000000001
44
0.0000000001
40
0
40
0
40
0
40
1
40
1
40
1
10
514.565769387969
20
-101.72540462789451
30
0
10
514.39984470722663
20
-101.54531307999878
30
0
10
514.3121222798718
20
-101.32018259919357
30
0
0
SPLINE
5
336
100
AcDbEntity
8
0
100
AcDbSpline
70
0
71
2
72
6
73
3
74
0
42
0.000000001
43
0.0000000001
44
0.0000000001
40
0
40
0
40
0
40
1
40
1
40
1
10
514.3121222798718
20
-101.32018259919357
30
0
10
514.22677373859824
20
-101.09505176008334
30
0
10
514.22673081328799
20
-100.81065778520392
30
0
0
SPLINE
5
337
100
AcDbEntity
8
0
100
AcDbSpline
70
0
71
2
72
6
73
3
74
0
42
0.000000001
43
0.0000000001
44
0.0000000001
40
0
40
0
40
0
40
1
40
1
40
1
10
514.22673081328799
20
-100.81065778520392
30
0
10
514.2266356625795
20
-100.1802537650817
30
0
10
514.63895185694651
20
-99.824702082911742
30
0
0
SPLINE
5
338
100
AcDbEntity
8
0
100
AcDbSpline
70
0
71
2
72
6
73
3
74
0
42
0.000000001
43
0.0000000001
44
0.0000000001
40
0
40
0
40
0
40
1
40
1
40
1
10
514.63895185694651
20
-99.824702082911742
30
0
10
515.05363386295221
20
-99.469150043655418
30
0
10
515.57502483550843
20
-99.469071346948567
30
0
0
SPLINE
5
339
100
AcDbEntity
8
0
100
AcDbSpline
70
0
71
2
72
6
73
3
74
0
42
0.000000001
43
0.0000000001
44
0.0000000001
40
0
40
0
40
0
40
1
40
1
40
1
10
515.57502483550843
20
-99.469071346948567
30
0
10
516.06560373566163
20
-99.468997300894969
30
0
10
516.44958082906794
20
-99.769922268656885
30
0
0
SPLINE
5
340
100
AcDbEntity
8
0
100
AcDbSpline
70
0
71
2
72
6
73
3
74
0
42
0.000000001
43
0.0000000001
44
0.0000000001
40
0
40
0
40
0
40
1
40
1
40
1
10
516.44958082906794
20
-99.769922268656885
30
0
10
516.93784343458253
20
-100.15141039627434
30
0
10
516.93794001607364
20
-100.79129381183708
30
0
0
SPLINE
5
341
100
AcDbEntity
8
0
100
AcDbSpline
70
0
71
2
72
6
73
3
74
0
42
0.000000001
43
0.0000000001
44
0.0000000001
40
0
40
0
40
0
40
1
40
1
40
1
10
516.93794001607364
20
-100.79129381183708
30
0
10
516.93803945913021
20
-101.45013601828089
30
0
10
516.43804054345753
20
-101.84362255478389
30
0
0
SPLINE
5
342
100
AcDbEntity
8
0
100
AcDbSpline
70
0
71
2
72
6
73
3
74
0
42
0.000000001
43
0.0000000001
44
0.0000000001
40
0
40
0
40
0
40
1
40
1
40
1
10
516.43804054345753
20
-101.84362255478389
30
0
10
516.08496316155322
20
-102.12333013042817
30
0
10
515.55646739502936
20
-102.12814959733299
30
0
0
LINE
5
343
100
AcDbEntity
8
0
100
AcDbLine
10
515.55646739502936
20
-102.12814959733299
30
0
11
515.55611755585278
21
-99.810352630479059
31
0
0
SPLINE
5
344
100
AcDbEntity
8
0
100
AcDbSpline
70
0
71
2
72
6
73
3
74
0
42
0.000000001
43
0.0000000001
44
0.0000000001
40
0
40
0
40
0
40
1
40
1
40
1
10
515.55611755585278
20
-99.810352630479059
30
0
10
515.10583156102871
20
-99.81994439997068
30
0
10
514.81673569611871
20
-100.09722402292597
30
0
0
SPLINE
5
345
100
AcDbEntity
8
0
100
AcDbSpline
70
0
71
2
72
6
73
3
74
0
42
0.000000001
43
0.0000000001
44
0.0000000001
40
0
40
0
40
0
40
1
40
1
40
1
10
514.81673569611871
20
-100.09722402292597
30
0
10
514.53001372460244
20
-100.37455173423096
30
0
10
514.53007525069768
20
-100.7821818870584
30
0
0
SPLINE
5
346
100
AcDbEntity
8
0
100
AcDbSpline
70
0
71
2
72
6
73
3
74
0
42
0.000000001
43
0.0000000001
44
0.0000000001
40
0
40
0
40
0
40
1
40
1
40
1
10
514.53007525069768
20
-100.7821818870584
30
0
10
514.53010494065825
20
-100.97888741689174
30
0
10
514.5988624963054
20
-101.16373332864018
30
0
0
SPLINE
5
347
100
AcDbEntity
8
0
100
AcDbSpline
70
0
71
2
72
6
73
3
74
0
42
0.000000001
43
0.0000000001
44
0.0000000001
40
0
40
0
40
0
40
1
40
1
40
1
10
514.5988624963054
20
-101.16373332864018
30
0
10
514.66762040964829
20
-101.35094908924877
30
0
10
514.78139282880659
20
-101.48127764438431
30
0
0
SPLINE
5
348
100
AcDbEntity
8
0
100
AcDbSpline
70
0
71
2
72
6
73
3
74
0
42
0.000000001
43
0.0000000001
44
0.0000000001
40
0
40
0
40
0
40
1
40
1
40
1
10
514.78139282880659
20
-101.48127764438431
30
0
10
514.89517332240735
20
-101.61160619830115
30
0
10
515.14878215401961
20
-101.76323421286193
30
0
0
SPLINE
5
349
100
AcDbEntity
8
0
100
AcDbSpline
70
0
71
2
72
6
73
3
74
0
42
0.000000001
43
0.0000000001
44
0.0000000001
40
0
40
0
40
0
40
1
40
1
40
1
10
515.84317613058658
20
-101.76312940376071
30
0
10
516.10859726188448
20
-101.6967335725416
30
0
10
516.26736993039128
20
-101.5687296922131
30
0
0
SPLINE
5
350
100
AcDbEntity
8
0
100
AcDbSpline
70
0
71
2
72
6
73
3
74
0
42
0.000000001
43
0.0000000001
44
0.0000000001
40
0
40
0
40
0
40
1
40
1
40
1
10
516.26736993039128
20
-101.5687296922131
30
0
10
516.42613488276061
20
-101.44309969918467
30
0
10
516.52327124480826
20
-101.23453025891823
30
0
0
SPLINE
5
351
100
AcDbEntity
8
0
100
AcDbSpline
70
0
71
2
72
6
73
3
74
0
42
0.000000001
43
0.0000000001
44
0.0000000001
40
0
40
0
40
0
40
1
40
1
40
1
10
516.52327124480826
20
-101.23453025891823
30
0
10
516.62040760685591
20
-101.0259608186518
30
0
10
516.62037290915566
20
-100.79607740477664
30
0
0
SPLINE
5
352
100
AcDbEntity
8
0
100
AcDbSpline
70
0
71
2
72
6
73
3
74
0
42
0.000000001
43
0.0000000001
44
0.0000000001
40
0
40
0
40
0
40
1
40
1
40
1
10
516.62037290915566
20
-100.79607740477664
30
0
10
516.62031567601798
20
-100.41688947549198
30
0
10
516.37616799492889
20
-100.14438158939686
30
0
0
SPLINE
5
353
100
AcDbEntity
8
0
100
AcDbSpline
70
0
71
2
72
6
73
3
74
0
42
0.000000001
43
0.0000000001
44
0.0000000001
40
0
40
0
40
0
40
1
40
1
40
1
10
516.37616799492889
20
-100.14438158939686
30
0
10
516.19839524554163
20
-99.945333038489125
30
0
10
515.84288638611315
20
-99.84347915707248
30
0
0
LINE
5
354
100
AcDbEntity
8
0
100
AcDbLine
10
515.84288638611315
20
-99.84347915707248
30
0
11
515.84317613058658
21
-101.76312940376071
31
0
0
LINE
5
355
100
AcDbEntity
8
0
100
AcDbLine
10
516.87190266357004
20
-102.90090936994665
30
0
11
516.87195381588117
21
-103.23980986860906
31
0
0
LINE
5
356
100
AcDbEntity
8
0
100
AcDbLine
10
516.87195381588117
20
-103.23980986860906
30
0
11
516.49513573545664
21
-103.23986674405106
31
0
0
SPLINE
5
357
100
AcDbEntity
8
0
100
AcDbSpline
70
0
71
2
72
6
73
3
74
0
42
0.000000001
43
0.0000000001
44
0.0000000001
40
0
40
0
40
0
40
1
40
1
40
1
10
516.49513573545664
20
-103.23986674405106
30
0
10
516.71793249588461
20
-103.39150748370756
30
0
10
516.82697901550546
20
-103.55975837199908
30
0
0
SPLINE
5
358
100
AcDbEntity
8
0
100
AcDbSpline
70
0
71
2
72
6
73
3
74
0
42
0.000000001
43
0.0000000001
44
0.0000000001
40
0
40
0
40
0
40
1
40
1
40
1
10
516.82697901550546
20
-103.55975837199908
30
0
10
516.93839134676512
20
-103.72800890320428
30
0
10
516.93841888994234
20
-103.9104913026556
30
0
0
SPLINE
5
359
100
AcDbEntity
8
0
100
AcDbSpline
70
0
71
2
72
6
73
3
74
0
42
0.000000001
43
0.0000000001
44
0.0000000001
40
0
40
0
40
0
40
1
40
1
40
1
10
516.93841888994234
20
-103.9104913026556
30
0
10
516.93843963690131
20
-104.04794657376443
30
0
10
516.85078287543172
20
-104.20437790710652
30
0
0
LINE
5
360
100
AcDbEntity
8
0
100
AcDbLine
10
516.85078287543172
20
-104.20437790710652
30
0
11
516.57110652249003
21
-104.03141307518405
31
0
0
SPLINE
5
361
100
AcDbEntity
8
0
100
AcDbSpline
70
0
71
2
72
6
73
3
74
0
42
0.000000001
43
0.0000000001
44
0.0000000001
40
0
40
0
40
0
40
1
40
1
40
1
10
516.57110652249003
20
-104.03141307518405
30
0
10
516.61612194883423
20
-103.9271288912897
30
0
10
516.61611121735427
20
-103.85602938826452
30
0
0
SPLINE
5
362
100
AcDbEntity
8
0
100
AcDbSpline
70
0
71
2
72
6
73
3
74
0
42
0.000000001
43
0.0000000001
44
0.0000000001
40
0
40
0
40
0
40
1
40
1
40
1
10
516.61611121735427
20
-103.85602938826452
30
0
10
516.61608617743764
20
-103.6901318936129
30
0
10
516.47860361827861
20
-103.53610842805161
30
0
0
SPLINE
5
363
100
AcDbEntity
8
0
100
AcDbSpline
70
0
71
2
72
6
73
3
74
0
42
0.000000001
43
0.0000000001
44
0.0000000001
40
0
40
0
40
0
40
1
40
1
40
1
10
516.47860361827861
20
-103.53610842805161
30
0
10
516.3434949452012
20
-103.38208460418527
30
0
10
516.05671895919897
20
-103.30154898872556
30
0
0
SPLINE
5
364
100
AcDbEntity
8
0
100
AcDbSpline
70
0
71
2
72
6
73
3
74
0
42
0.000000001
43
0.0000000001
44
0.0000000001
40
0
40
0
40
0
40
1
40
1
40
1
10
516.05671895919897
20
-103.30154898872556
30
0
10
515.83630160345524
20
-103.23996618588892
30
0
10
515.16561418993206
20
-103.24006741681458
30
0
0
LINE
5
365
100
AcDbEntity
8
0
100
AcDbLine
10
515.16561418993206
20
-103.24006741681458
30
0
11
514.29347751163402
21
-103.24019905370153
31
0
0
LINE
5
366
100
AcDbEntity
8
0
100
AcDbLine
10
514.29347751163402
20
-103.24019905370153
30
0
11
514.29342635932289
21
-102.90129855503912
31
0
0
LINE
5
367
100
AcDbEntity
8
0
100
AcDbLine
10
514.29342635932289
20
-102.90129855503912
30
0
11
516.87190266357004
21
-102.90090936994665
31
0
0
LINE
5
368
100
AcDbEntity
8
0
100
AcDbLine
10
495.85157234785675
20
-139.28609841209354
30
0
11
495.93530784415304
21
-138.95092210815653
31
0
0
SPLINE
5
369
100
AcDbEntity
8
0
100
AcDbSpline
70
0
71
2
72
6
73
3
74
0
42
0.000000001
43
0.0000000001
44
0.0000000001
40
0
40
0
40
0
40
1
40
1
40
1
10
495.93530784415304
20
-138.95092210815653
30
0
10
496.56375983937028
20
-139.13683966200549
30
0
10
496.85362913870154
20
-138.84688282575351
30
0
0
SPLINE
5
370
100
AcDbEntity
8
0
100
AcDbSpline
70
0
71
2
72
6
73
3
74
0
42
0.000000001
43
0.0000000001
44
0.0000000001
40
0
40
0
40
0
40
1
40
1
40
1
10
496.85362913870154
20
-138.84688282575351
30
0
10
496.9776191778509
20
-138.72285534315549
30
0
10
497.02956907715844
20
-138.55696816856141
30
0
0
SPLINE
5
371
100
AcDbEntity
8
0
100
AcDbSpline
70
0
71
2
72
6
73
3
74
0
42
0.000000001
43
0.0000000001
44
0.0000000001
40
0
40
0
40
0
40
1
40
1
40
1
10
497.02956907715844
20
-138.55696816856141
30
0
10
497.07980015961664
20
-138.38936269602266
30
0
10
497.03957848777969
20
-138.23521602189092
30
0
0
SPLINE
5
372
100
AcDbEntity
8
0
100
AcDbSpline
70
0
71
2
72
6
73
3
74
0
42
0.000000001
43
0.0000000001
44
0.0000000001
40
0
40
0
40
0
40
1
40
1
40
1
10
497.03957848777969
20
-138.23521602189092
30
0
10
496.99933397452276
20
-138.08104651323501
30
0
10
496.89039182219574
20
-137.97213725014996
30
0
0
SPLINE
5
373
100
AcDbEntity
8
0
100
AcDbSpline
70
0
71
2
72
6
73
3
74
0
42
0.000000001
43
0.0000000001
44
0.0000000001
40
0
40
0
40
0
40
1
40
1
40
1
10
496.89039182219574
20
-137.97213725014996
30
0
10
496.76636291200901
20
-137.84814578384288
30
0
10
496.56358780965309
20
-137.81298593601011
30
0
0
SPLINE
5
374
100
AcDbEntity
8
0
100
AcDbSpline
70
0
71
2
72
6
73
3
74
0
42
0.000000001
43
0.0000000001
44
0.0000000001
40
0
40
0
40
0
40
1
40
1
40
1
10
496.56358780965309
20
-137.81298593601011
30
0
10
496.28372253589021
20
-137.76443040928231
30
0
10
495.74579976235736
20
-137.83991975070211
30
0
0
SPLINE
5
375
100
AcDbEntity
8
0
100
AcDbSpline
70
0
71
2
72
6
73
3
74
0
42
0.000000001
43
0.0000000001
44
0.0000000001
40
0
40
0
40
0
40
1
40
1
40
1
10
495.74579976235736
20
-137.83991975070211
30
0
10
495.20453408195817
20
-137.91541816104348
30
0
10
495.02521173281127
20
-137.88694915323612
30
0
0
SPLINE
5
376
100
AcDbEntity
8
0
100
AcDbSpline
70
0
71
2
72
6
73
3
74
0
42
0.000000001
43
0.0000000001
44
0.0000000001
40
0
40
0
40
0
40
1
40
1
40
1
10
495.02521173281127
20
-137.88694915323612
30
0
10
494.72021046144152
20
-137.84342534371393
30
0
10
494.51741291464714
20
-137.64068902076593
30
0
0
SPLINE
5
377
100
AcDbEntity
8
0
100
AcDbSpline
70
0
71
2
72
6
73
3
74
0
42
0.000000001
43
0.0000000001
44
0.0000000001
40
0
40
0
40
0
40
1
40
1
40
1
10
494.51741291464714
20
-137.64068902076593
30
0
10
494.35650653199332
20
-137.47983121516734
30
0
10
494.3011813234645
20
-137.27037253797201
30
0
0
SPLINE
5
378
100
AcDbEntity
8
0
100
AcDbSpline
70
0
71
2
72
6
73
3
74
0
42
0.000000001
43
0.0000000001
44
0.0000000001
40
0
40
0
40
0
40
1
40
1
40
1
10
494.3011813234645
20
-137.27037253797201
30
0
10
494.24584469422587
20
-137.06090244351461
30
0
10
494.30949278406132
20
-136.84639038869454
30
0
0
SPLINE
5
379
100
AcDbEntity
8
0
100
AcDbSpline
70
0
71
2
72
6
73
3
74
0
42
0.000000001
43
0.0000000001
44
0.0000000001
40
0
40
0
40
0
40
1
40
1
40
1
10
494.30949278406132
20
-136.84639038869454
30
0
10
494.37314893345416
20
-136.62853542442235
30
0
10
494.53735271042427
20
-136.46428205995522
30
0
0
SPLINE
5
380
100
AcDbEntity
8
0
100
AcDbSpline
70
0
71
2
72
6
73
3
74
0
42
0.000000001
43
0.0000000001
44
0.0000000001
40
0
40
0
40
0
40
1
40
1
40
1
10
494.53735271042427
20
-136.46428205995522
30
0
10
494.71160938666543
20
-136.28997276036665
30
0
10
494.94956002208153
20
-136.22625315020483
30
0
0
SPLINE
5
381
100
AcDbEntity
8
0
100
AcDbSpline
70
0
71
2
72
6
73
3
74
0
42
0.000000001
43
0.0000000001
44
0.0000000001
40
0
40
0
40
0
40
1
40
1
40
1
10
494.94956002208153
20
-136.22625315020483
30
0
10
495.18750729634507
20
-136.15917921332877
30
0
10
495.58804116181
20
-136.2211316904278
30
0
0
LINE
5
382
100
AcDbEntity
8
0
100
AcDbLine
10
495.58804116181
20
-136.22113169042777
30
0
11
495.53949890856353
21
-136.57473577981963
31
0
0
SPLINE
5
383
100
AcDbEntity
8
0
100
AcDbSpline
70
0
71
2
72
6
73
3
74
0
42
0.000000001
43
0.0000000001
44
0.0000000001
40
0
40
0
40
0
40
1
40
1
40
1
10
495.53949890856347
20
-136.57473577981963
30
0
10
495.21605857565805
20
-136.52953330832992
30
0
10
495.05854401832175
20
-136.56978189502533
30
0
0
SPLINE
5
384
100
AcDbEntity
8
0
100
AcDbSpline
70
0
71
2
72
6
73
3
74
0
42
0.000000001
43
0.0000000001
44
0.0000000001
40
0
40
0
40
0
40
1
40
1
40
1
10
495.05854401832175
20
-136.56978189502533
30
0
10
494.90268281635622
20
-136.60833094421531
30
0
10
494.78707019326606
20
-136.72397848087874
30
0
0
SPLINE
5
385
100
AcDbEntity
8
0
100
AcDbSpline
70
0
71
2
72
6
73
3
74
0
42
0.000000001
43
0.0000000001
44
0.0000000001
40
0
40
0
40
0
40
1
40
1
40
1
10
494.78707019326606
20
-136.72397848087874
30
0
10
494.63794647878149
20
-136.87314722886921
30
0
10
494.63294378390572
20
-137.05915827493456
30
0
0
SPLINE
5
386
100
AcDbEntity
8
0
100
AcDbSpline
70
0
71
2
72
6
73
3
74
0
42
0.000000001
43
0.0000000001
44
0.0000000001
40
0
40
0
40
0
40
1
40
1
40
1
10
494.63294378390572
20
-137.05915827493456
30
0
10
494.62962799295167
20
-137.24350474907504
30
0
10
494.76202828354064
20
-137.37586506849476
30
0
0
SPLINE
5
387
100
AcDbEntity
8
0
100
AcDbSpline
70
0
71
2
72
6
73
3
74
0
42
0.000000001
43
0.0000000001
44
0.0000000001
40
0
40
0
40
0
40
1
40
1
40
1
10
494.76202828354064
20
-137.37586506849476
30
0
10
494.84248147486755
20
-137.45629397129403
30
0
10
494.9514145780613
20
-137.49817271571243
30
0
0
SPLINE
5
388
100
AcDbEntity
8
0
100
AcDbSpline
70
0
71
2
72
6
73
3
74
0
42
0.000000001
43
0.0000000001
44
0.0000000001
40
0
40
0
40
0
40
1
40
1
40
1
10
494.9514145780613
20
-137.49817271571243
30
0
10
495.06034768125511
20
-137.54005146013083
30
0
10
495.23798214146098
20
-137.54002392879536
30
0
0
SPLINE
5
389
100
AcDbEntity
8
0
100
AcDbSpline
70
0
71
2
72
6
73
3
74
0
42
0.000000001
43
0.0000000001
44
0.0000000001
40
0
40
0
40
0
40
1
40
1
40
1
10
495.23798214146098
20
-137.54002392879536
30
0
10
495.33350099257456
20
-137.53833163092315
30
0
10
495.80271505856035
20
-137.46787844386387
30
0
0
SPLINE
5
390
100
AcDbEntity
8
0
100
AcDbSpline
70
0
71
2
72
6
73
3
74
0
42
0.000000001
43
0.0000000001
44
0.0000000001
40
0
40
0
40
0
40
1
40
1
40
1
10
495.80271505856035
20
-137.46787844386387
30
0
10
496.35906752375001
20
-137.38400407047442
30
0
10
496.66240134453449
20
-137.44931912600148
30
0
0
SPLINE
5
391
100
AcDbEntity
8
0
100
AcDbSpline
70
0
71
2
72
6
73
3
74
0
42
0.000000001
43
0.0000000001
44
0.0000000001
40
0
40
0
40
0
40
1
40
1
40
1
10
496.66240134453449
20
-137.44931912600148
30
0
10
496.96572945496399
20
-137.51462847289747
30
0
10
497.15176710988914
20
-137.70060996372709
30
0
0
SPLINE
5
392
100
AcDbEntity
8
0
100
AcDbSpline
70
0
71
2
72
6
73
3
74
0
42
0.000000001
43
0.0000000001
44
0.0000000001
40
0
40
0
40
0
40
1
40
1
40
1
10
497.15176710988914
20
-137.70060996372709
30
0
10
497.41993680050564
20
-137.9686986948833
30
0
10
497.41329243370473
20
-138.37088995505312
30
0
0
SPLINE
5
393
100
AcDbEntity
8
0
100
AcDbSpline
70
0
71
2
72
6
73
3
74
0
42
0.000000001
43
0.0000000001
44
0.0000000001
40
0
40
0
40
0
40
1
40
1
40
1
10
497.41329243370473
20
-138.37088995505312
30
0
10
497.4083235501156
20
-138.77140522603599
30
0
10
497.1167787675725
20
-139.0630380514749
30
0
0
SPLINE
5
394
100
AcDbEntity
8
0
100
AcDbSpline
70
0
71
2
72
6
73
3
74
0
42
0.000000001
43
0.0000000001
44
0.0000000001
40
0
40
0
40
0
40
1
40
1
40
1
10
497.1167787675725
20
-139.0630380514749
30
0
10
496.8922554542396
20
-139.28762916805408
30
0
10
496.59062291770135
20
-139.35135660811838
30
0
0
SPLINE
5
395
100
AcDbEntity
8
0
100
AcDbSpline
70
0
71
2
72
6
73
3
74
0
42
0.000000001
43
0.0000000001
44
0.0000000001
40
0
40
0
40
0
40
1
40
1
40
1
10
496.59062291770135
20
-139.35135660811838
30
0
10
496.28731153679865
20
-139.41340571065533
30
0
10
495.85157234785675
20
-139.28609841209354
30
0
0
SPLINE
5
396
100
AcDbEntity
8
0
100
AcDbSpline
70
0
71
2
72
6
73
3
74
0
42
0.000000001
43
0.0000000001
44
0.0000000001
40
0
40
0
40
0
40
1
40
1
40
1
10
495.94165891219484
20
-134.96560501075993
30
0
10
496.02208496067863
20
-134.88515467461048
30
0
10
496.13601503513178
20
-134.88511178175617
30
0
0
SPLINE
5
397
100
AcDbEntity
8
0
100
AcDbSpline
70
0
71
2
72
6
73
3
74
0
42
0.000000001
43
0.0000000001
44
0.0000000001
40
0
40
0
40
0
40
1
40
1
40
1
10
496.13601503513178
20
-134.88511178175617
30
0
10
496.24994725032167
20
-134.88506674751875
30
0
10
496.3304175727136
20
-134.96551277621117
30
0
0
SPLINE
5
398
100
AcDbEntity
8
0
100
AcDbSpline
70
0
71
2
72
6
73
3
74
0
42
0.000000001
43
0.0000000001
44
0.0000000001
40
0
40
0
40
0
40
1
40
1
40
1
10
496.3304175727136
20
-134.96551277621117
30
0
10
496.40919191967612
20
-135.04426334148312
30
0
10
496.40920983813152
20
-135.15822410823239
30
0
0
SPLINE
5
399
100
AcDbEntity
8
0
100
AcDbSpline
70
0
71
2
72
6
73
3
74
0
42
0.000000001
43
0.0000000001
44
0.0000000001
40
0
40
0
40
0
40
1
40
1
40
1
10
496.40920983813152
20
-135.15822410823239
30
0
10
496.40919920481213
20
-135.27215633182647
30
0
10
496.32877529706496
20
-135.35260452659281
30
0
0
SPLINE
5
400
100
AcDbEntity
8
0
100
AcDbSpline
70
0
71
2
72
6
73
3
74
0
42
0.000000001
43
0.0000000001
44
0.0000000001
40
0
40
0
40
0
40
1
40
1
40
1
10
496.32877529706496
20
-135.35260452659281
30
0
10
496.25002544537199
20
-135.43137815976095
30
0
10
496.13609537091867
20
-135.43142105261524
30
0
0
SPLINE
5
401
100
AcDbEntity
8
0
100
AcDbSpline
70
0
71
2
72
6
73
3
74
0
42
0.000000001
43
0.0000000001
44
0.0000000001
40
0
40
0
40
0
40
1
40
1
40
1
10
496.13609537091867
20
-135.43142105261524
30
0
10
496.02216601004432
20
-135.43146323167517
30
0
10
495.94336311130689
20
-135.35268412324803
30
0
0
SPLINE
5
402
100
AcDbEntity
8
0
100
AcDbSpline
70
0
71
2
72
6
73
3
74
0
42
0.000000001
43
0.0000000001
44
0.0000000001
40
0
40
0
40
0
40
1
40
1
40
1
10
495.94336311130689
20
-135.35268412324803
30
0
10
495.8629156303349
20
-135.27226092907978
30
0
10
495.86290056791893
20
-135.15830872613901
30
0
0
SPLINE
5
403
100
AcDbEntity
8
0
100
AcDbSpline
70
0
71
2
72
6
73
3
74
0
42
0.000000001
43
0.0000000001
44
0.0000000001
40
0
40
0
40
0
40
1
40
1
40
1
10
495.86290056791893
20
-135.15830872613901
30
0
10
495.86290834692284
20
-135.04437935772245
30
0
10
495.94165891219484
20
-134.96560501075993
30
0
0
LWPOLYLINE
5
404
100
AcDbEntity
8
0
100
AcDbPolyline
90
4
70
1
43
0.0
10
496.81150063315562
20
-135.59725551261818
10
496.57524822376098
20
-135.83357926730011
10
498.39879298338502
20
-137.65657350535284
10
498.63504539277972
20
-137.42024975067085
0
LWPOLYLINE
5
405
100
AcDbEntity
8
0
100
AcDbPolyline
90
4
70
1
43
0.0
10
496.99083241247433
20
-134.00999291330763
10
496.75625548629159
20
-134.24464067880268
10
499.28373854584015
20
-136.77136070035169
10
499.51831547202295
20
-136.53671293485664
0
LINE
5
406
100
AcDbEntity
8
0
100
AcDbLine
10
501.13361973569482
20
-133.71081664880089
30
0
11
501.43524593364822
21
-133.61692203214074
31
0
0
SPLINE
5
407
100
AcDbEntity
8
0
100
AcDbSpline
70
0
71
2
72
6
73
3
74
0
42
0.000000001
43
0.0000000001
44
0.0000000001
40
0
40
0
40
0
40
1
40
1
40
1
10
501.43524593364816
20
-133.61692203214074
30
0
10
501.52913281713052
20
-133.90514376873432
30
0
10
501.51912176177268
20
-134.1498191855913
30
0
0
SPLINE
5
408
100
AcDbEntity
8
0
100
AcDbSpline
70
0
71
2
72
6
73
3
74
0
42
0.000000001
43
0.0000000001
44
0.0000000001
40
0
40
0
40
0
40
1
40
1
40
1
10
501.51912176177268
20
-134.1498191855913
30
0
10
501.50910570963879
20
-134.39448818002285
30
0
10
501.41193712704256
20
-134.61570360145171
30
0
0
SPLINE
5
409
100
AcDbEntity
8
0
100
AcDbSpline
70
0
71
2
72
6
73
3
74
0
42
0.000000001
43
0.0000000001
44
0.0000000001
40
0
40
0
40
0
40
1
40
1
40
1
10
501.41193712704256
20
-134.61570360145171
30
0
10
501.31308398972703
20
-134.83523497672212
30
0
10
501.11201886851757
20
-135.03636081709575
30
0
0
SPLINE
5
410
100
AcDbEntity
8
0
100
AcDbSpline
70
0
71
2
72
6
73
3
74
0
42
0.000000001
43
0.0000000001
44
0.0000000001
40
0
40
0
40
0
40
1
40
1
40
1
10
501.11201886851757
20
-135.03636081709575
30
0
10
500.66632320827551
20
-135.48219107188027
30
0
10
500.12335791074094
20
-135.44205323312249
30
0
0
SPLINE
5
411
100
AcDbEntity
8
0
100
AcDbSpline
70
0
71
2
72
6
73
3
74
0
42
0.000000001
43
0.0000000001
44
0.0000000001
40
0
40
0
40
0
40
1
40
1
40
1
10
500.12335791074094
20
-135.44205323312249
30
0
10
499.57872019277596
20
-135.40024205167407
30
0
10
499.20998544058955
20
-135.03161861917647
30
0
0
SPLINE
5
412
100
AcDbEntity
8
0
100
AcDbSpline
70
0
71
2
72
6
73
3
74
0
42
0.000000001
43
0.0000000001
44
0.0000000001
40
0
40
0
40
0
40
1
40
1
40
1
10
499.20998544058955
20
-135.03161861917647
30
0
10
498.86304140301047
20
-134.68477932274828
30
0
10
498.80431395129136
20
-134.200481146692
30
0
0
SPLINE
5
413
100
AcDbEntity
8
0
100
AcDbSpline
70
0
71
2
72
6
73
3
74
0
42
0.000000001
43
0.0000000001
44
0.0000000001
40
0
40
0
40
0
40
1
40
1
40
1
10
498.80431395129136
20
-134.200481146692
30
0
10
498.72881725564207
20
-133.58548164420762
30
0
10
499.1812155623104
20
-133.13294671888104
30
0
0
SPLINE
5
414
100
AcDbEntity
8
0
100
AcDbSpline
70
0
71
2
72
6
73
3
74
0
42
0.000000001
43
0.0000000001
44
0.0000000001
40
0
40
0
40
0
40
1
40
1
40
1
10
499.1812155623104
20
-133.13294671888104
30
0
10
499.64701702109465
20
-132.66700459385353
30
0
10
500.27880022191471
20
-132.74231520255438
30
0
0
SPLINE
5
415
100
AcDbEntity
8
0
100
AcDbSpline
70
0
71
2
72
6
73
3
74
0
42
0.000000001
43
0.0000000001
44
0.0000000001
40
0
40
0
40
0
40
1
40
1
40
1
10
500.27880022191471
20
-132.74231520255438
30
0
10
500.72624604466228
20
-132.79419618827075
30
0
10
501.10335616207669
20
-133.16449195150884
30
0
0
LINE
5
416
100
AcDbEntity
8
0
100
AcDbLine
10
501.10335616207669
20
-133.16449195150884
30
0
11
499.46467149953611
21
-134.80367147642283
31
0
0
SPLINE
5
417
100
AcDbEntity
8
0
100
AcDbSpline
70
0
71
2
72
6
73
3
74
0
42
0.000000001
43
0.0000000001
44
0.0000000001
40
0
40
0
40
0
40
1
40
1
40
1
10
499.46467149953611
20
-134.80367147642283
30
0
10
499.78985490965704
20
-135.11528862643979
30
0
10
500.19034357169505
20
-135.12364324348007
30
0
0
SPLINE
5
418
100
AcDbEntity
8
0
100
AcDbSpline
70
0
71
2
72
6
73
3
74
0
42
0.000000001
43
0.0000000001
44
0.0000000001
40
0
40
0
40
0
40
1
40
1
40
1
10
500.19034357169505
20
-135.12364324348007
30
0
10
500.58918621399704
20
-135.13028668845186
30
0
10
500.87738003011651
20
-134.84200584138674
30
0
0
SPLINE
5
419
100
AcDbEntity
8
0
100
AcDbSpline
70
0
71
2
72
6
73
3
74
0
42
0.000000001
43
0.0000000001
44
0.0000000001
40
0
40
0
40
0
40
1
40
1
40
1
10
500.87738003011651
20
-134.84200584138674
30
0
10
501.01645013175124
20
-134.70289374231214
30
0
10
501.09856482750365
20
-134.5235982648685
30
0
0
SPLINE
5
420
100
AcDbEntity
8
0
100
AcDbSpline
70
0
71
2
72
6
73
3
74
0
42
0.000000001
43
0.0000000001
44
0.0000000001
40
0
40
0
40
0
40
1
40
1
40
1
10
501.09856482750365
20
-134.5235982648685
30
0
10
501.1823550064679
20
-134.34262679823794
30
0
10
501.19402840791162
20
-134.16998637803121
30
0
0
SPLINE
5
421
100
AcDbEntity
8
0
100
AcDbSpline
70
0
71
2
72
6
73
3
74
0
42
0.000000001
43
0.0000000001
44
0.0000000001
40
0
40
0
40
0
40
1
40
1
40
1
10
501.19402840791162
20
-134.16998637803121
30
0
10
501.20573036113012
20
-133.99737450097967
30
0
10
501.13361973569482
20
-133.71081664880089
30
0
0
SPLINE
5
422
100
AcDbEntity
8
0
100
AcDbSpline
70
0
71
2
72
6
73
3
74
0
42
0.000000001
43
0.0000000001
44
0.0000000001
40
0
40
0
40
0
40
1
40
1
40
1
10
500.64253491768602
20
-133.21988008752359
30
0
10
500.40789775095226
20
-133.07914367535798
30
0
10
500.2051239589178
20
-133.05739043091458
30
0
0
SPLINE
5
423
100
AcDbEntity
8
0
100
AcDbSpline
70
0
71
2
72
6
73
3
74
0
42
0.000000001
43
0.0000000001
44
0.0000000001
40
0
40
0
40
0
40
1
40
1
40
1
10
500.2051239589178
20
-133.05739043091458
30
0
10
500.00402565009506
20
-133.0339611972843
30
0
10
499.78785329662628
20
-133.11275058145591
30
0
0
SPLINE
5
424
100
AcDbEntity
8
0
100
AcDbSpline
70
0
71
2
72
6
73
3
74
0
42
0.000000001
43
0.0000000001
44
0.0000000001
40
0
40
0
40
0
40
1
40
1
40
1
10
499.78785329662628
20
-133.11275058145591
30
0
10
499.57169807422235
20
-133.19155709152068
30
0
10
499.40916978046408
20
-133.35413446680087
30
0
0
SPLINE
5
425
100
AcDbEntity
8
0
100
AcDbSpline
70
0
71
2
72
6
73
3
74
0
42
0.000000001
43
0.0000000001
44
0.0000000001
40
0
40
0
40
0
40
1
40
1
40
1
10
499.40916978046408
20
-133.35413446680087
30
0
10
499.14108247646567
20
-133.62230272982859
30
0
10
499.12103022310021
20
-133.98763195803352
30
0
0
SPLINE
5
426
100
AcDbEntity
8
0
100
AcDbSpline
70
0
71
2
72
6
73
3
74
0
42
0.000000001
43
0.0000000001
44
0.0000000001
40
0
40
0
40
0
40
1
40
1
40
1
10
499.12103022310021
20
-133.98763195803352
30
0
10
499.10599167922589
20
-134.25409056392388
30
0
10
499.28535284554863
20
-134.5774948531766
30
0
0
LINE
5
427
100
AcDbEntity
8
0
100
AcDbLine
10
499.28535284554863
20
-134.5774948531766
30
0
11
500.64253491768602
21
-133.21988008752359
31
0
0
LINE
5
428
100
AcDbEntity
8
0
100
AcDbLine
10
500.80845717481679
20
-131.59910336053707
30
0
11
501.04303338742068
21
-131.3644563088364
31
0
0
LINE
5
429
100
AcDbEntity
8
0
100
AcDbLine
10
501.04303338742068
20
-131.3644563088364
30
0
11
501.36985984440173
21
-131.69118409809144
31
0
0
SPLINE
5
430
100
AcDbEntity
8
0
100
AcDbSpline
70
0
71
2
72
6
73
3
74
0
42
0.000000001
43
0.0000000001
44
0.0000000001
40
0
40
0
40
0
40
1
40
1
40
1
10
501.36985984440173
20
-131.69118409809144
30
0
10
501.32288892995882
20
-131.36273618147297
30
0
10
501.40161309289726
20
-131.09962371549722
30
0
0
SPLINE
5
431
100
AcDbEntity
8
0
100
AcDbSpline
70
0
71
2
72
6
73
3
74
0
42
0.000000001
43
0.0000000001
44
0.0000000001
40
0
40
0
40
0
40
1
40
1
40
1
10
501.40161309289726
20
-131.09962371549722
30
0
10
501.47866412182628
20
-130.83483862062513
30
0
10
501.67972924303569
20
-130.63371278025153
30
0
0
SPLINE
5
432
100
AcDbEntity
8
0
100
AcDbSpline
70
0
71
2
72
6
73
3
74
0
42
0.000000001
43
0.0000000001
44
0.0000000001
40
0
40
0
40
0
40
1
40
1
40
1
10
501.67972924303569
20
-130.63371278025153
30
0
10
501.88414533066884
20
-130.42923496150408
30
0
10
502.1455592179592
20
-130.37556479912425
30
0
0
SPLINE
5
433
100
AcDbEntity
8
0
100
AcDbSpline
70
0
71
2
72
6
73
3
74
0
42
0.000000001
43
0.0000000001
44
0.0000000001
40
0
40
0
40
0
40
1
40
1
40
1
10
502.1455592179592
20
-130.37556479912425
30
0
10
502.40865287165866
20
-130.32022578377729
30
0
10
502.66003990066554
20
-130.42073771537821
30
0
0
SPLINE
5
434
100
AcDbEntity
8
0
100
AcDbSpline
70
0
71
2
72
6
73
3
74
0
42
0.000000001
43
0.0000000001
44
0.0000000001
40
0
40
0
40
0
40
1
40
1
40
1
10
502.66003990066554
20
-130.42073771537821
30
0
10
502.91142692967242
20
-130.5212496469791
30
0
10
503.2835022395227
20
-130.89321262863825
30
0
0
LINE
5
435
100
AcDbEntity
8
0
100
AcDbLine
10
503.2835022395227
20
-130.89321262863825
30
0
11
504.22209615668038
21
-131.83152318768509
31
0
0
LINE
5
436
100
AcDbEntity
8
0
100
AcDbLine
10
504.22209615668038
20
-131.83152318768509
30
0
11
503.98919542728828
21
-132.06449425019883
31
0
0
LINE
5
437
100
AcDbEntity
8
0
100
AcDbLine
10
503.98919542728828
20
-132.06449425019883
30
0
11
503.11931992197162
21
-131.19488135715292
31
0
0
SPLINE
5
438
100
AcDbEntity
8
0
100
AcDbSpline
70
0
71
2
72
6
73
3
74
0
42
0.000000001
43
0.0000000001
44
0.0000000001
40
0
40
0
40
0
40
1
40
1
40
1
10
503.11931992197162
20
-131.19488135715292
30
0
10
502.80422253412149
20
-130.87987909606522
30
0
10
502.67182891197615
20
-130.80114376261432
30
0
0
SPLINE
5
439
100
AcDbEntity
8
0
100
AcDbSpline
70
0
71
2
72
6
73
3
74
0
42
0.000000001
43
0.0000000001
44
0.0000000001
40
0
40
0
40
0
40
1
40
1
40
1
10
502.67182891197615
20
-130.80114376261432
30
0
10
502.44892357878325
20
-130.66207988814656
30
0
10
502.24280611244194
20
-130.68725275895946
30
0
0
SPLINE
5
440
100
AcDbEntity
8
0
100
AcDbSpline
70
0
71
2
72
6
73
3
74
0
42
0.000000001
43
0.0000000001
44
0.0000000001
40
0
40
0
40
0
40
1
40
1
40
1
10
502.24280611244194
20
-130.68725275895946
30
0
10
502.03501122889395
20
-130.71074586465625
30
0
10
501.84902545659105
20
-130.8967878023476
30
0
0
SPLINE
5
441
100
AcDbEntity
8
0
100
AcDbSpline
70
0
71
2
72
6
73
3
74
0
42
0.000000001
43
0.0000000001
44
0.0000000001
40
0
40
0
40
0
40
1
40
1
40
1
10
501.84902545659105
20
-130.8967878023476
30
0
10
501.63623052574104
20
-131.1096469946184
30
0
10
501.60778981477023
20
-131.41967391127733
30
0
0
SPLINE
5
442
100
AcDbEntity
8
0
100
AcDbSpline
70
0
71
2
72
6
73
3
74
0
42
0.000000001
43
0.0000000001
44
0.0000000001
40
0
40
0
40
0
40
1
40
1
40
1
10
501.60778981477023
20
-131.41967391127733
30
0
10
501.58102315985343
20
-131.72802626633808
30
0
10
501.73524034980437
20
-131.98943068343817
30
0
0
SPLINE
5
443
100
AcDbEntity
8
0
100
AcDbSpline
70
0
71
2
72
6
73
3
74
0
42
0.000000001
43
0.0000000001
44
0.0000000001
40
0
40
0
40
0
40
1
40
1
40
1
10
501.73524034980437
20
-131.98943068343817
30
0
10
501.83748438341195
20
-132.15867174441718
30
0
10
502.19783062413137
20
-132.51890919790901
30
0
0
LINE
5
444
100
AcDbEntity
8
0
100
AcDbLine
10
502.19783062413126
20
-132.51890919790901
30
0
11
502.86658171666312
21
-133.18745839690325
31
0
0
LINE
5
445
100
AcDbEntity
8
0
100
AcDbLine
10
502.86658171666312
20
-133.18745839690325
30
0
11
502.63200764479575
21
-133.42210330722082
31
0
0
LINE
5
446
100
AcDbEntity
8
0
100
AcDbLine
10
502.63200764479575
20
-133.42210330722082
30
0
11
500.80845717481679
21
-131.59910336053707
31
0
0
LINE
5
447
100
AcDbEntity
8
0
100
AcDbLine
10
505.24734257155552
20
-127.91643604338255
30
0
11
505.17700290832727
21
-128.21808917700628
31
0
0
SPLINE
5
448
100
AcDbEntity
8
0
100
AcDbSpline
70
0
71
2
72
6
73
3
74
0
42
0.000000001
43
0.0000000001
44
0.0000000001
40
0
40
0
40
0
40
1
40
1
40
1
10
505.17700290832738
20
-128.21808917700628
30
0
10
504.61559655228768
20
-128.13940862041588
30
0
10
504.19838553380458
20
-128.55674563143407
30
0
0
SPLINE
5
449
100
AcDbEntity
8
0
100
AcDbSpline
70
0
71
2
72
6
73
3
74
0
42
0.000000001
43
0.0000000001
44
0.0000000001
40
0
40
0
40
0
40
1
40
1
40
1
10
504.19838553380458
20
-128.55674563143407
30
0
10
503.86495153022884
20
-128.89028032792902
30
0
10
503.85831721995481
20
-129.32599273451177
30
0
0
SPLINE
5
450
100
AcDbEntity
8
0
100
AcDbSpline
70
0
71
2
72
6
73
3
74
0
42
0.000000001
43
0.0000000001
44
0.0000000001
40
0
40
0
40
0
40
1
40
1
40
1
10
503.85831721995481
20
-129.32599273451177
30
0
10
503.85335268253755
20
-129.76002344327657
30
0
10
504.1600672692756
20
-130.06664543398955
30
0
0
SPLINE
5
451
100
AcDbEntity
8
0
100
AcDbSpline
70
0
71
2
72
6
73
3
74
0
42
0.000000001
43
0.0000000001
44
0.0000000001
40
0
40
0
40
0
40
1
40
1
40
1
10
504.1600672692756
20
-130.06664543398955
30
0
10
504.35951854805103
20
-130.26603649914489
30
0
10
504.63603925239329
20
-130.3414071653533
30
0
0
SPLINE
5
452
100
AcDbEntity
8
0
100
AcDbSpline
70
0
71
2
72
6
73
3
74
0
42
0.000000001
43
0.0000000001
44
0.0000000001
40
0
40
0
40
0
40
1
40
1
40
1
10
504.63603925239329
20
-130.3414071653533
30
0
10
504.91423543994733
20
-130.41510184237481
30
0
10
505.18737996901746
20
-130.33630100231136
30
0
0
SPLINE
5
453
100
AcDbEntity
8
0
100
AcDbSpline
70
0
71
2
72
6
73
3
74
0
42
0.000000001
43
0.0000000001
44
0.0000000001
40
0
40
0
40
0
40
1
40
1
40
1
10
505.18737996901746
20
-130.33630100231136
30
0
10
505.46220140845725
20
-130.25582274547224
30
0
10
505.68169827215468
20
-130.03625959645382
30
0
0
SPLINE
5
454
100
AcDbEntity
8
0
100
AcDbSpline
70
0
71
2
72
6
73
3
74
0
42
0.000000001
43
0.0000000001
44
0.0000000001
40
0
40
0
40
0
40
1
40
1
40
1
10
505.68169827215468
20
-130.03625959645382
30
0
10
506.08382994173127
20
-129.63400648811782
30
0
10
506.0183837422889
20
-129.05921600113544
30
0
0
LINE
5
455
100
AcDbEntity
8
0
100
AcDbLine
10
506.0183837422889
20
-129.05921600113541
30
0
11
506.32671958041414
21
-128.99548719222381
31
0
0
SPLINE
5
456
100
AcDbEntity
8
0
100
AcDbSpline
70
0
71
2
72
6
73
3
74
0
42
0.000000001
43
0.0000000001
44
0.0000000001
40
0
40
0
40
0
40
1
40
1
40
1
10
506.32671958041414
20
-128.99548719222381
30
0
10
506.39212690881902
20
-129.32225873030109
30
0
10
506.27989100388186
20
-129.65240142296042
30
0
0
SPLINE
5
457
100
AcDbEntity
8
0
100
AcDbSpline
70
0
71
2
72
6
73
3
74
0
42
0.000000001
43
0.0000000001
44
0.0000000001
40
0
40
0
40
0
40
1
40
1
40
1
10
506.27989100388186
20
-129.65240142296042
30
0
10
506.16766315850202
20
-129.97920120616757
30
0
10
505.88617056165106
20
-130.26077881027936
30
0
0
SPLINE
5
458
100
AcDbEntity
8
0
100
AcDbSpline
70
0
71
2
72
6
73
3
74
0
42
0.000000001
43
0.0000000001
44
0.0000000001
40
0
40
0
40
0
40
1
40
1
40
1
10
505.88617056165106
20
-130.26077881027936
30
0
10
505.45388019426139
20
-130.6931997239798
30
0
10
504.89416298362266
20
-130.70333864246186
30
0
0
SPLINE
5
459
100
AcDbEntity
8
0
100
AcDbSpline
70
0
71
2
72
6
73
3
74
0
42
0.000000001
43
0.0000000001
44
0.0000000001
40
0
40
0
40
0
40
1
40
1
40
1
10
504.89416298362266
20
-130.70333864246186
30
0
10
504.33444577298388
20
-130.71347756094389
30
0
10
503.9405797485262
20
-130.31973044321532
30
0
0
SPLINE
5
460
100
AcDbEntity
8
0
100
AcDbSpline
70
0
71
2
72
6
73
3
74
0
42
0.000000001
43
0.0000000001
44
0.0000000001
40
0
40
0
40
0
40
1
40
1
40
1
10
503.9405797485262
20
-130.31973044321532
30
0
10
503.6757563259286
20
-130.05498696985174
30
0
10
503.58186381288374
20
-129.69638502581671
30
0
0
SPLINE
5
461
100
AcDbEntity
8
0
100
AcDbSpline
70
0
71
2
72
6
73
3
74
0
42
0.000000001
43
0.0000000001
44
0.0000000001
40
0
40
0
40
0
40
1
40
1
40
1
10
503.58186381288374
20
-129.69638502581671
30
0
10
503.48796222833136
20
-129.33442304643634
30
0
10
503.59348206916286
20
-128.97410955119182
30
0
0
SPLINE
5
462
100
AcDbEntity
8
0
100
AcDbSpline
70
0
71
2
72
6
73
3
74
0
42
0.000000001
43
0.0000000001
44
0.0000000001
40
0
40
0
40
0
40
1
40
1
40
1
10
503.59348206916286
20
-128.97410955119182
30
0
10
503.69900762034945
20
-128.61380176457834
30
0
10
503.98720215004772
20
-128.32552020371887
30
0
0
SPLINE
5
463
100
AcDbEntity
8
0
100
AcDbSpline
70
0
71
2
72
6
73
3
74
0
42
0.000000001
43
0.0000000001
44
0.0000000001
40
0
40
0
40
0
40
1
40
1
40
1
10
503.98720215004772
20
-128.32552020371887
30
0
10
504.16816004555727
20
-128.14450766117699
30
0
10
504.39102600087563
20
-128.0321954048479
30
0
0
SPLINE
5
464
100
AcDbEntity
8
0
100
AcDbSpline
70
0
71
2
72
6
73
3
74
0
42
0.000000001
43
0.0000000001
44
0.0000000001
40
0
40
0
40
0
40
1
40
1
40
1
10
504.39102600087563
20
-128.0321954048479
30
0
10
504.61556601224805
20
-127.91820858692061
30
0
10
504.82168440063413
20
-127.88968852561324
30
0
0
SPLINE
5
465
100
AcDbEntity
8
0
100
AcDbSpline
70
0
71
2
72
6
73
3
74
0
42
0.000000001
43
0.0000000001
44
0.0000000001
40
0
40
0
40
0
40
1
40
1
40
1
10
504.82168440063413
20
-127.88968852561324
30
0
10
505.02780849937506
20
-127.8611741729369
30
0
10
505.24734257155552
20
-127.91643604338255
30
0
0
LINE
5
466
100
AcDbEntity
8
0
100
AcDbLine
10
508.27054456008028
20
-126.57173656194283
30
0
11
508.57217004445482
21
-126.47784265907703
31
0
0
SPLINE
5
467
100
AcDbEntity
8
0
100
AcDbSpline
70
0
71
2
72
6
73
3
74
0
42
0.000000001
43
0.0000000001
44
0.0000000001
40
0
40
0
40
0
40
1
40
1
40
1
10
508.57217004445482
20
-126.47784265907703
30
0
10
508.66605621435826
20
-126.76606510946499
30
0
10
508.65604587257934
20
-127.0107398125276
30
0
0
SPLINE
5
468
100
AcDbEntity
8
0
100
AcDbSpline
70
0
71
2
72
6
73
3
74
0
42
0.000000001
43
0.0000000001
44
0.0000000001
40
0
40
0
40
0
40
1
40
1
40
1
10
508.65604587257934
20
-127.0107398125276
30
0
10
508.64602839328768
20
-127.25541023454792
30
0
10
508.54886195142808
20
-127.47662351459365
30
0
0
SPLINE
5
469
100
AcDbEntity
8
0
100
AcDbSpline
70
0
71
2
72
6
73
3
74
0
42
0.000000001
43
0.0000000001
44
0.0000000001
40
0
40
0
40
0
40
1
40
1
40
1
10
508.54886195142808
20
-127.47662351459365
30
0
10
508.45000952769141
20
-127.69615417606971
30
0
10
508.24894297932423
20
-127.89728144403206
30
0
0
SPLINE
5
470
100
AcDbEntity
8
0
100
AcDbSpline
70
0
71
2
72
6
73
3
74
0
42
0.000000001
43
0.0000000001
44
0.0000000001
40
0
40
0
40
0
40
1
40
1
40
1
10
508.24894297932423
20
-127.89728144403206
30
0
10
507.80324731908206
20
-128.34311169881659
30
0
10
507.26028130796868
20
-128.30297457385319
30
0
0
SPLINE
5
471
100
AcDbEntity
8
0
100
AcDbSpline
70
0
71
2
72
6
73
3
74
0
42
0.000000001
43
0.0000000001
44
0.0000000001
40
0
40
0
40
0
40
1
40
1
40
1
10
507.26028130796868
20
-128.30297457385319
30
0
10
506.71564216284594
20
-128.26116481999347
30
0
10
506.34690741065953
20
-127.8925413874959
30
0
0
SPLINE
5
472
100
AcDbEntity
8
0
100
AcDbSpline
70
0
71
2
72
6
73
3
74
0
42
0.000000001
43
0.0000000001
44
0.0000000001
40
0
40
0
40
0
40
1
40
1
40
1
10
506.34690741065953
20
-127.8925413874959
30
0
10
505.9999633730805
20
-127.54570209106774
30
0
10
505.94123663494025
20
-127.06140320121706
30
0
0
SPLINE
5
473
100
AcDbEntity
8
0
100
AcDbSpline
70
0
71
2
72
6
73
3
74
0
42
0.000000001
43
0.0000000001
44
0.0000000001
40
0
40
0
40
0
40
1
40
1
40
1
10
505.94123663494025
20
-127.06140320121706
30
0
10
505.86573993929096
20
-126.44640369873267
30
0
10
506.31813753238043
20
-125.99386948720047
30
0
0
SPLINE
5
474
100
AcDbEntity
8
0
100
AcDbSpline
70
0
71
2
72
6
73
3
74
0
42
0.000000001
43
0.0000000001
44
0.0000000001
40
0
40
0
40
0
40
1
40
1
40
1
10
506.31813753238043
20
-125.99386948720047
30
0
10
506.78393899116463
20
-125.52792736217297
30
0
10
507.41572147840589
20
-125.60323868466821
30
0
0
SPLINE
5
475
100
AcDbEntity
8
0
100
AcDbSpline
70
0
71
2
72
6
73
3
74
0
42
0.000000001
43
0.0000000001
44
0.0000000001
40
0
40
0
40
0
40
1
40
1
40
1
10
507.41572147840589
20
-125.60323868466821
30
0
10
507.86316658757448
20
-125.65512038417891
30
0
10
508.24027884572558
20
-126.02541400603391
30
0
0
LINE
5
476
100
AcDbEntity
8
0
100
AcDbLine
10
508.24027884572564
20
-126.02541400603391
30
0
11
506.60159489676391
21
-127.66459281715353
31
0
0
SPLINE
5
477
100
AcDbEntity
8
0
100
AcDbSpline
70
0
71
2
72
6
73
3
74
0
42
0.000000001
43
0.0000000001
44
0.0000000001
40
0
40
0
40
0
40
1
40
1
40
1
10
506.60159489676391
20
-127.66459281715353
30
0
10
506.9267790204637
20
-127.97620925337611
30
0
10
507.3272669689228
20
-127.98456458421074
30
0
0
SPLINE
5
478
100
AcDbEntity
8
0
100
AcDbSpline
70
0
71
2
72
6
73
3
74
0
42
0.000000001
43
0.0000000001
44
0.0000000001
40
0
40
0
40
0
40
1
40
1
40
1
10
507.3272669689228
20
-127.98456458421074
30
0
10
507.72610889764593
20
-127.99120874297691
30
0
10
508.0143034273442
20
-127.70292718211743
30
0
0
SPLINE
5
479
100
AcDbEntity
8
0
100
AcDbSpline
70
0
71
2
72
6
73
3
74
0
42
0.000000001
43
0.0000000001
44
0.0000000001
40
0
40
0
40
0
40
1
40
1
40
1
10
508.0143034273442
20
-127.70292718211743
30
0
10
508.1533742425579
20
-127.56381436924846
30
0
10
508.2354882247314
20
-127.38451960559919
30
0
0
SPLINE
5
480
100
AcDbEntity
8
0
100
AcDbSpline
70
0
71
2
72
6
73
3
74
0
42
0.000000001
43
0.0000000001
44
0.0000000001
40
0
40
0
40
0
40
1
40
1
40
1
10
508.2354882247314
20
-127.38451960559919
30
0
10
508.31927911727456
20
-127.20354742517426
30
0
10
508.33095180513931
20
-127.0309077187619
30
0
0
SPLINE
5
481
100
AcDbEntity
8
0
100
AcDbSpline
70
0
71
2
72
6
73
3
74
0
42
0.000000001
43
0.0000000001
44
0.0000000001
40
0
40
0
40
0
40
1
40
1
40
1
10
508.33095180513931
20
-127.0309077187619
30
0
10
508.34265304477901
20
-126.85829655550475
30
0
10
508.27054456008028
20
-126.57173656194283
30
0
0
SPLINE
5
482
100
AcDbEntity
8
0
100
AcDbSpline
70
0
71
2
72
6
73
3
74
0
42
0.000000001
43
0.0000000001
44
0.0000000001
40
0
40
0
40
0
40
1
40
1
40
1
10
507.77945974207159
20
-126.08080000066553
30
0
10
507.54482257533778
20
-125.94006358849992
30
0
10
507.34204806972434
20
-125.9183110578509
30
0
0
SPLINE
5
483
100
AcDbEntity
8
0
100
AcDbSpline
70
0
71
2
72
6
73
3
74
0
42
0.000000001
43
0.0000000001
44
0.0000000001
40
0
40
0
40
0
40
1
40
1
40
1
10
507.34204806972434
20
-125.9183110578509
30
0
10
507.14095047448063
20
-125.89488111042625
30
0
10
506.92477812101174
20
-125.97367049459785
30
0
0
SPLINE
5
484
100
AcDbEntity
8
0
100
AcDbSpline
70
0
71
2
72
6
73
3
74
0
42
0.000000001
43
0.0000000001
44
0.0000000001
40
0
40
0
40
0
40
1
40
1
40
1
10
506.92477812101174
20
-125.97367049459785
30
0
10
506.70862289860787
20
-126.05247700466263
30
0
10
506.54609531842851
20
-126.21505366614842
30
0
0
SPLINE
5
485
100
AcDbEntity
8
0
100
AcDbSpline
70
0
71
2
72
6
73
3
74
0
42
0.000000001
43
0.0000000001
44
0.0000000001
40
0
40
0
40
0
40
1
40
1
40
1
10
506.54609531842851
20
-126.21505366614842
30
0
10
506.27800801443004
20
-126.48322192917617
30
0
10
506.25795576106464
20
-126.84855115738111
30
0
0
SPLINE
5
486
100
AcDbEntity
8
0
100
AcDbSpline
70
0
71
2
72
6
73
3
74
0
42
0.000000001
43
0.0000000001
44
0.0000000001
40
0
40
0
40
0
40
1
40
1
40
1
10
506.25795576106464
20
-126.84855115738111
30
0
10
506.24291721719027
20
-127.11500976327144
30
0
10
506.422278383513
20
-127.43841405252417
30
0
0
LINE
5
487
100
AcDbEntity
8
0
100
AcDbLine
10
506.422278383513
20
-127.43841405252417
30
0
11
507.77945974207159
21
-126.08080000066553
31
0
0
LWPOLYLINE
5
488
100
AcDbEntity
8
0
100
AcDbPolyline
90
4
70
1
43
0.0
10
466.95067744992389
20
-146.90959344581901
10
465.64721213020391
20
-146.90979023125757
10
465.64725578099825
20
-147.19892390385576
10
466.95072110071817
20
-147.19872711841714
0
LINE
5
489
100
AcDbEntity
8
0
100
AcDbLine
10
428.21261246862957
20
-126.57791525252955
30
0
11
428.69866646390005
21
-127.06382250985583
31
0
0
SPLINE
5
490
100
AcDbEntity
8
0
100
AcDbSpline
70
0
71
2
72
6
73
3
74
0
42
0.000000001
43
0.0000000001
44
0.0000000001
40
0
40
0
40
0
40
1
40
1
40
1
10
428.69866646390005
20
-127.06382250985583
30
0
10
428.99197313714285
20
-127.35704063487411
30
0
10
429.07915010901291
20
-127.58493473885716
30
0
0
SPLINE
5
491
100
AcDbEntity
8
0
100
AcDbSpline
70
0
71
2
72
6
73
3
74
0
42
0.000000001
43
0.0000000001
44
0.0000000001
40
0
40
0
40
0
40
1
40
1
40
1
10
429.07915010901291
20
-127.58493473885716
30
0
10
429.16800256409482
20
-127.8111528536533
30
0
10
429.11441299853635
20
-128.04577686374211
30
0
0
SPLINE
5
492
100
AcDbEntity
8
0
100
AcDbSpline
70
0
71
2
72
6
73
3
74
0
42
0.000000001
43
0.0000000001
44
0.0000000001
40
0
40
0
40
0
40
1
40
1
40
1
10
429.11441299853635
20
-128.04577686374211
30
0
10
429.06249799414502
20
-128.28207207513847
30
0
10
428.88656654827093
20
-128.4580566501196
30
0
0
SPLINE
5
493
100
AcDbEntity
8
0
100
AcDbSpline
70
0
71
2
72
6
73
3
74
0
42
0.000000001
43
0.0000000001
44
0.0000000001
40
0
40
0
40
0
40
1
40
1
40
1
10
428.88656654827093
20
-128.4580566501196
30
0
10
428.72236205772197
20
-128.62231072838108
30
0
10
428.50619044476286
20
-128.67764123248818
30
0
0
SPLINE
5
494
100
AcDbEntity
8
0
100
AcDbSpline
70
0
71
2
72
6
73
3
74
0
42
0.000000001
43
0.0000000001
44
0.0000000001
40
0
40
0
40
0
40
1
40
1
40
1
10
428.50619044476286
20
-128.67764123248818
30
0
10
428.29169288785783
20
-128.73129717499714
30
0
10
428.05204602338972
20
-128.65927669650392
30
0
0
SPLINE
5
495
100
AcDbEntity
8
0
100
AcDbSpline
70
0
71
2
72
6
73
3
74
0
42
0.000000001
43
0.0000000001
44
0.0000000001
40
0
40
0
40
0
40
1
40
1
40
1
10
428.05204602338972
20
-128.65927669650392
30
0
10
428.17944950015578
20
-128.91732940710162
30
0
10
428.19455451088606
20
-129.11004250349711
30
0
0
SPLINE
5
496
100
AcDbEntity
8
0
100
AcDbSpline
70
0
71
2
72
6
73
3
74
0
42
0.000000001
43
0.0000000001
44
0.0000000001
40
0
40
0
40
0
40
1
40
1
40
1
10
428.19455451088606
20
-129.11004250349711
30
0
10
428.21134356949875
20
-129.30108246415924
30
0
10
428.14266025233496
20
-129.4837537927354
30
0
0
SPLINE
5
497
100
AcDbEntity
8
0
100
AcDbSpline
70
0
71
2
72
6
73
3
74
0
42
0.000000001
43
0.0000000001
44
0.0000000001
40
0
40
0
40
0
40
1
40
1
40
1
10
428.14266025233496
20
-129.4837537927354
30
0
10
428.07733268990518
20
-129.66642604206328
30
0
10
427.93155994184417
20
-129.81224281167991
30
0
0
SPLINE
5
498
100
AcDbEntity
8
0
100
AcDbSpline
70
0
71
2
72
6
73
3
74
0
42
0.000000001
43
0.0000000001
44
0.0000000001
40
0
40
0
40
0
40
1
40
1
40
1
10
427.93155994184417
20
-129.81224281167991
30
0
10
427.63498799608669
20
-130.10890431847398
30
0
10
427.21101212058772
20
-130.09723960023828
30
0
0
SPLINE
5
499
100
AcDbEntity
8
0
100
AcDbSpline
70
0
71
2
72
6
73
3
74
0
42
0.000000001
43
0.0000000001
44
0.0000000001
40
0
40
0
40
0
40
1
40
1
40
1
10
427.21101212058772
20
-130.09723960023828
30
0
10
426.79038486231008
20
-130.08557152171201
30
0
10
426.42500779885245
20
-129.72030476426914
30
0
0
LINE
5
500
100
AcDbEntity
8
0
100
AcDbLine
10
426.42500779885239
20
-129.72030476426914
30
0
11
425.74788532591862
21
-129.04338671216226
31
0
0
LINE
5
501
100
AcDbEntity
8
0
100
AcDbLine
10
425.74788532591862
20
-129.04338671216226
30
0
11
428.21261246862957
21
-126.57791525252955
31
0
0
LINE
5
502
100
AcDbEntity
8
0
100
AcDbLine
10
428.21268818680409
20
-127.0605472607447
30
0
11
427.42350562371519
21
-127.84996814714566
31
0
0
LINE
5
503
100
AcDbEntity
8
0
100
AcDbLine
10
427.42350562371519
20
-127.84996814714566
30
0
11
427.5642944257711
21
-127.99071444557114
31
0
0
SPLINE
5
504
100
AcDbEntity
8
0
100
AcDbSpline
70
0
71
2
72
6
73
3
74
0
42
0.000000001
43
0.0000000001
44
0.0000000001
40
0
40
0
40
0
40
1
40
1
40
1
10
427.56429442577115
20
-127.99071444557113
30
0
10
427.82072933690176
20
-128.24707193992896
30
0
10
427.98832122580387
20
-128.32078331498997
30
0
0
SPLINE
5
505
100
AcDbEntity
8
0
100
AcDbSpline
70
0
71
2
72
6
73
3
74
0
42
0.000000001
43
0.0000000001
44
0.0000000001
40
0
40
0
40
0
40
1
40
1
40
1
10
427.98832122580387
20
-128.32078331498997
30
0
10
428.15758859791788
20
-128.3928187008641
30
0
10
428.33018890116369
20
-128.36094937259321
30
0
0
SPLINE
5
506
100
AcDbEntity
8
0
100
AcDbSpline
70
0
71
2
72
6
73
3
74
0
42
0.000000001
43
0.0000000001
44
0.0000000001
40
0
40
0
40
0
40
1
40
1
40
1
10
428.33018890116369
20
-128.36094937259321
30
0
10
428.50446468762141
20
-128.32740405513542
30
0
10
428.63013020998267
20
-128.20170058335052
30
0
0
SPLINE
5
507
100
AcDbEntity
8
0
100
AcDbSpline
70
0
71
2
72
6
73
3
74
0
42
0.000000001
43
0.0000000001
44
0.0000000001
40
0
40
0
40
0
40
1
40
1
40
1
10
428.63013020998267
20
-128.20170058335052
30
0
10
428.79935972300933
20
-128.03241996511704
30
0
10
428.77586846010894
20
-127.81792213634056
30
0
0
SPLINE
5
508
100
AcDbEntity
8
0
100
AcDbSpline
70
0
71
2
72
6
73
3
74
0
42
0.000000001
43
0.0000000001
44
0.0000000001
40
0
40
0
40
0
40
1
40
1
40
1
10
428.77586846010894
20
-127.81792213634056
30
0
10
428.75572581442975
20
-127.60342094727348
30
0
10
428.49761776928972
20
-127.34539082401932
30
0
0
LINE
5
509
100
AcDbEntity
8
0
100
AcDbLine
10
428.49761776928972
20
-127.34539082401932
30
0
11
428.21268818680409
21
-127.0605472607447
31
0
0
LINE
5
510
100
AcDbEntity
8
0
100
AcDbLine
10
427.17552554541658
20
-128.09802311234165
30
0
11
426.23051733499562
21
-129.04331670348074
31
0
0
LINE
5
511
100
AcDbEntity
8
0
100
AcDbLine
10
426.23051733499562
20
-129.04331670348074
30
0
11
426.53555878772431
21
-129.34826606529742
31
0
0
SPLINE
5
512
100
AcDbEntity
8
0
100
AcDbSpline
70
0
71
2
72
6
73
3
74
0
42
0.000000001
43
0.0000000001
44
0.0000000001
40
0
40
0
40
0
40
1
40
1
40
1
10
426.53555878772431
20
-129.34826606529742
30
0
10
426.80540161235024
20
-129.61802742534996
30
0
10
426.9830522007839
20
-129.69173870921256
30
0
0
SPLINE
5
513
100
AcDbEntity
8
0
100
AcDbSpline
70
0
71
2
72
6
73
3
74
0
42
0.000000001
43
0.0000000001
44
0.0000000001
40
0
40
0
40
0
40
1
40
1
40
1
10
426.9830522007839
20
-129.69173870921256
30
0
10
427.16237256207444
20
-129.76376829525717
30
0
10
427.35005516017179
20
-129.72687376340457
30
0
0
SPLINE
5
514
100
AcDbEntity
8
0
100
AcDbSpline
70
0
71
2
72
6
73
3
74
0
42
0.000000001
43
0.0000000001
44
0.0000000001
40
0
40
0
40
0
40
1
40
1
40
1
10
427.35005516017179
20
-129.72687376340457
30
0
10
427.53941802979136
20
-129.6916561414906
30
0
10
427.67011000178803
20
-129.56092470214492
30
0
0
SPLINE
5
515
100
AcDbEntity
8
0
100
AcDbSpline
70
0
71
2
72
6
73
3
74
0
42
0.000000001
43
0.0000000001
44
0.0000000001
40
0
40
0
40
0
40
1
40
1
40
1
10
427.67011000178803
20
-129.56092470214492
30
0
10
427.83431449233706
20
-129.39667062388344
30
0
10
427.84935860279916
20
-129.16708392387241
30
0
0
SPLINE
5
516
100
AcDbEntity
8
0
100
AcDbSpline
70
0
71
2
72
6
73
3
74
0
42
0.000000001
43
0.0000000001
44
0.0000000001
40
0
40
0
40
0
40
1
40
1
40
1
10
427.84935860279916
20
-129.16708392387241
30
0
10
427.86440414041908
20
-128.93749579627263
30
0
10
427.72192854216462
20
-128.70458140469145
30
0
0
SPLINE
5
517
100
AcDbEntity
8
0
100
AcDbSpline
70
0
71
2
72
6
73
3
74
0
42
0.000000001
43
0.0000000001
44
0.0000000001
40
0
40
0
40
0
40
1
40
1
40
1
10
427.72192854216462
20
-128.70458140469145
30
0
10
427.62638805009709
20
-128.54874664894606
30
0
10
427.31464264062083
20
-128.23709535428205
30
0
0
LINE
5
518
100
AcDbEntity
8
0
100
AcDbLine
10
427.31464264062078
20
-128.23709535428205
30
0
11
427.17552554541658
21
-128.09802311234165
31
0
0
LINE
5
519
100
AcDbEntity
8
0
100
AcDbLine
10
431.51153129527859
20
-131.15930686964771
30
0
11
429.6885370572258
21
-132.98285162927178
31
0
0
LINE
5
520
100
AcDbEntity
8
0
100
AcDbLine
10
429.6885370572258
20
-132.98285162927178
30
0
11
429.45723912872148
21
-132.75162352877598
31
0
0
LINE
5
521
100
AcDbEntity
8
0
100
AcDbLine
10
429.45723912872148
20
-132.75162352877598
30
0
11
429.77056590659737
21
-132.43820213011278
31
0
0
SPLINE
5
522
100
AcDbEntity
8
0
100
AcDbSpline
70
0
71
2
72
6
73
3
74
0
42
0.000000001
43
0.0000000001
44
0.0000000001
40
0
40
0
40
0
40
1
40
1
40
1
10
429.77056590659737
20
-132.43820213011278
30
0
10
429.4437893083383
20
-132.47009187978367
30
0
10
429.1689458396678
20
-132.37628928912133
30
0
0
SPLINE
5
523
100
AcDbEntity
8
0
100
AcDbSpline
70
0
71
2
72
6
73
3
74
0
42
0.000000001
43
0.0000000001
44
0.0000000001
40
0
40
0
40
0
40
1
40
1
40
1
10
429.1689458396678
20
-132.37628928912133
30
0
10
428.89577550500667
20
-132.28415932735533
30
0
10
428.67789120035269
20
-132.06634080118528
30
0
0
SPLINE
5
524
100
AcDbEntity
8
0
100
AcDbSpline
70
0
71
2
72
6
73
3
74
0
42
0.000000001
43
0.0000000001
44
0.0000000001
40
0
40
0
40
0
40
1
40
1
40
1
10
428.67789120035269
20
-132.06634080118528
30
0
10
428.29072342228767
20
-131.67928990767302
30
0
10
428.29566546140489
20
-131.12459905633327
30
0
0
SPLINE
5
525
100
AcDbEntity
8
0
100
AcDbSpline
70
0
71
2
72
6
73
3
74
0
42
0.000000001
43
0.0000000001
44
0.0000000001
40
0
40
0
40
0
40
1
40
1
40
1
10
428.29566546140489
20
-131.12459905633327
30
0
10
428.30396182809835
20
-130.56991055333401
30
0
10
428.70609349767494
20
-130.16765744499801
30
0
0
SPLINE
5
526
100
AcDbEntity
8
0
100
AcDbSpline
70
0
71
2
72
6
73
3
74
0
42
0.000000001
43
0.0000000001
44
0.0000000001
40
0
40
0
40
0
40
1
40
1
40
1
10
428.70609349767494
20
-130.16765744499801
30
0
10
429.09984632403456
20
-129.77378571018536
30
0
10
429.65621021904724
20
-129.77034738816039
30
0
0
SPLINE
5
527
100
AcDbEntity
8
0
100
AcDbSpline
70
0
71
2
72
6
73
3
74
0
42
0.000000001
43
0.0000000001
44
0.0000000001
40
0
40
0
40
0
40
1
40
1
40
1
10
429.65621021904724
20
-129.77034738816039
30
0
10
430.21257268690215
20
-129.76691049372414
30
0
10
430.60141930933156
20
-130.15563972476377
30
0
0
SPLINE
5
528
100
AcDbEntity
8
0
100
AcDbSpline
70
0
71
2
72
6
73
3
74
0
42
0.000000001
43
0.0000000001
44
0.0000000001
40
0
40
0
40
0
40
1
40
1
40
1
10
430.60141930933156
20
-130.15563972476377
30
0
10
430.82601328108819
20
-130.38016589241224
30
0
10
430.91152042623975
20
-130.65665802675352
30
0
0
SPLINE
5
529
100
AcDbEntity
8
0
100
AcDbSpline
70
0
71
2
72
6
73
3
74
0
42
0.000000001
43
0.0000000001
44
0.0000000001
40
0
40
0
40
0
40
1
40
1
40
1
10
430.91152042623975
20
-130.65665802675352
30
0
10
430.99870498859798
20
-130.93482992621088
30
0
10
430.94512959034171
20
-131.26329516346482
30
0
0
LINE
5
530
100
AcDbEntity
8
0
100
AcDbLine
10
430.94512959034171
20
-131.26329516346482
30
0
11
431.28023907712924
21
-130.92808447778296
31
0
0
LINE
5
531
100
AcDbEntity
8
0
100
AcDbLine
10
431.28023907712924
20
-130.92808447778296
30
0
11
431.51153129527859
21
-131.15930686964771
31
0
0
SPLINE
5
532
100
AcDbEntity
8
0
100
AcDbSpline
70
0
71
2
72
6
73
3
74
0
42
0.000000001
43
0.0000000001
44
0.0000000001
40
0
40
0
40
0
40
1
40
1
40
1
10
430.39365924902035
20
-130.40034000017562
30
0
10
430.19755994861873
20
-130.20429990144396
30
0
10
429.93445185617668
20
-130.1356358647638
30
0
0
SPLINE
5
533
100
AcDbEntity
8
0
100
AcDbSpline
70
0
71
2
72
6
73
3
74
0
42
0.000000001
43
0.0000000001
44
0.0000000001
40
0
40
0
40
0
40
1
40
1
40
1
10
429.93445185617668
20
-130.1356358647638
30
0
10
429.67301353659144
20
-130.06529013026565
30
0
10
429.39987135672374
20
-130.14074235224589
30
0
0
SPLINE
5
534
100
AcDbEntity
8
0
100
AcDbSpline
70
0
71
2
72
6
73
3
74
0
42
0.000000001
43
0.0000000001
44
0.0000000001
40
0
40
0
40
0
40
1
40
1
40
1
10
429.39987135672374
20
-130.14074235224589
30
0
10
429.12840231086534
20
-130.21786720312244
30
0
10
428.93403769534558
20
-130.41229051433712
30
0
0
SPLINE
5
535
100
AcDbEntity
8
0
100
AcDbSpline
70
0
71
2
72
6
73
3
74
0
42
0.000000001
43
0.0000000001
44
0.0000000001
40
0
40
0
40
0
40
1
40
1
40
1
10
428.93403769534558
20
-130.41229051433712
30
0
10
428.74134999019532
20
-130.60503640877616
30
0
10
428.66430476152681
20
-130.87987734757127
30
0
0
SPLINE
5
536
100
AcDbEntity
8
0
100
AcDbSpline
70
0
71
2
72
6
73
3
74
0
42
0.000000001
43
0.0000000001
44
0.0000000001
40
0
40
0
40
0
40
1
40
1
40
1
10
428.66430476152681
20
-130.87987734757127
30
0
10
428.58725810570041
20
-131.15471971395516
30
0
10
428.65433323692355
20
-131.41948733207923
30
0
0
SPLINE
5
537
100
AcDbEntity
8
0
100
AcDbSpline
70
0
71
2
72
6
73
3
74
0
42
0.000000001
43
0.0000000001
44
0.0000000001
40
0
40
0
40
0
40
1
40
1
40
1
10
428.65433323692355
20
-131.41948733207923
30
0
10
428.72475555821029
20
-131.68425301750145
30
0
10
428.91582403587364
20
-131.87526381228207
30
0
0
SPLINE
5
538
100
AcDbEntity
8
0
100
AcDbSpline
70
0
71
2
72
6
73
3
74
0
42
0.000000001
43
0.0000000001
44
0.0000000001
40
0
40
0
40
0
40
1
40
1
40
1
10
428.91582403587364
20
-131.87526381228207
30
0
10
429.10857135790138
20
-132.06795294459005
30
0
10
429.37838340709112
20
-132.14331891411757
30
0
0
SPLINE
5
539
100
AcDbEntity
8
0
100
AcDbSpline
70
0
71
2
72
6
73
3
74
0
42
0.000000001
43
0.0000000001
44
0.0000000001
40
0
40
0
40
0
40
1
40
1
40
1
10
429.37838340709112
20
-132.14331891411757
30
0
10
429.64820116663583
20
-132.21869059227618
30
0
10
429.9062619736967
20
-132.14491638338316
30
0
0
SPLINE
5
540
100
AcDbEntity
8
0
100
AcDbSpline
70
0
71
2
72
6
73
3
74
0
42
0.000000001
43
0.0000000001
44
0.0000000001
40
0
40
0
40
0
40
1
40
1
40
1
10
429.9062619736967
20
-132.14491638338316
30
0
10
430.16600162512202
20
-132.07282051201753
30
0
10
430.37377010633656
20
-131.86498928730748
30
0
0
SPLINE
5
541
100
AcDbEntity
8
0
100
AcDbSpline
70
0
71
2
72
6
73
3
74
0
42
0.000000001
43
0.0000000001
44
0.0000000001
40
0
40
0
40
0
40
1
40
1
40
1
10
430.37377010633656
20
-131.86498928730748
30
0
10
430.69044785063613
20
-131.54821591027047
30
0
10
430.69373556758921
20
-131.12591275357335
30
0
0
SPLINE
5
542
100
AcDbEntity
8
0
100
AcDbSpline
70
0
71
2
72
6
73
3
74
0
42
0.000000001
43
0.0000000001
44
0.0000000001
40
0
40
0
40
0
40
1
40
1
40
1
10
430.69373556758921
20
-131.12591275357335
30
0
10
430.69870070174892
20
-130.7052893619923
30
0
10
430.39365924902035
20
-130.40034000017562
30
0
0
LINE
5
543
100
AcDbEntity
8
0
100
AcDbLine
10
432.23751727578463
20
-131.88507367761048
30
0
11
432.47216718266282
21
-132.11965274452996
31
0
0
LINE
5
544
100
AcDbEntity
8
0
100
AcDbLine
10
432.47216718266282
20
-132.11965274452996
30
0
11
432.14543511193449
21
-132.44648348427722
31
0
0
SPLINE
5
545
100
AcDbEntity
8
0
100
AcDbSpline
70
0
71
2
72
6
73
3
74
0
42
0.000000001
43
0.0000000001
44
0.0000000001
40
0
40
0
40
0
40
1
40
1
40
1
10
432.14543511193438
20
-132.44648348427722
30
0
10
432.47388516950502
20
-132.39951185582439
30
0
10
432.73699620789205
20
-132.47823459160509
30
0
0
SPLINE
5
546
100
AcDbEntity
8
0
100
AcDbSpline
70
0
71
2
72
6
73
3
74
0
42
0.000000001
43
0.0000000001
44
0.0000000001
40
0
40
0
40
0
40
1
40
1
40
1
10
432.73699620789205
20
-132.47823459160509
30
0
10
433.00178272949091
20
-132.55528133819888
30
0
10
433.20291285263073
20
-132.75635074088157
30
0
0
SPLINE
5
547
100
AcDbEntity
8
0
100
AcDbSpline
70
0
71
2
72
6
73
3
74
0
42
0.000000001
43
0.0000000001
44
0.0000000001
40
0
40
0
40
0
40
1
40
1
40
1
10
433.20291285263073
20
-132.75635074088157
30
0
10
433.40738924378945
20
-132.96076540135692
30
0
10
433.46105369710727
20
-133.22218214425578
30
0
0
SPLINE
5
548
100
AcDbEntity
8
0
100
AcDbSpline
70
0
71
2
72
6
73
3
74
0
42
0.000000001
43
0.0000000001
44
0.0000000001
40
0
40
0
40
0
40
1
40
1
40
1
10
433.46105369710727
20
-133.22218214425578
30
0
10
433.51639128443452
20
-133.48527151605097
30
0
10
433.41588220714914
20
-133.73665568988034
30
0
0
SPLINE
5
549
100
AcDbEntity
8
0
100
AcDbSpline
70
0
71
2
72
6
73
3
74
0
42
0.000000001
43
0.0000000001
44
0.0000000001
40
0
40
0
40
0
40
1
40
1
40
1
10
433.41588220714914
20
-133.73665568988034
30
0
10
433.31537170270593
20
-133.98804129129849
30
0
10
432.94340158525802
20
-134.36012373909247
30
0
0
LINE
5
550
100
AcDbEntity
8
0
100
AcDbLine
10
432.94340158525807
20
-134.36012373909247
30
0
11
432.0050967348422
21
-135.29871194589515
31
0
0
LINE
5
551
100
AcDbEntity
8
0
100
AcDbLine
10
432.0050967348422
20
-135.29871194589515
30
0
11
431.77213138268343
21
-135.0658169251341
31
0
0
LINE
5
552
100
AcDbEntity
8
0
100
AcDbLine
10
431.77213138268343
20
-135.0658169251341
30
0
11
432.64173999425611
21
-134.19594570258371
31
0
0
SPLINE
5
553
100
AcDbEntity
8
0
100
AcDbSpline
70
0
71
2
72
6
73
3
74
0
42
0.000000001
43
0.0000000001
44
0.0000000001
40
0
40
0
40
0
40
1
40
1
40
1
10
432.64173999425611
20
-134.19594570258371
30
0
10
432.95674368250155
20
-133.88084688714483
30
0
10
433.03550899359215
20
-133.7484718163264
30
0
0
SPLINE
5
554
100
AcDbEntity
8
0
100
AcDbSpline
70
0
71
2
72
6
73
3
74
0
42
0.000000001
43
0.0000000001
44
0.0000000001
40
0
40
0
40
0
40
1
40
1
40
1
10
433.03550899359215
20
-133.7484718163264
30
0
10
433.17455431069914
20
-133.52555649432222
30
0
10
433.14939285973423
20
-133.31944473574995
30
0
0
SPLINE
5
555
100
AcDbEntity
8
0
100
AcDbSpline
70
0
71
2
72
6
73
3
74
0
42
0.000000001
43
0.0000000001
44
0.0000000001
40
0
40
0
40
0
40
1
40
1
40
1
10
433.14939285973423
20
-133.31944473574995
30
0
10
433.12590118162626
20
-133.11165127935973
30
0
10
432.93986352670112
20
-132.92566978853014
30
0
0
SPLINE
5
556
100
AcDbEntity
8
0
100
AcDbSpline
70
0
71
2
72
6
73
3
74
0
42
0.000000001
43
0.0000000001
44
0.0000000001
40
0
40
0
40
0
40
1
40
1
40
1
10
432.93986352670112
20
-132.92566978853014
30
0
10
432.72699862407535
20
-132.71286914904906
30
0
10
432.41697456259385
20
-132.68443129239375
30
0
0
SPLINE
5
557
100
AcDbEntity
8
0
100
AcDbSpline
70
0
71
2
72
6
73
3
74
0
42
0.000000001
43
0.0000000001
44
0.0000000001
40
0
40
0
40
0
40
1
40
1
40
1
10
432.41697456259385
20
-132.68443129239375
30
0
10
432.10862363512183
20
-132.65766606463478
30
0
10
431.84721921672883
20
-132.81187469034617
30
0
0
SPLINE
5
558
100
AcDbEntity
8
0
100
AcDbSpline
70
0
71
2
72
6
73
3
74
0
42
0.000000001
43
0.0000000001
44
0.0000000001
40
0
40
0
40
0
40
1
40
1
40
1
10
431.84721921672883
20
-132.81187469034617
30
0
10
431.67796959064839
20
-132.91411301575371
30
0
10
431.31772642852548
20
-133.27446496682805
30
0
0
LINE
5
559
100
AcDbEntity
8
0
100
AcDbLine
10
431.31772642852553
20
-133.27446496682805
30
0
11
430.64918436531997
21
-133.9432089214161
31
0
0
LINE
5
560
100
AcDbEntity
8
0
100
AcDbLine
10
430.64918436531997
20
-133.9432089214161
30
0
11
430.41453445844184
21
-133.70862985449665
31
0
0
LINE
5
561
100
AcDbEntity
8
0
100
AcDbLine
10
430.41453445844184
20
-133.70862985449665
30
0
11
432.23751727578463
21
-131.88507367761048
31
0
0
LWPOLYLINE
5
562
100
AcDbEntity
8
0
100
AcDbPolyline
90
11
70
1
43
0.0
10
435.46731851546474
20
-133.70644251218926
10
435.23099547457718
20
-133.47019081637347
10
432.70427259871263
20
-135.99767673109955
10
432.94059563960019
20
-136.23392842691536
10
433.75993690050217
20
-135.41433973514989
10
433.85572570814105
20
-137.14878222099642
10
434.18758298786031
20
-137.4805393142025
10
434.08169776536977
20
-135.46791471819864
10
435.95190903883849
20
-135.5983440792175
10
435.60664955597883
20
-135.25318882894777
10
434.02969968771242
20
-135.14449548293524
0
LINE
5
563
100
AcDbEntity
8
0
100
AcDbLine
10
417.26328704839028
20
-102.24613826788999
30
0
11
417.08549962253062
21
-101.94992188270162
31
0
0
SPLINE
5
564
100
AcDbEntity
8
0
100
AcDbSpline
70
0
71
2
72
6
73
3
74
0
42
0.000000001
43
0.0000000001
44
0.0000000001
40
0
40
0
40
0
40
1
40
1
40
1
10
417.08549962253062
20
-101.94992188270162
30
0
10
417.66134585306713
20
-101.63700277830156
30
0
10
417.66128395496452
20
-101.22700277661613
30
0
0
SPLINE
5
565
100
AcDbEntity
8
0
100
AcDbSpline
70
0
71
2
72
6
73
3
74
0
42
0.000000001
43
0.0000000001
44
0.0000000001
40
0
40
0
40
0
40
1
40
1
40
1
10
417.66128395496452
20
-101.22700277661613
30
0
10
417.66125747814328
20
-101.0516258865249
30
0
10
417.58065128625077
20
-100.89759383908087
30
0
0
SPLINE
5
566
100
AcDbEntity
8
0
100
AcDbSpline
70
0
71
2
72
6
73
3
74
0
42
0.000000001
43
0.0000000001
44
0.0000000001
40
0
40
0
40
0
40
1
40
1
40
1
10
417.58065128625077
20
-100.89759383908087
30
0
10
417.49767928271933
20
-100.74356214880572
30
0
10
417.3602078093146
20
-100.66300400270714
30
0
0
SPLINE
5
567
100
AcDbEntity
8
0
100
AcDbSpline
70
0
71
2
72
6
73
3
74
0
42
0.000000001
43
0.0000000001
44
0.0000000001
40
0
40
0
40
0
40
1
40
1
40
1
10
417.3602078093146
20
-100.66300400270714
30
0
10
417.2227363353004
20
-100.58244181938734
30
0
10
417.06869212217146
20
-100.58246507559339
30
0
0
SPLINE
5
568
100
AcDbEntity
8
0
100
AcDbSpline
70
0
71
2
72
6
73
3
74
0
42
0.000000001
43
0.0000000001
44
0.0000000001
40
0
40
0
40
0
40
1
40
1
40
1
10
417.06869212217146
20
-100.58246507559339
30
0
10
416.89331523208023
20
-100.58249155241461
30
0
10
416.72506981532052
20
-100.70101343551826
30
0
0
SPLINE
5
569
100
AcDbEntity
8
0
100
AcDbSpline
70
0
71
2
72
6
73
3
74
0
42
0.000000001
43
0.0000000001
44
0.0000000001
40
0
40
0
40
0
40
1
40
1
40
1
10
416.72506981532052
20
-100.70101343551826
30
0
10
416.49284124051565
20
-100.86457614481191
30
0
10
416.16585142482108
20
-101.29832401095686
30
0
0
SPLINE
5
570
100
AcDbEntity
8
0
100
AcDbSpline
70
0
71
2
72
6
73
3
74
0
42
0.000000001
43
0.0000000001
44
0.0000000001
40
0
40
0
40
0
40
1
40
1
40
1
10
416.16585142482108
20
-101.29832401095686
30
0
10
415.83649615526605
20
-101.73444208313086
30
0
10
415.68957355213411
20
-101.84111150253773
30
0
0
SPLINE
5
571
100
AcDbEntity
8
0
100
AcDbSpline
70
0
71
2
72
6
73
3
74
0
42
0.000000001
43
0.0000000001
44
0.0000000001
40
0
40
0
40
0
40
1
40
1
40
1
10
415.68957355213411
20
-101.84111150253773
30
0
10
415.4431291041742
20
-102.02600499824291
30
0
10
415.15636528043615
20
-102.02604829125883
30
0
0
SPLINE
5
572
100
AcDbEntity
8
0
100
AcDbSpline
70
0
71
2
72
6
73
3
74
0
42
0.000000001
43
0.0000000001
44
0.0000000001
40
0
40
0
40
0
40
1
40
1
40
1
10
415.15636528043615
20
-102.02604829125883
30
0
10
414.92885171542235
20
-102.02608263920503
30
0
10
414.74161315983542
20
-101.91709381952209
30
0
0
SPLINE
5
573
100
AcDbEntity
8
0
100
AcDbSpline
70
0
71
2
72
6
73
3
74
0
42
0.000000001
43
0.0000000001
44
0.0000000001
40
0
40
0
40
0
40
1
40
1
40
1
10
414.74161315983542
20
-101.91709381952209
30
0
10
414.55437460424855
20
-101.80810499983919
30
0
10
414.44769767149512
20
-101.61141557064477
30
0
0
SPLINE
5
574
100
AcDbEntity
8
0
100
AcDbSpline
70
0
71
2
72
6
73
3
74
0
42
0.000000001
43
0.0000000001
44
0.0000000001
40
0
40
0
40
0
40
1
40
1
40
1
10
414.44769767149512
20
-101.61141557064477
30
0
10
414.33864649488191
20
-101.41235665097813
30
0
10
414.33861143137892
20
-101.18010338824406
30
0
0
SPLINE
5
575
100
AcDbEntity
8
0
100
AcDbSpline
70
0
71
2
72
6
73
3
74
0
42
0.000000001
43
0.0000000001
44
0.0000000001
40
0
40
0
40
0
40
1
40
1
40
1
10
414.33861143137892
20
-101.18010338824406
30
0
10
414.33857422120536
20
-100.93363103234928
30
0
10
414.46178223509827
20
-100.72031795479992
30
0
0
SPLINE
5
576
100
AcDbEntity
8
0
100
AcDbSpline
70
0
71
2
72
6
73
3
74
0
42
0.000000001
43
0.0000000001
44
0.0000000001
40
0
40
0
40
0
40
1
40
1
40
1
10
414.46178223509827
20
-100.72031795479992
30
0
10
414.5826160051314
20
-100.50463538677835
30
0
10
414.90962708543191
20
-100.26522320282456
30
0
0
LINE
5
577
100
AcDbEntity
8
0
100
AcDbLine
10
414.90962708543185
20
-100.26522320282456
30
0
11
415.12533837860389
21
-100.54958461803879
31
0
0
SPLINE
5
578
100
AcDbEntity
8
0
100
AcDbSpline
70
0
71
2
72
6
73
3
74
0
42
0.000000001
43
0.0000000001
44
0.0000000001
40
0
40
0
40
0
40
1
40
1
40
1
10
415.12533837860394
20
-100.54958461803879
30
0
10
414.86467662637529
20
-100.74632950471502
30
0
10
414.78174898858555
20
-100.88616714753704
30
0
0
SPLINE
5
579
100
AcDbEntity
8
0
100
AcDbSpline
70
0
71
2
72
6
73
3
74
0
42
0.000000001
43
0.0000000001
44
0.0000000001
40
0
40
0
40
0
40
1
40
1
40
1
10
414.78174898858555
20
-100.88616714753704
30
0
10
414.69882099301736
20
-101.02363494149893
30
0
10
414.69884568094653
20
-101.18716258728958
30
0
0
SPLINE
5
580
100
AcDbEntity
8
0
100
AcDbSpline
70
0
71
2
72
6
73
3
74
0
42
0.000000001
43
0.0000000001
44
0.0000000001
40
0
40
0
40
0
40
1
40
1
40
1
10
414.69884568094653
20
-101.18716258728958
30
0
10
414.69887752444384
20
-101.39808721028258
30
0
10
414.82687783131155
20
-101.53315331127752
30
0
0
SPLINE
5
581
100
AcDbEntity
8
0
100
AcDbSpline
70
0
71
2
72
6
73
3
74
0
42
0.000000001
43
0.0000000001
44
0.0000000001
40
0
40
0
40
0
40
1
40
1
40
1
10
414.82687783131155
20
-101.53315331127752
30
0
10
414.95486970595829
20
-101.66584956463133
30
0
10
415.14209987757135
20
-101.66582129830857
30
0
0
SPLINE
5
582
100
AcDbEntity
8
0
100
AcDbSpline
70
0
71
2
72
6
73
3
74
0
42
0.000000001
43
0.0000000001
44
0.0000000001
40
0
40
0
40
0
40
1
40
1
40
1
10
415.14209987757135
20
-101.66582129830857
30
0
10
415.25586069729945
20
-101.66580412372596
30
0
10
415.36250077704835
20
-101.61838700866448
30
0
0
SPLINE
5
583
100
AcDbEntity
8
0
100
AcDbSpline
70
0
71
2
72
6
73
3
74
0
42
0.000000001
43
0.0000000001
44
0.0000000001
40
0
40
0
40
0
40
1
40
1
40
1
10
415.36250077704835
20
-101.61838700866448
30
0
10
415.46914085679725
20
-101.57096989360301
30
0
10
415.59472792073962
20
-101.44534490393036
30
0
0
SPLINE
5
584
100
AcDbEntity
8
0
100
AcDbSpline
70
0
71
2
72
6
73
3
74
0
42
0.000000001
43
0.0000000001
44
0.0000000001
40
0
40
0
40
0
40
1
40
1
40
1
10
415.59472792073962
20
-101.44534490393036
30
0
10
415.66107331263959
20
-101.37660523197027
30
0
10
415.94303983450516
20
-100.9950048763684
30
0
0
SPLINE
5
585
100
AcDbEntity
8
0
100
AcDbSpline
70
0
71
2
72
6
73
3
74
0
42
0.000000001
43
0.0000000001
44
0.0000000001
40
0
40
0
40
0
40
1
40
1
40
1
10
415.94303983450516
20
-100.9950048763684
30
0
10
416.27713229733155
20
-100.54229714661675
30
0
10
416.53779834290106
20
-100.37399044626197
30
0
0
SPLINE
5
586
100
AcDbEntity
8
0
100
AcDbSpline
70
0
71
2
72
6
73
3
74
0
42
0.000000001
43
0.0000000001
44
0.0000000001
40
0
40
0
40
0
40
1
40
1
40
1
10
416.53779834290106
20
-100.37399044626197
30
0
10
416.79846438847056
20
-100.20568374590718
30
0
10
417.06152972360741
20
-100.20564403067536
30
0
0
SPLINE
5
587
100
AcDbEntity
8
0
100
AcDbSpline
70
0
71
2
72
6
73
3
74
0
42
0.000000001
43
0.0000000001
44
0.0000000001
40
0
40
0
40
0
40
1
40
1
40
1
10
417.06152972360741
20
-100.20564403067536
30
0
10
417.44072169011127
20
-100.20558678369201
30
0
10
417.72041558084203
20
-100.49467823721898
30
0
0
SPLINE
5
588
100
AcDbEntity
8
0
100
AcDbSpline
70
0
71
2
72
6
73
3
74
0
42
0.000000001
43
0.0000000001
44
0.0000000001
40
0
40
0
40
0
40
1
40
1
40
1
10
417.72041558084203
20
-100.49467823721898
30
0
10
418.00010911379439
20
-100.78139984188583
30
0
10
418.00017136967546
20
-101.19376969243136
30
0
0
SPLINE
5
589
100
AcDbEntity
8
0
100
AcDbSpline
70
0
71
2
72
6
73
3
74
0
42
0.000000001
43
0.0000000001
44
0.0000000001
40
0
40
0
40
0
40
1
40
1
40
1
10
418.00017136967546
20
-101.19376969243136
30
0
10
418.0002193138107
20
-101.51134155135095
30
0
10
417.83199500658657
20
-101.7696885544228
30
0
0
SPLINE
5
590
100
AcDbEntity
8
0
100
AcDbSpline
70
0
71
2
72
6
73
3
74
0
42
0.000000001
43
0.0000000001
44
0.0000000001
40
0
40
0
40
0
40
1
40
1
40
1
10
417.83199500658657
20
-101.7696885544228
30
0
10
417.66139681328104
20
-102.02803591588257
30
0
10
417.26328704839028
20
-102.24613826788999
30
0
0
LINE
5
591
100
AcDbEntity
8
0
100
AcDbLine
10
414.33832713564493
20
-99.243504885636909
30
0
11
414.33827704483923
21
-98.911713933556626
31
0
0
LINE
5
592
100
AcDbEntity
8
0
100
AcDbLine
10
414.33827704483923
20
-98.911713933556626
30
0
11
415.79578657768815
21
-98.911493891912002
31
0
0
SPLINE
5
593
100
AcDbEntity
8
0
100
AcDbSpline
70
0
71
2
72
6
73
3
74
0
42
0.000000001
43
0.0000000001
44
0.0000000001
40
0
40
0
40
0
40
1
40
1
40
1
10
415.79578657768815
20
-98.911493891912002
30
0
10
415.53032501852869
20
-98.710088736760198
30
0
10
415.39994279938423
20
-98.468375757007607
30
0
0
SPLINE
5
594
100
AcDbEntity
8
0
100
AcDbSpline
70
0
71
2
72
6
73
3
74
0
42
0.000000001
43
0.0000000001
44
0.0000000001
40
0
40
0
40
0
40
1
40
1
40
1
10
415.39994279938423
20
-98.468375757007607
30
0
10
415.26718669415851
20
-98.226663135642923
30
0
10
415.26714411669946
20
-97.944639009625135
30
0
0
SPLINE
5
595
100
AcDbEntity
8
0
100
AcDbSpline
70
0
71
2
72
6
73
3
74
0
42
0.000000001
43
0.0000000001
44
0.0000000001
40
0
40
0
40
0
40
1
40
1
40
1
10
415.26714411669946
20
-97.944639009625135
30
0
10
415.26710046590506
20
-97.655505337027009
30
0
10
415.4140055372855
20
-97.432709286253072
30
0
0
SPLINE
5
596
100
AcDbEntity
8
0
100
AcDbSpline
70
0
71
2
72
6
73
3
74
0
42
0.000000001
43
0.0000000001
44
0.0000000001
40
0
40
0
40
0
40
1
40
1
40
1
10
415.4140055372855
20
-97.432709286253072
30
0
10
415.56091025088756
20
-97.207543386619037
30
0
10
415.80973231778336
20
-97.100858583350089
30
0
0
SPLINE
5
597
100
AcDbEntity
8
0
100
AcDbSpline
70
0
71
2
72
6
73
3
74
0
42
0.000000001
43
0.0000000001
44
0.0000000001
40
0
40
0
40
0
40
1
40
1
40
1
10
415.80973231778336
20
-97.100858583350089
30
0
10
416.05618857304023
20
-96.99417413725007
30
0
10
416.58468505495284
20
-96.994094349617498
30
0
0
LINE
5
598
100
AcDbEntity
8
0
100
AcDbLine
10
416.58468505495284
20
-96.994094349617498
30
0
11
417.91184886327403
21
-96.993893986394809
31
0
0
LINE
5
599
100
AcDbEntity
8
0
100
AcDbLine
10
417.91184886327403
20
-96.993893986394809
30
0
11
417.91189895407962
21
-97.325684938475106
31
0
0
LINE
5
600
100
AcDbEntity
8
0
100
AcDbLine
10
417.91189895407962
20
-97.325684938475106
30
0
11
416.68190298624461
21
-97.325870632173533
31
0
0
SPLINE
5
601
100
AcDbEntity
8
0
100
AcDbSpline
70
0
71
2
72
6
73
3
74
0
42
0.000000001
43
0.0000000001
44
0.0000000001
40
0
40
0
40
0
40
1
40
1
40
1
10
416.68190298624461
20
-97.325870632173533
30
0
10
416.23635525165741
20
-97.325937896952311
30
0
10
416.08705610292481
20
-97.361508170503328
30
0
0
SPLINE
5
602
100
AcDbEntity
8
0
100
AcDbSpline
70
0
71
2
72
6
73
3
74
0
42
0.000000001
43
0.0000000001
44
0.0000000001
40
0
40
0
40
0
40
1
40
1
40
1
10
416.08705610292481
20
-97.361508170503328
30
0
10
415.8311136538282
20
-97.423162882153491
30
0
10
415.70315842886851
20
-97.586709849197192
30
0
0
SPLINE
5
603
100
AcDbEntity
8
0
100
AcDbSpline
70
0
71
2
72
6
73
3
74
0
42
0.000000001
43
0.0000000001
44
0.0000000001
40
0
40
0
40
0
40
1
40
1
40
1
10
415.70315842886851
20
-97.586709849197192
30
0
10
415.5728370344915
20
-97.747887324549666
30
0
10
415.57287674911385
20
-98.010948622465293
30
0
0
SPLINE
5
604
100
AcDbEntity
8
0
100
AcDbSpline
70
0
71
2
72
6
73
3
74
0
42
0.000000001
43
0.0000000001
44
0.0000000001
40
0
40
0
40
0
40
1
40
1
40
1
10
415.57287674911385
20
-98.010948622465293
30
0
10
415.57292218880025
20
-98.311931539364025
30
0
10
415.77203370433091
20
-98.551264294073135
30
0
0
SPLINE
5
605
100
AcDbEntity
8
0
100
AcDbSpline
70
0
71
2
72
6
73
3
74
0
42
0.000000001
43
0.0000000001
44
0.0000000001
40
0
40
0
40
0
40
1
40
1
40
1
10
415.77203370433091
20
-98.551264294073135
30
0
10
415.97114486208312
20
-98.788227199922162
30
0
10
416.26502564469882
20
-98.86402203492554
30
0
0
SPLINE
5
606
100
AcDbEntity
8
0
100
AcDbSpline
70
0
71
2
72
6
73
3
74
0
42
0.000000001
43
0.0000000001
44
0.0000000001
40
0
40
0
40
0
40
1
40
1
40
1
10
416.26502564469882
20
-98.86402203492554
30
0
10
416.45462878412843
20
-98.91139442585748
30
0
10
416.96653228679895
20
-98.91131714328327
30
0
0
LINE
5
607
100
AcDbEntity
8
0
100
AcDbLine
10
416.96653228679895
20
-98.91131714328327
30
0
11
417.91213831697723
21
-98.911174384212828
31
0
0
LINE
5
608
100
AcDbEntity
8
0
100
AcDbLine
10
417.91213831697723
20
-98.911174384212828
30
0
11
417.91218840778299
21
-99.242965336293111
31
0
0
LINE
5
609
100
AcDbEntity
8
0
100
AcDbLine
10
417.91218840778299
20
-99.242965336293111
30
0
11
414.33832713564493
21
-99.243504885636909
31
0
0
SPLINE
5
610
100
AcDbEntity
8
0
100
AcDbSpline
70
0
71
2
72
6
73
3
74
0
42
0.000000001
43
0.0000000001
44
0.0000000001
40
0
40
0
40
0
40
1
40
1
40
1
10
415.26667484160487
20
-94.782776162460749
30
0
10
415.26658503617682
20
-94.187923912464839
30
0
10
415.69785464172799
20
-93.796817583552055
30
0
0
SPLINE
5
611
100
AcDbEntity
8
0
100
AcDbSpline
70
0
71
2
72
6
73
3
74
0
42
0.000000001
43
0.0000000001
44
0.0000000001
40
0
40
0
40
0
40
1
40
1
40
1
10
415.69785464172799
20
-93.796817583552055
30
0
10
416.09121203280279
20
-93.441268749216817
30
0
10
416.62918791015585
20
-93.441187530470614
30
0
0
SPLINE
5
612
100
AcDbEntity
8
0
100
AcDbSpline
70
0
71
2
72
6
73
3
74
0
42
0.000000001
43
0.0000000001
44
0.0000000001
40
0
40
0
40
0
40
1
40
1
40
1
10
416.62918791015585
20
-93.441187530470614
30
0
10
417.16953767359024
20
-93.441105953336489
30
0
10
417.57485082953912
20
-93.817866889043927
30
0
0
SPLINE
5
613
100
AcDbEntity
8
0
100
AcDbSpline
70
0
71
2
72
6
73
3
74
0
42
0.000000001
43
0.0000000001
44
0.0000000001
40
0
40
0
40
0
40
1
40
1
40
1
10
417.57485082953912
20
-93.817866889043927
30
0
10
417.9777978154612
20
-94.192254295838922
30
0
10
417.97788690594189
20
-94.782370885335808
30
0
0
SPLINE
5
614
100
AcDbEntity
8
0
100
AcDbSpline
70
0
71
2
72
6
73
3
74
0
42
0.000000001
43
0.0000000001
44
0.0000000001
40
0
40
0
40
0
40
1
40
1
40
1
10
417.97788690594189
20
-94.782370885335808
30
0
10
417.97797635420096
20
-95.374857323692794
30
0
10
417.57514278769133
20
-95.751736228882777
30
0
0
SPLINE
5
615
100
AcDbEntity
8
0
100
AcDbSpline
70
0
71
2
72
6
73
3
74
0
42
0.000000001
43
0.0000000001
44
0.0000000001
40
0
40
0
40
0
40
1
40
1
40
1
10
417.57514278769133
20
-95.751736228882777
30
0
10
417.16994305176445
20
-96.126245642381491
30
0
10
416.62959328832994
20
-96.126327219515616
30
0
0
SPLINE
5
616
100
AcDbEntity
8
0
100
AcDbSpline
70
0
71
2
72
6
73
3
74
0
42
0.000000001
43
0.0000000001
44
0.0000000001
40
0
40
0
40
0
40
1
40
1
40
1
10
416.62959328832994
20
-96.126327219515616
30
0
10
416.09398322261586
20
-96.126408081092904
30
0
10
415.70052656880398
20
-95.770978032846216
30
0
0
SPLINE
5
617
100
AcDbEntity
8
0
100
AcDbSpline
70
0
71
2
72
6
73
3
74
0
42
0.000000001
43
0.0000000001
44
0.0000000001
40
0
40
0
40
0
40
1
40
1
40
1
10
415.70052656880398
20
-95.770978032846216
30
0
10
415.26676500542072
20
-95.380002298538002
30
0
10
415.26667484160487
20
-94.782776162460749
30
0
0
SPLINE
5
618
100
AcDbEntity
8
0
100
AcDbSpline
70
0
71
2
72
6
73
3
74
0
42
0.000000001
43
0.0000000001
44
0.0000000001
40
0
40
0
40
0
40
1
40
1
40
1
10
415.59135624710478
20
-94.78272714499029
30
0
10
415.59141850298579
20
-95.195096995535835
30
0
10
415.89718584173431
20
-95.491294059471159
30
0
0
SPLINE
5
619
100
AcDbEntity
8
0
100
AcDbSpline
70
0
71
2
72
6
73
3
74
0
42
0.000000001
43
0.0000000001
44
0.0000000001
40
0
40
0
40
0
40
1
40
1
40
1
10
415.89718584173431
20
-95.491294059471159
30
0
10
416.20295318048284
20
-95.787491123406483
30
0
10
416.63665570799071
20
-95.787425646910251
30
0
0
SPLINE
5
620
100
AcDbEntity
8
0
100
AcDbSpline
70
0
71
2
72
6
73
3
74
0
42
0.000000001
43
0.0000000001
44
0.0000000001
40
0
40
0
40
0
40
1
40
1
40
1
10
416.63665570799071
20
-95.787425646910251
30
0
10
416.91630594792713
20
-95.78738342783906
30
0
10
417.15801821212295
20
-95.652261510974427
30
0
0
SPLINE
5
621
100
AcDbEntity
8
0
100
AcDbSpline
70
0
71
2
72
6
73
3
74
0
42
0.000000001
43
0.0000000001
44
0.0000000001
40
0
40
0
40
0
40
1
40
1
40
1
10
417.15801821212295
20
-95.652261510974427
30
0
10
417.39973047631872
20
-95.517139594109807
30
0
10
417.53241538120312
20
-95.287236143425972
30
0
0
SPLINE
5
622
100
AcDbEntity
8
0
100
AcDbSpline
70
0
71
2
72
6
73
3
74
0
42
0.000000001
43
0.0000000001
44
0.0000000001
40
0
40
0
40
0
40
1
40
1
40
1
10
417.53241538120312
20
-95.287236143425972
30
0
10
417.66272640000631
20
-95.057333051130044
30
0
10
417.66268489588242
20
-94.782418471692608
30
0
0
SPLINE
5
623
100
AcDbEntity
8
0
100
AcDbSpline
70
0
71
2
72
6
73
3
74
0
42
0.000000001
43
0.0000000001
44
0.0000000001
40
0
40
0
40
0
40
1
40
1
40
1
10
417.66268489588242
20
-94.782418471692608
30
0
10
417.66264339175854
20
-94.507503892255187
30
0
10
417.53226296150621
20
-94.277640156803173
30
0
0
SPLINE
5
624
100
AcDbEntity
8
0
100
AcDbSpline
70
0
71
2
72
6
73
3
74
0
42
0.000000001
43
0.0000000001
44
0.0000000001
40
0
40
0
40
0
40
1
40
1
40
1
10
417.53226296150621
20
-94.277640156803173
30
0
10
417.39950864517255
20
-94.04777677973911
30
0
10
417.15775559301915
20
-93.912727852107793
30
0
0
SPLINE
5
625
100
AcDbEntity
8
0
100
AcDbSpline
70
0
71
2
72
6
73
3
74
0
42
0.000000001
43
0.0000000001
44
0.0000000001
40
0
40
0
40
0
40
1
40
1
40
1
10
417.15775559301915
20
-93.912727852107793
30
0
10
416.91600254086586
20
-93.777678924476433
30
0
10
416.63635230092945
20
-93.777721143547609
30
0
0
SPLINE
5
626
100
AcDbEntity
8
0
100
AcDbSpline
70
0
71
2
72
6
73
3
74
0
42
0.000000001
43
0.0000000001
44
0.0000000001
40
0
40
0
40
0
40
1
40
1
40
1
10
416.63635230092945
20
-93.777721143547609
30
0
10
416.20264977342163
20
-93.777786620043855
30
0
10
415.89697224071051
20
-94.076445843325658
30
0
0
SPLINE
5
627
100
AcDbEntity
8
0
100
AcDbSpline
70
0
71
2
72
6
73
3
74
0
42
0.000000001
43
0.0000000001
44
0.0000000001
40
0
40
0
40
0
40
1
40
1
40
1
10
415.89697224071051
20
-94.076445843325658
30
0
10
415.59129435022112
20
-94.372735217747334
30
0
10
415.59135624710478
20
-94.78272714499029
30
0
0
LWPOLYLINE
5
628
100
AcDbEntity
8
0
100
AcDbPolyline
90
13
70
1
43
0.0
10
415.33269387255103
20
-92.552290235737559
10
415.33274539447035
20
-92.893560583258335
10
417.91107183170288
20
-91.793517025193495
10
417.91106252946417
20
-91.731900954830422
10
416.06475676513048
20
-90.905070124620835
10
417.91081386371843
20
-90.084791401508383
10
417.91080420370145
20
-90.020805482285198
10
415.33214287307919
20
-88.902585725633259
10
415.33219511055535
20
-89.24859577087426
10
417.20456967178757
20
-90.051724176310657
10
415.33244091407391
20
-90.876746533315341
10
415.33244985853406
20
-90.935992754818287
10
417.20482799755041
20
-91.762819648855896
0
LWPOLYLINE
5
629
100
AcDbEntity
8
0
100
AcDbPolyline
90
13
70
1
43
0.0
10
423.22662557347093
20
-66.325875350287788
10
425.34190534223205
20
-69.140894227047355
10
425.57983109410196
20
-68.902896624561592
10
424.04282240430598
20
-66.887146605809988
10
426.70244694718758
20
-67.779941755460101
10
426.76443911244678
20
-67.717930869338559
10
425.87251976869112
20
-65.083712523805772
10
427.87700135268256
20
-66.605032649152932
10
428.11995498134564
20
-66.362005651517677
10
425.30094657477269
20
-64.250927929860126
10
425.26073640484634
20
-64.291150242757368
10
426.29180927573566
20
-67.305758261926897
10
423.26683574339734
20
-66.285653037390546
0
LINE
5
630
100
AcDbEntity
8
0
100
AcDbLine
10
429.69672741261843
20
-63.574652833994762
30
0
11
429.998358607348
21
-63.480764639759997
31
0
0
SPLINE
5
631
100
AcDbEntity
8
0
100
AcDbSpline
70
0
71
2
72
6
73
3
74
0
42
0.000000001
43
0.0000000001
44
0.0000000001
40
0
40
0
40
0
40
1
40
1
40
1
10
429.998358607348
20
-63.480764639759997
30
0
10
430.09224477725138
20
-63.768987090147959
30
0
10
430.08222872511749
20
-64.013656084579523
30
0
0
SPLINE
5
632
100
AcDbEntity
8
0
100
AcDbSpline
70
0
71
2
72
6
73
3
74
0
42
0.000000001
43
0.0000000001
44
0.0000000001
40
0
40
0
40
0
40
1
40
1
40
1
10
430.08222872511749
20
-64.013656084579523
30
0
10
430.0722126729836
20
-64.258325079011087
30
0
10
429.97505051432131
20
-64.479545495276611
30
0
0
SPLINE
5
633
100
AcDbEntity
8
0
100
AcDbSpline
70
0
71
2
72
6
73
3
74
0
42
0.000000001
43
0.0000000001
44
0.0000000001
40
0
40
0
40
0
40
1
40
1
40
1
10
429.97505051432131
20
-64.479545495276611
30
0
10
429.87619809058458
20
-64.699076156752668
30
0
10
429.6751315422174
20
-64.900203424715016
30
0
0
SPLINE
5
634
100
AcDbEntity
8
0
100
AcDbSpline
70
0
71
2
72
6
73
3
74
0
42
0.000000001
43
0.0000000001
44
0.0000000001
40
0
40
0
40
0
40
1
40
1
40
1
10
429.6751315422174
20
-64.900203424715016
30
0
10
429.22943588197529
20
-65.346033679499541
30
0
10
428.68647700837465
20
-65.305900835578456
30
0
0
SPLINE
5
635
100
AcDbEntity
8
0
100
AcDbSpline
70
0
71
2
72
6
73
3
74
0
42
0.000000001
43
0.0000000001
44
0.0000000001
40
0
40
0
40
0
40
1
40
1
40
1
10
428.68647700837465
20
-65.305900835578456
30
0
10
428.14183786325179
20
-65.264091081718732
30
0
10
427.77310311106538
20
-64.89546764922116
30
0
0
SPLINE
5
636
100
AcDbEntity
8
0
100
AcDbSpline
70
0
71
2
72
6
73
3
74
0
42
0.000000001
43
0.0000000001
44
0.0000000001
40
0
40
0
40
0
40
1
40
1
40
1
10
427.77310311106538
20
-64.89546764922116
30
0
10
427.42615907348636
20
-64.548628352793003
30
0
10
427.36743090818834
20
-64.064330890531068
30
0
0
SPLINE
5
637
100
AcDbEntity
8
0
100
AcDbSpline
70
0
71
2
72
6
73
3
74
0
42
0.000000001
43
0.0000000001
44
0.0000000001
40
0
40
0
40
0
40
1
40
1
40
1
10
427.36743090818834
20
-64.064330890531068
30
0
10
427.2919299293419
20
-63.449324251826873
30
0
10
427.74432609527361
20
-62.996791467883433
30
0
0
SPLINE
5
638
100
AcDbEntity
8
0
100
AcDbSpline
70
0
71
2
72
6
73
3
74
0
42
0.000000001
43
0.0000000001
44
0.0000000001
40
0
40
0
40
0
40
1
40
1
40
1
10
427.74432609527361
20
-62.996791467883433
30
0
10
428.21012755405781
20
-62.530849342855923
30
0
10
428.84191575165397
20
-62.606166373982212
30
0
0
SPLINE
5
639
100
AcDbEntity
8
0
100
AcDbSpline
70
0
71
2
72
6
73
3
74
0
42
0.000000001
43
0.0000000001
44
0.0000000001
40
0
40
0
40
0
40
1
40
1
40
1
10
428.84191575165397
20
-62.606166373982212
30
0
10
429.28936086082263
20
-62.658048073492914
30
0
10
429.66647169181601
20
-63.028343122936661
30
0
0
LINE
5
640
100
AcDbEntity
8
0
100
AcDbLine
10
429.66647169181601
20
-63.028343122936654
30
0
11
428.02778774285429
21
-64.667521934056282
31
0
0
SPLINE
5
641
100
AcDbEntity
8
0
100
AcDbSpline
70
0
71
2
72
6
73
3
74
0
42
0.000000001
43
0.0000000001
44
0.0000000001
40
0
40
0
40
0
40
1
40
1
40
1
10
428.02778774285429
20
-64.667521934056282
30
0
10
428.35297186655407
20
-64.979138370278861
30
0
10
428.75345410465809
20
-64.987487992482457
30
0
0
SPLINE
5
642
100
AcDbEntity
8
0
100
AcDbSpline
70
0
71
2
72
6
73
3
74
0
42
0.000000001
43
0.0000000001
44
0.0000000001
40
0
40
0
40
0
40
1
40
1
40
1
10
428.75345410465809
20
-64.987487992482457
30
0
10
429.15229603338133
20
-64.994132151248607
30
0
10
429.44049056307961
20
-64.705850590389133
30
0
0
SPLINE
5
643
100
AcDbEntity
8
0
100
AcDbSpline
70
0
71
2
72
6
73
3
74
0
42
0.000000001
43
0.0000000001
44
0.0000000001
40
0
40
0
40
0
40
1
40
1
40
1
10
429.44049056307961
20
-64.705850590389133
30
0
10
429.57956137829331
20
-64.56673777752016
30
0
10
429.66164823584961
20
-64.387413043126912
30
0
0
SPLINE
5
644
100
AcDbEntity
8
0
100
AcDbSpline
70
0
71
2
72
6
73
3
74
0
42
0.000000001
43
0.0000000001
44
0.0000000001
40
0
40
0
40
0
40
1
40
1
40
1
10
429.66164823584961
20
-64.387413043126912
30
0
10
429.7454091494601
20
-64.206413747135514
30
0
10
429.75711752661255
20
-64.033806864920663
30
0
0
SPLINE
5
645
100
AcDbEntity
8
0
100
AcDbSpline
70
0
71
2
72
6
73
3
74
0
42
0.000000001
43
0.0000000001
44
0.0000000001
40
0
40
0
40
0
40
1
40
1
40
1
10
429.75711752661255
20
-64.033806864920663
30
0
10
429.76882019341008
20
-63.861194274074776
30
0
10
429.69672741261843
20
-63.574652833994762
30
0
0
SPLINE
5
646
100
AcDbEntity
8
0
100
AcDbSpline
70
0
71
2
72
6
73
3
74
0
42
0.000000001
43
0.0000000001
44
0.0000000001
40
0
40
0
40
0
40
1
40
1
40
1
10
429.20564259460974
20
-63.083716272717439
30
0
10
428.97101113823101
20
-62.942985569182888
30
0
10
428.76823805977529
20
-62.921231610945128
30
0
0
SPLINE
5
647
100
AcDbEntity
8
0
100
AcDbSpline
70
0
71
2
72
6
73
3
74
0
42
0.000000001
43
0.0000000001
44
0.0000000001
40
0
40
0
40
0
40
1
40
1
40
1
10
428.76823805977529
20
-62.921231610945128
30
0
10
428.56713903737375
20
-62.897803091109196
30
0
10
428.35097382141771
20
-62.976596756323119
30
0
0
SPLINE
5
648
100
AcDbEntity
8
0
100
AcDbSpline
70
0
71
2
72
6
73
3
74
0
42
0.000000001
43
0.0000000001
44
0.0000000001
40
0
40
0
40
0
40
1
40
1
40
1
10
428.35097382141771
20
-62.976596756323119
30
0
10
428.13480717830379
20
-63.05539184912579
30
0
10
427.97227959812449
20
-63.217968510611591
30
0
0
SPLINE
5
649
100
AcDbEntity
8
0
100
AcDbSpline
70
0
71
2
72
6
73
3
74
0
42
0.000000001
43
0.0000000001
44
0.0000000001
40
0
40
0
40
0
40
1
40
1
40
1
10
427.97227959812449
20
-63.217968510611591
30
0
10
427.70419229412596
20
-63.486136773639323
30
0
10
427.6841400407605
20
-63.85146600184428
30
0
0
SPLINE
5
650
100
AcDbEntity
8
0
100
AcDbSpline
70
0
71
2
72
6
73
3
74
0
42
0.000000001
43
0.0000000001
44
0.0000000001
40
0
40
0
40
0
40
1
40
1
40
1
10
427.6841400407605
20
-63.85146600184428
30
0
10
427.66909578653122
20
-64.117918899103586
30
0
10
427.84845695285401
20
-64.441323188356307
30
0
0
LINE
5
651
100
AcDbEntity
8
0
100
AcDbLine
10
427.84845695285401
20
-64.441323188356307
30
0
11
429.20564259460974
21
-63.083716272717439
31
0
0
LINE
5
652
100
AcDbEntity
8
0
100
AcDbLine
10
432.12485224022379
20
-61.145794742911299
30
0
11
432.4264834349533
21
-61.051906548676527
31
0
0
SPLINE
5
653
100
AcDbEntity
8
0
100
AcDbSpline
70
0
71
2
72
6
73
3
74
0
42
0.000000001
43
0.0000000001
44
0.0000000001
40
0
40
0
40
0
40
1
40
1
40
1
10
432.4264834349533
20
-61.051906548676527
30
0
10
432.52036960485674
20
-61.340128999064504
30
0
10
432.51035355272285
20
-61.584797993496075
30
0
0
SPLINE
5
654
100
AcDbEntity
8
0
100
AcDbSpline
70
0
71
2
72
6
73
3
74
0
42
0.000000001
43
0.0000000001
44
0.0000000001
40
0
40
0
40
0
40
1
40
1
40
1
10
432.51035355272285
20
-61.584797993496075
30
0
10
432.50033607343119
20
-61.829468415516374
30
0
10
432.40317534192661
20
-62.050687404193148
30
0
0
SPLINE
5
655
100
AcDbEntity
8
0
100
AcDbSpline
70
0
71
2
72
6
73
3
74
0
42
0.000000001
43
0.0000000001
44
0.0000000001
40
0
40
0
40
0
40
1
40
1
40
1
10
432.40317534192661
20
-62.050687404193148
30
0
10
432.30432291818994
20
-62.270218065669205
30
0
10
432.10325779698053
20
-62.471343906042819
30
0
0
SPLINE
5
656
100
AcDbEntity
8
0
100
AcDbSpline
70
0
71
2
72
6
73
3
74
0
42
0.000000001
43
0.0000000001
44
0.0000000001
40
0
40
0
40
0
40
1
40
1
40
1
10
432.10325779698053
20
-62.471343906042819
30
0
10
431.65756213673836
20
-62.917174160827344
30
0
10
431.11460183598001
20
-62.877042744495
30
0
0
SPLINE
5
657
100
AcDbEntity
8
0
100
AcDbSpline
70
0
71
2
72
6
73
3
74
0
42
0.000000001
43
0.0000000001
44
0.0000000001
40
0
40
0
40
0
40
1
40
1
40
1
10
431.11460183598001
20
-62.877042744495
30
0
10
430.56996411801492
20
-62.835231563046534
30
0
10
430.20122936582851
20
-62.466608130548956
30
0
0
SPLINE
5
658
100
AcDbEntity
8
0
100
AcDbSpline
70
0
71
2
72
6
73
3
74
0
42
0.000000001
43
0.0000000001
44
0.0000000001
40
0
40
0
40
0
40
1
40
1
40
1
10
430.20122936582851
20
-62.466608130548956
30
0
10
429.85428532824955
20
-62.119768834120805
30
0
10
429.79555716295152
20
-61.635471371858863
30
0
0
SPLINE
5
659
100
AcDbEntity
8
0
100
AcDbSpline
70
0
71
2
72
6
73
3
74
0
42
0.000000001
43
0.0000000001
44
0.0000000001
40
0
40
0
40
0
40
1
40
1
40
1
10
429.79555716295152
20
-61.635471371858863
30
0
10
429.72005475694721
20
-61.02046616074341
30
0
10
430.17245235003668
20
-60.567931949211236
30
0
0
SPLINE
5
660
100
AcDbEntity
8
0
100
AcDbSpline
70
0
71
2
72
6
73
3
74
0
42
0.000000001
43
0.0000000001
44
0.0000000001
40
0
40
0
40
0
40
1
40
1
40
1
10
430.17245235003668
20
-60.567931949211236
30
0
10
430.63825380882093
20
-60.101989824183725
30
0
10
431.27004343357487
20
-60.177305427721265
30
0
0
SPLINE
5
661
100
AcDbEntity
8
0
100
AcDbSpline
70
0
71
2
72
6
73
3
74
0
42
0.000000001
43
0.0000000001
44
0.0000000001
40
0
40
0
40
0
40
1
40
1
40
1
10
431.27004343357487
20
-60.177305427721265
30
0
10
431.71748854274347
20
-60.229187127231974
30
0
10
432.09459937373686
20
-60.599482176675721
30
0
0
LINE
5
662
100
AcDbEntity
8
0
100
AcDbLine
10
432.09459937373686
20
-60.599482176675714
30
0
11
430.45591542477518
21
-62.238660987795328
31
0
0
SPLINE
5
663
100
AcDbEntity
8
0
100
AcDbSpline
70
0
71
2
72
6
73
3
74
0
42
0.000000001
43
0.0000000001
44
0.0000000001
40
0
40
0
40
0
40
1
40
1
40
1
10
430.45591542477518
20
-62.238660987795328
30
0
10
430.78109954847497
20
-62.550277424017921
30
0
10
431.18158178657905
20
-62.558627046221524
30
0
0
SPLINE
5
664
100
AcDbEntity
8
0
100
AcDbSpline
70
0
71
2
72
6
73
3
74
0
42
0.000000001
43
0.0000000001
44
0.0000000001
40
0
40
0
40
0
40
1
40
1
40
1
10
431.18158178657905
20
-62.558627046221524
30
0
10
431.58042371530223
20
-62.56527120498766
30
0
10
431.8686182450005
20
-62.276989644128193
30
0
0
SPLINE
5
665
100
AcDbEntity
8
0
100
AcDbSpline
70
0
71
2
72
6
73
3
74
0
42
0.000000001
43
0.0000000001
44
0.0000000001
40
0
40
0
40
0
40
1
40
1
40
1
10
431.8686182450005
20
-62.276989644128193
30
0
10
432.00768906021415
20
-62.137876831259213
30
0
10
432.0897744906128
20
-61.958553524454715
30
0
0
SPLINE
5
666
100
AcDbEntity
8
0
100
AcDbSpline
70
0
71
2
72
6
73
3
74
0
42
0.000000001
43
0.0000000001
44
0.0000000001
40
0
40
0
40
0
40
1
40
1
40
1
10
432.0897744906128
20
-61.958553524454715
30
0
10
432.173536831381
20
-61.777552800874567
30
0
10
432.18524378137568
20
-61.604947346248466
30
0
0
SPLINE
5
667
100
AcDbEntity
8
0
100
AcDbSpline
70
0
71
2
72
6
73
3
74
0
42
0.000000001
43
0.0000000001
44
0.0000000001
40
0
40
0
40
0
40
1
40
1
40
1
10
432.18524378137568
20
-61.604947346248466
30
0
10
432.19694502101538
20
-61.432336182991314
30
0
10
432.12485224022379
20
-61.145794742911299
30
0
0
SPLINE
5
668
100
AcDbEntity
8
0
100
AcDbSpline
70
0
71
2
72
6
73
3
74
0
42
0.000000001
43
0.0000000001
44
0.0000000001
40
0
40
0
40
0
40
1
40
1
40
1
10
431.6337674222151
20
-60.654858181633983
30
0
10
431.39913596583631
20
-60.514127478099439
30
0
10
431.19636288738064
20
-60.492373519861673
30
0
0
SPLINE
5
669
100
AcDbEntity
8
0
100
AcDbSpline
70
0
71
2
72
6
73
3
74
0
42
0.000000001
43
0.0000000001
44
0.0000000001
40
0
40
0
40
0
40
1
40
1
40
1
10
431.19636288738064
20
-60.492373519861673
30
0
10
430.99526386497917
20
-60.468945000025741
30
0
10
430.77909864902301
20
-60.547738665239663
30
0
0
SPLINE
5
670
100
AcDbEntity
8
0
100
AcDbSpline
70
0
71
2
72
6
73
3
74
0
42
0.000000001
43
0.0000000001
44
0.0000000001
40
0
40
0
40
0
40
1
40
1
40
1
10
430.77909864902301
20
-60.547738665239663
30
0
10
430.56293200590915
20
-60.626533758042328
30
0
10
430.40040442572979
20
-60.789110419528136
30
0
0
SPLINE
5
671
100
AcDbEntity
8
0
100
AcDbSpline
70
0
71
2
72
6
73
3
74
0
42
0.000000001
43
0.0000000001
44
0.0000000001
40
0
40
0
40
0
40
1
40
1
40
1
10
430.40040442572979
20
-60.789110419528136
30
0
10
430.13231712173132
20
-61.057278682555861
30
0
10
430.11226486836591
20
-61.422607910760831
30
0
0
SPLINE
5
672
100
AcDbEntity
8
0
100
AcDbSpline
70
0
71
2
72
6
73
3
74
0
42
0.000000001
43
0.0000000001
44
0.0000000001
40
0
40
0
40
0
40
1
40
1
40
1
10
430.11226486836591
20
-61.422607910760831
30
0
10
430.09722061413652
20
-61.68906080802013
30
0
10
430.27658320761708
20
-62.012463669684095
30
0
0
LINE
5
673
100
AcDbEntity
8
0
100
AcDbLine
10
430.27658320761708
20
-62.012463669684109
30
0
11
431.6337674222151
21
-60.654858181633983
31
0
0
LWPOLYLINE
5
674
100
AcDbEntity
8
0
100
AcDbPolyline
90
12
70
1
43
0.0
10
431.56322285557195
20
-57.916351839437823
10
431.32697115975617
20
-58.152674880325399
10
432.00409363269
20
-58.829592932432305
10
431.68406492196686
20
-59.149718287843157
10
431.88518933475171
20
-59.350781981894812
10
432.20521804547496
20
-59.030656626483953
10
433.82763268195913
20
-60.652581461853956
10
434.06388437777491
20
-60.416258420966386
10
432.44146974129075
20
-58.794333585596377
10
432.81344128589643
20
-58.422249710213627
10
432.61231687311152
20
-58.221186016161965
10
432.24034532850578
20
-58.593269891544715
0
SPLINE
5
675
100
AcDbEntity
8
0
100
AcDbSpline
70
0
71
2
72
6
73
3
74
0
42
0.000000001
43
0.0000000001
44
0.0000000001
40
0
40
0
40
0
40
1
40
1
40
1
10
432.49171514084139
20
-56.840092105882334
30
0
10
432.57214118932518
20
-56.759641769732887
30
0
10
432.68609981555329
20
-56.759627420033809
30
0
0
SPLINE
5
676
100
AcDbEntity
8
0
100
AcDbSpline
70
0
71
2
72
6
73
3
74
0
42
0.000000001
43
0.0000000001
44
0.0000000001
40
0
40
0
40
0
40
1
40
1
40
1
10
432.68609981555329
20
-56.759627420033809
30
0
10
432.80005986893917
20
-56.75961164274598
30
0
10
432.88050734991117
20
-56.840034836914235
30
0
0
SPLINE
5
677
100
AcDbEntity
8
0
100
AcDbSpline
70
0
71
2
72
6
73
3
74
0
42
0.000000001
43
0.0000000001
44
0.0000000001
40
0
40
0
40
0
40
1
40
1
40
1
10
432.88050734991117
20
-56.840034836914235
30
0
10
432.95928169687375
20
-56.91878540218616
30
0
10
432.95929461855303
20
-57.032739746510039
30
0
0
SPLINE
5
678
100
AcDbEntity
8
0
100
AcDbSpline
70
0
71
2
72
6
73
3
74
0
42
0.000000001
43
0.0000000001
44
0.0000000001
40
0
40
0
40
0
40
1
40
1
40
1
10
432.95929461855303
20
-57.032739746510039
30
0
10
432.9593132505874
20
-57.14669979946494
30
0
10
432.87888862926138
20
-57.227148708025652
30
0
0
SPLINE
5
679
100
AcDbEntity
8
0
100
AcDbSpline
70
0
71
2
72
6
73
3
74
0
42
0.000000001
43
0.0000000001
44
0.0000000001
40
0
40
0
40
0
40
1
40
1
40
1
10
432.87888862926138
20
-57.227148708025652
30
0
10
432.80013806398938
20
-57.305923054988178
30
0
10
432.68618086491904
20
-57.305935977098514
30
0
0
SPLINE
5
680
100
AcDbEntity
8
0
100
AcDbSpline
70
0
71
2
72
6
73
3
74
0
42
0.000000001
43
0.0000000001
44
0.0000000001
40
0
40
0
40
0
40
1
40
1
40
1
10
432.68618086491904
20
-57.305935977098514
30
0
10
432.57222081153316
20
-57.305951754386328
30
0
10
432.49345217492561
20
-57.227206897745447
30
0
0
SPLINE
5
681
100
AcDbEntity
8
0
100
AcDbSpline
70
0
71
2
72
6
73
3
74
0
42
0.000000001
43
0.0000000001
44
0.0000000001
40
0
40
0
40
0
40
1
40
1
40
1
10
432.49345217492561
20
-57.227206897745447
30
0
10
432.4129989835987
20
-57.146777994946156
30
0
10
432.41298606191936
20
-57.032823650622284
30
0
0
SPLINE
5
682
100
AcDbEntity
8
0
100
AcDbSpline
70
0
71
2
72
6
73
3
74
0
42
0.000000001
43
0.0000000001
44
0.0000000001
40
0
40
0
40
0
40
1
40
1
40
1
10
432.41298606191936
20
-57.032823650622284
30
0
10
432.41296742988493
20
-56.918863597667375
30
0
10
432.49171514084139
20
-56.840092105882334
30
0
0
LWPOLYLINE
5
683
100
AcDbEntity
8
0
100
AcDbPolyline
90
4
70
1
43
0.0
10
433.36155043786835
20
-57.471737612903908
10
433.12529874205256
20
-57.708060653791485
10
434.94884350167666
20
-59.5310548918442
10
435.18509519749239
20
-59.294731850956623
0
LINE
5
684
100
AcDbEntity
8
0
100
AcDbLine
10
434.04543016553521
20
-56.787651362070733
30
0
11
434.28000637813909
21
-56.553004310370056
31
0
0
LINE
5
685
100
AcDbEntity
8
0
100
AcDbLine
10
434.28000637813909
20
-56.553004310370056
30
0
11
434.60683854547511
21
-56.879737808256166
31
0
0
SPLINE
5
686
100
AcDbEntity
8
0
100
AcDbSpline
70
0
71
2
72
6
73
3
74
0
42
0.000000001
43
0.0000000001
44
0.0000000001
40
0
40
0
40
0
40
1
40
1
40
1
10
434.60683854547511
20
-56.879737808256159
30
0
10
434.55986834461106
20
-56.551289177843316
30
0
10
434.63859108039173
20
-56.288178139456292
30
0
0
SPLINE
5
687
100
AcDbEntity
8
0
100
AcDbSpline
70
0
71
2
72
6
73
3
74
0
42
0.000000001
43
0.0000000001
44
0.0000000001
40
0
40
0
40
0
40
1
40
1
40
1
10
434.63859108039173
20
-56.288178139456292
30
0
10
434.71563497180807
20
-56.023388763541924
30
0
10
434.91670152017525
20
-55.822261495579568
30
0
0
SPLINE
5
688
100
AcDbEntity
8
0
100
AcDbSpline
70
0
71
2
72
6
73
3
74
0
42
0.000000001
43
0.0000000001
44
0.0000000001
40
0
40
0
40
0
40
1
40
1
40
1
10
434.91670152017525
20
-55.822261495579568
30
0
10
435.12111760780834
20
-55.617783676832111
30
0
10
435.38253577829596
20
-55.564120650672074
30
0
0
SPLINE
5
689
100
AcDbEntity
8
0
100
AcDbSpline
70
0
71
2
72
6
73
3
74
0
42
0.000000001
43
0.0000000001
44
0.0000000001
40
0
40
0
40
0
40
1
40
1
40
1
10
435.38253577829596
20
-55.564120650672074
30
0
10
435.64562943199542
20
-55.508781635325136
30
0
10
435.89701075064727
20
-55.609287858294991
30
0
0
SPLINE
5
690
100
AcDbEntity
8
0
100
AcDbSpline
70
0
71
2
72
6
73
3
74
0
42
0.000000001
43
0.0000000001
44
0.0000000001
40
0
40
0
40
0
40
1
40
1
40
1
10
435.89701075064727
20
-55.609287858294991
30
0
10
436.14839777965415
20
-55.709799789895897
30
0
10
436.52047879985946
20
-56.081768480186099
30
0
0
LINE
5
691
100
AcDbEntity
8
0
100
AcDbLine
10
436.52047879985935
20
-56.081768480186099
30
0
11
437.45906700666211
21
-57.020073330601875
31
0
0
LINE
5
692
100
AcDbEntity
8
0
100
AcDbLine
10
437.45906700666211
20
-57.020073330601875
30
0
11
437.22616627727001
21
-57.253044393115637
31
0
0
LINE
5
693
100
AcDbEntity
8
0
100
AcDbLine
10
437.22616627727001
20
-57.253044393115637
30
0
11
436.35629648230832
21
-56.383437208700762
31
0
0
SPLINE
5
694
100
AcDbEntity
8
0
100
AcDbSpline
70
0
71
2
72
6
73
3
74
0
42
0.000000001
43
0.0000000001
44
0.0000000001
40
0
40
0
40
0
40
1
40
1
40
1
10
436.35629648230832
20
-56.383437208700762
30
0
10
436.04119909445819
20
-56.068434947613063
30
0
10
435.90879976195788
20
-55.989693905531112
30
0
0
SPLINE
5
695
100
AcDbEntity
8
0
100
AcDbSpline
70
0
71
2
72
6
73
3
74
0
42
0.000000001
43
0.0000000001
44
0.0000000001
40
0
40
0
40
0
40
1
40
1
40
1
10
435.90879976195788
20
-55.989693905531112
30
0
10
435.68590013912001
20
-55.850635739694411
30
0
10
435.47977553526596
20
-55.875804329464998
30
0
0
SPLINE
5
696
100
AcDbEntity
8
0
100
AcDbSpline
70
0
71
2
72
6
73
3
74
0
42
0.000000001
43
0.0000000001
44
0.0000000001
40
0
40
0
40
0
40
1
40
1
40
1
10
435.47977553526596
20
-55.875804329464998
30
0
10
435.27198065171797
20
-55.899297435161785
30
0
10
435.08599487941513
20
-56.085339372853156
30
0
0
SPLINE
5
697
100
AcDbEntity
8
0
100
AcDbSpline
70
0
71
2
72
6
73
3
74
0
42
0.000000001
43
0.0000000001
44
0.0000000001
40
0
40
0
40
0
40
1
40
1
40
1
10
435.08599487941513
20
-56.085339372853156
30
0
10
434.87320137572283
20
-56.298197137535169
30
0
10
434.84475923759419
20
-56.608225481782874
30
0
0
SPLINE
5
698
100
AcDbEntity
8
0
100
AcDbSpline
70
0
71
2
72
6
73
3
74
0
42
0.000000001
43
0.0000000001
44
0.0000000001
40
0
40
0
40
0
40
1
40
1
40
1
10
434.84475923759419
20
-56.608225481782874
30
0
10
434.81799400983527
20
-56.91657640925488
30
0
10
434.97220406227342
20
-57.177976545312681
30
0
0
SPLINE
5
699
100
AcDbEntity
8
0
100
AcDbSpline
70
0
71
2
72
6
73
3
74
0
42
0.000000001
43
0.0000000001
44
0.0000000001
40
0
40
0
40
0
40
1
40
1
40
1
10
434.97220406227342
20
-57.177976545312681
30
0
10
435.074448095881
20
-57.347217606291665
30
0
10
435.43480004695533
20
-57.707460768414535
30
0
0
LINE
5
700
100
AcDbEntity
8
0
100
AcDbLine
10
435.43480004695533
20
-57.707460768414535
30
0
11
436.10353971877714
21
-58.375998550146718
31
0
0
LINE
5
701
100
AcDbEntity
8
0
100
AcDbLine
10
436.10353971877714
20
-58.375998550146718
30
0
11
435.86896350617326
21
-58.610645601847374
31
0
0
LINE
5
702
100
AcDbEntity
8
0
100
AcDbLine
10
435.86896350617326
20
-58.610645601847374
30
0
11
434.04543016553521
21
-56.787651362070733
31
0
0
LINE
5
703
100
AcDbEntity
8
0
100
AcDbLine
10
437.9061473712573
20
-52.92576826780202
30
0
11
438.14239906707309
21
-52.68944522691443
31
0
0
LINE
5
704
100
AcDbEntity
8
0
100
AcDbLine
10
438.14239906707309
20
-52.68944522691443
30
0
11
439.59553594050129
21
-54.142143403573243
31
0
0
SPLINE
5
705
100
AcDbEntity
8
0
100
AcDbSpline
70
0
71
2
72
6
73
3
74
0
42
0.000000001
43
0.0000000001
44
0.0000000001
40
0
40
0
40
0
40
1
40
1
40
1
10
439.59553594050129
20
-54.142143403573243
30
0
10
439.97935174019244
20
-54.52584333066185
30
0
10
440.08999297588696
20
-54.770489827224395
30
0
0
SPLINE
5
706
100
AcDbEntity
8
0
100
AcDbSpline
70
0
71
2
72
6
73
3
74
0
42
0.000000001
43
0.0000000001
44
0.0000000001
40
0
40
0
40
0
40
1
40
1
40
1
10
440.08999297588696
20
-54.770489827224395
30
0
10
440.24924834366766
20
-55.114005986720109
30
0
10
440.1571377535837
20
-55.477671784778593
30
0
0
SPLINE
5
707
100
AcDbEntity
8
0
100
AcDbSpline
70
0
71
2
72
6
73
3
74
0
42
0.000000001
43
0.0000000001
44
0.0000000001
40
0
40
0
40
0
40
1
40
1
40
1
10
440.1571377535837
20
-55.477671784778593
30
0
10
440.06502145314477
20
-55.841331874206041
30
0
10
439.74499274242157
20
-56.1614572296169
30
0
0
SPLINE
5
708
100
AcDbEntity
8
0
100
AcDbSpline
70
0
71
2
72
6
73
3
74
0
42
0.000000001
43
0.0000000001
44
0.0000000001
40
0
40
0
40
0
40
1
40
1
40
1
10
439.74499274242157
20
-56.1614572296169
30
0
10
439.51041652981758
20
-56.396104281317569
30
0
10
439.25569286540633
20
-56.516780045198132
30
0
0
SPLINE
5
709
100
AcDbEntity
8
0
100
AcDbSpline
70
0
71
2
72
6
73
3
74
0
42
0.000000001
43
0.0000000001
44
0.0000000001
40
0
40
0
40
0
40
1
40
1
40
1
10
439.25569286540633
20
-56.516780045198132
30
0
10
439.00436350105622
20
-56.637498117836458
30
0
10
438.77475271227854
20
-56.64253287102288
30
0
0
SPLINE
5
710
100
AcDbEntity
8
0
100
AcDbSpline
70
0
71
2
72
6
73
3
74
0
42
0.000000001
43
0.0000000001
44
0.0000000001
40
0
40
0
40
0
40
1
40
1
40
1
10
438.77475271227854
20
-56.64253287102288
30
0
10
438.5468493196401
20
-56.649274504891885
30
0
10
438.23344778167814
20
-56.533683172677698
30
0
0
LINE
5
711
100
AcDbEntity
8
0
100
AcDbLine
10
438.23344778167814
20
-56.533683172677698
30
0
11
438.48813121998194
21
-56.278922823145294
31
0
0
SPLINE
5
712
100
AcDbEntity
8
0
100
AcDbSpline
70
0
71
2
72
6
73
3
74
0
42
0.000000001
43
0.0000000001
44
0.0000000001
40
0
40
0
40
0
40
1
40
1
40
1
10
438.48813121998194
20
-56.278922823145294
30
0
10
438.77303371348603
20
-56.355970814930899
30
0
10
439.02438821459691
20
-56.278843291273795
30
0
0
SPLINE
5
713
100
AcDbEntity
8
0
100
AcDbSpline
70
0
71
2
72
6
73
3
74
0
42
0.000000001
43
0.0000000001
44
0.0000000001
40
0
40
0
40
0
40
1
40
1
40
1
10
439.02438821459691
20
-56.278843291273795
30
0
10
439.27574842606271
20
-56.201721476247705
30
0
10
439.51870205472579
20
-55.958694478612465
30
0
0
SPLINE
5
714
100
AcDbEntity
8
0
100
AcDbSpline
70
0
71
2
72
6
73
3
74
0
42
0.000000001
43
0.0000000001
44
0.0000000001
40
0
40
0
40
0
40
1
40
1
40
1
10
439.51870205472579
20
-55.958694478612465
30
0
10
439.75830614412303
20
-55.719018031762289
30
0
10
439.83200579142078
20
-55.464289287650288
30
0
0
SPLINE
5
715
100
AcDbEntity
8
0
100
AcDbSpline
70
0
71
2
72
6
73
3
74
0
42
0.000000001
43
0.0000000001
44
0.0000000001
40
0
40
0
40
0
40
1
40
1
40
1
10
439.83200579142078
20
-55.464289287650288
30
0
10
439.90904834558484
20
-55.209551474616667
30
0
10
439.84366351547988
20
-55.003440079114284
30
0
0
SPLINE
5
716
100
AcDbEntity
8
0
100
AcDbSpline
70
0
71
2
72
6
73
3
74
0
42
0.000000001
43
0.0000000001
44
0.0000000001
40
0
40
0
40
0
40
1
40
1
40
1
10
439.84366351547988
20
-55.003440079114284
30
0
10
439.77827297502006
20
-54.797322974980844
30
0
10
439.47658350066524
20
-54.495724579587858
30
0
0
LINE
5
717
100
AcDbEntity
8
0
100
AcDbLine
10
439.47658350066524
20
-54.495724579587858
30
0
11
439.38272239584302
21
-54.401891811093861
31
0
0
SPLINE
5
718
100
AcDbEntity
8
0
100
AcDbSpline
70
0
71
2
72
6
73
3
74
0
42
0.000000001
43
0.0000000001
44
0.0000000001
40
0
40
0
40
0
40
1
40
1
40
1
10
439.38272239584296
20
-54.401891811093861
30
0
10
439.41795814252322
20
-54.701854697030072
30
0
10
439.31745647419109
20
-54.983404976763744
30
0
0
SPLINE
5
719
100
AcDbEntity
8
0
100
AcDbSpline
70
0
71
2
72
6
73
3
74
0
42
0.000000001
43
0.0000000001
44
0.0000000001
40
0
40
0
40
0
40
1
40
1
40
1
10
439.31745647419109
20
-54.983404976763744
30
0
10
439.21527596149446
20
-55.263276918970085
30
0
10
439.00080554743255
20
-55.477812100427769
30
0
0
SPLINE
5
720
100
AcDbEntity
8
0
100
AcDbSpline
70
0
71
2
72
6
73
3
74
0
42
0.000000001
43
0.0000000001
44
0.0000000001
40
0
40
0
40
0
40
1
40
1
40
1
10
439.00080554743255
20
-55.477812100427769
30
0
10
438.74947307555249
20
-55.729220471586338
30
0
10
438.40427181845649
20
-55.826468143484604
30
0
0
SPLINE
5
721
100
AcDbEntity
8
0
100
AcDbSpline
70
0
71
2
72
6
73
3
74
0
42
0.000000001
43
0.0000000001
44
0.0000000001
40
0
40
0
40
0
40
1
40
1
40
1
10
438.40427181845649
20
-55.826468143484604
30
0
10
438.05739742735113
20
-55.922043186486547
30
0
10
437.72557800671905
20
-55.831602097388028
30
0
0
SPLINE
5
722
100
AcDbEntity
8
0
100
AcDbSpline
70
0
71
2
72
6
73
3
74
0
42
0.000000001
43
0.0000000001
44
0.0000000001
40
0
40
0
40
0
40
1
40
1
40
1
10
437.72557800671905
20
-55.831602097388028
30
0
10
437.39375858608707
20
-55.741161008289517
30
0
10
437.14066994297531
20
-55.488148771724312
30
0
0
SPLINE
5
723
100
AcDbEntity
8
0
100
AcDbSpline
70
0
71
2
72
6
73
3
74
0
42
0.000000001
43
0.0000000001
44
0.0000000001
40
0
40
0
40
0
40
1
40
1
40
1
10
437.14066994297531
20
-55.488148771724312
30
0
10
436.88758701021862
20
-55.235142243790143
30
0
10
436.79536251757077
20
-54.891614537204141
30
0
0
SPLINE
5
724
100
AcDbEntity
8
0
100
AcDbSpline
70
0
71
2
72
6
73
3
74
0
42
0.000000001
43
0.0000000001
44
0.0000000001
40
0
40
0
40
0
40
1
40
1
40
1
10
436.79536251757077
20
-54.891614537204141
30
0
10
436.70146631807131
20
-54.546412774133081
30
0
10
436.79525634926216
20
-54.197832630785726
30
0
0
SPLINE
5
725
100
AcDbEntity
8
0
100
AcDbSpline
70
0
71
2
72
6
73
3
74
0
42
0.000000001
43
0.0000000001
44
0.0000000001
40
0
40
0
40
0
40
1
40
1
40
1
10
436.79525634926216
20
-54.197832630785726
30
0
10
436.89072329082262
20
-53.847575070662693
30
0
10
437.1370278859095
20
-53.601196094653616
30
0
0
SPLINE
5
726
100
AcDbEntity
8
0
100
AcDbSpline
70
0
71
2
72
6
73
3
74
0
42
0.000000001
43
0.0000000001
44
0.0000000001
40
0
40
0
40
0
40
1
40
1
40
1
10
437.1370278859095
20
-53.601196094653616
30
0
10
437.3414439735426
20
-53.396718275906167
30
0
10
437.60285657744237
20
-53.306183343866834
30
0
0
SPLINE
5
727
100
AcDbEntity
8
0
100
AcDbSpline
70
0
71
2
72
6
73
3
74
0
42
0.000000001
43
0.0000000001
44
0.0000000001
40
0
40
0
40
0
40
1
40
1
40
1
10
437.60285657744237
20
-53.306183343866834
30
0
10
437.86426867622902
20
-53.212302648921749
30
0
10
438.22289219565744
20
-53.242411759453326
30
0
0
LINE
5
728
100
AcDbEntity
8
0
100
AcDbLine
10
438.22289219565755
20
-53.242411759453326
30
0
11
437.9061473712573
21
-52.92576826780202
31
0
0
SPLINE
5
729
100
AcDbEntity
8
0
100
AcDbSpline
70
0
71
2
72
6
73
3
74
0
42
0.000000001
43
0.0000000001
44
0.0000000001
40
0
40
0
40
0
40
1
40
1
40
1
10
437.39348652446074
20
-53.797262765208885
30
0
10
437.19409688646323
20
-53.996712616395598
30
0
10
437.12040354626299
20
-54.264854386322398
30
0
0
SPLINE
5
730
100
AcDbEntity
8
0
100
AcDbSpline
70
0
71
2
72
6
73
3
74
0
42
0.000000001
43
0.0000000001
44
0.0000000001
40
0
40
0
40
0
40
1
40
1
40
1
10
437.12040354626299
20
-54.264854386322398
30
0
10
437.04503136169831
20
-54.531317818721838
30
0
10
437.11880708851658
20
-54.79943304297899
30
0
0
SPLINE
5
731
100
AcDbEntity
8
0
100
AcDbSpline
70
0
71
2
72
6
73
3
74
0
42
0.000000001
43
0.0000000001
44
0.0000000001
40
0
40
0
40
0
40
1
40
1
40
1
10
437.11880708851658
20
-54.79943304297899
30
0
10
437.19090825416765
20
-55.065877065928596
30
0
10
437.38868068857869
20
-55.263589793556569
30
0
0
SPLINE
5
732
100
AcDbEntity
8
0
100
AcDbSpline
70
0
71
2
72
6
73
3
74
0
42
0.000000001
43
0.0000000001
44
0.0000000001
40
0
40
0
40
0
40
1
40
1
40
1
10
437.38868068857869
20
-55.263589793556569
30
0
10
437.68869702892403
20
-55.563515560053254
30
0
10
438.08585574018002
20
-55.558424109780248
30
0
0
SPLINE
5
733
100
AcDbEntity
8
0
100
AcDbSpline
70
0
71
2
72
6
73
3
74
0
42
0.000000001
43
0.0000000001
44
0.0000000001
40
0
40
0
40
0
40
1
40
1
40
1
10
438.08585574018002
20
-55.558424109780248
30
0
10
438.48302158894882
20
-55.553336940549556
30
0
10
438.80305029967201
20
-55.233211585138697
30
0
0
SPLINE
5
734
100
AcDbEntity
8
0
100
AcDbSpline
70
0
71
2
72
6
73
3
74
0
42
0.000000001
43
0.0000000001
44
0.0000000001
40
0
40
0
40
0
40
1
40
1
40
1
10
438.80305029967201
20
-55.233211585138697
30
0
10
439.12643140397677
20
-54.909732823765253
30
0
10
439.12804819235566
20
-54.519274617336833
30
0
0
SPLINE
5
735
100
AcDbEntity
8
0
100
AcDbSpline
70
0
71
2
72
6
73
3
74
0
42
0.000000001
43
0.0000000001
44
0.0000000001
40
0
40
0
40
0
40
1
40
1
40
1
10
439.12804819235566
20
-54.519274617336833
30
0
10
439.13134331826194
20
-54.127137566544015
30
0
10
438.81456708604742
20
-53.810456967928928
30
0
0
SPLINE
5
736
100
AcDbEntity
8
0
100
AcDbSpline
70
0
71
2
72
6
73
3
74
0
42
0.000000001
43
0.0000000001
44
0.0000000001
40
0
40
0
40
0
40
1
40
1
40
1
10
438.81456708604742
20
-53.810456967928928
30
0
10
438.60841185052436
20
-53.604363969926247
30
0
10
438.35703223047062
20
-53.534018144229655
30
0
0
SPLINE
5
737
100
AcDbEntity
8
0
100
AcDbSpline
70
0
71
2
72
6
73
3
74
0
42
0.000000001
43
0.0000000001
44
0.0000000001
40
0
40
0
40
0
40
1
40
1
40
1
10
438.35703223047062
20
-53.534018144229655
30
0
10
438.1039737660526
20
-53.461993981005705
30
0
10
437.84423982498225
20
-53.534095561002403
30
0
0
SPLINE
5
738
100
AcDbEntity
8
0
100
AcDbSpline
70
0
71
2
72
6
73
3
74
0
42
0.000000001
43
0.0000000001
44
0.0000000001
40
0
40
0
40
0
40
1
40
1
40
1
10
437.84423982498225
20
-53.534095561002403
30
0
10
437.58450017355693
20
-53.606191432368028
30
0
10
437.39348652446074
20
-53.797262765208885
30
0
0
CIRCLE
5
739
100
AcDbEntity
8
0
100
AcDbCircle
10
466.27945747375549
20
-96.744062550863248
30
0
40
3.5000000000000138
210
0
220
0
230
1
0
LINE
5
740
100
AcDbEntity
8
0
100
AcDbLine
10
466.27945747375549
20
-156.74406255086325
30
0
11
520.77945747375554
21
-156.74406255086325
31
0
0
LWPOLYLINE
5
741
100
AcDbEntity
8
0
100
AcDbPolyline
90
4
70
1
43
0.0
10
411.77945747375554
20
-156.74406255086325
10
520.77945747375554
20
-156.74406255086325
10
520.77945747375554
20
-31.744062550863248
10
411.77945747375554
20
-31.744062550863248
0
ENDSEC
0
SECTION
2
OBJECTS
0
DICTIONARY
5
C
100
AcDbDictionary
3
ACAD_GROUP
350
D
3
ACAD_MLINESTYLE
350
17
0
DICTIONARY
5
D
100
AcDbDictionary
0
DICTIONARY
5
1A
330
C
100
AcDbDictionary
0
DICTIONARY
5
17
100
AcDbDictionary
0
ENDSEC
0
EOF
