999
"DXF R12 Output" (www.mydxf.blogspot.com)
 0 
SECTION
 2 
HEADER
 9 
$ACADVER
 1 
AC1009
 9 
$EXTMIN
 10 
 0 
 20 
 0 
 9 
$EXTMAX
 10 
 8.5 
 20 
 11 
 0 
ENDSEC
 0 
SECTION
 2 
ENTITIES
0
LINE
8
Layer 1
10
0.846666
20
84.666700
11
-0.846666
21
82.973300
0
LINE
8
Layer 1
10
0.000000
20
85.231100
11
0.000000
21
82.408900
0
LINE
8
Layer 1
10
2.257780
20
82.691100
11
1.128890
21
81.562210
0
LINE
8
Layer 1
10
1.693330
20
83.255600
11
0.564440
21
82.126710
0
LINE
8
Layer 1
10
1.128890
20
83.820000
11
0.000000
21
82.691110
0
LINE
8
Layer 1
10
0.846666
20
84.666700
11
-0.846666
21
82.973300
0
LINE
8
Layer 1
10
0.000000
20
85.231100
11
0.000000
21
82.408900
0
LINE
8
Layer 1
10
2.257780
20
82.691100
11
1.128890
21
81.562210
0
LINE
8
Layer 1
10
1.693330
20
83.255600
11
0.564440
21
82.126710
0
LINE
8
Layer 1
10
1.128890
20
83.820000
11
0.000000
21
82.691110
0
LINE
8
Layer 1
10
29.485000
20
58.279500
11
29.336173
21
58.253592
0
LINE
8
Layer 1
10
29.336173
20
58.253592
11
29.230340
21
58.186895
0
LINE
8
Layer 1
10
29.230340
20
58.186895
11
29.229800
21
58.186900
0
LINE
8
Layer 1
10
29.229800
20
58.186900
11
29.166963
21
58.093745
0
LINE
8
Layer 1
10
29.166963
20
58.093745
11
29.146022
21
57.995077
0
LINE
8
Layer 1
10
29.146022
20
57.995077
11
29.171930
21
57.925624
0
LINE
8
Layer 1
10
29.171930
20
57.925624
11
29.236974
21
57.899716
0
LINE
8
Layer 1
10
29.236974
20
57.899716
11
29.304775
21
57.928931
0
LINE
8
Layer 1
10
29.304775
20
57.928931
11
29.341707
21
58.000037
0
LINE
8
Layer 1
10
29.341707
20
58.000037
11
29.362111
21
58.049096
0
LINE
8
Layer 1
10
29.362111
20
58.049096
11
29.481175
21
58.116344
0
LINE
8
Layer 1
10
29.481175
20
58.116344
11
29.547320
21
58.099808
0
LINE
8
Layer 1
10
29.547320
20
58.099808
11
29.594725
21
58.055160
0
LINE
8
Layer 1
10
29.594725
20
58.055160
11
29.594700
21
58.054600
0
LINE
8
Layer 1
10
29.594700
20
58.054600
11
29.612339
21
57.989557
0
LINE
8
Layer 1
10
29.612339
20
57.989557
11
29.595236
21
57.918450
0
LINE
8
Layer 1
10
29.595236
20
57.918450
11
29.544527
21
57.845138
0
LINE
8
Layer 1
10
29.544527
20
57.845138
11
29.459087
21
57.772929
0
LINE
8
Layer 1
10
29.459087
20
57.772929
11
29.358766
21
57.687491
0
LINE
8
Layer 1
10
29.358766
20
57.687491
11
29.203324
21
57.534804
0
LINE
8
Layer 1
10
29.203324
20
57.534804
11
29.161984
21
57.469761
0
LINE
8
Layer 1
10
29.161984
20
57.469761
11
29.162600
21
57.469700
0
LINE
8
Layer 1
10
29.162600
20
57.469700
11
29.143296
21
57.401349
0
LINE
8
Layer 1
10
29.143296
20
57.401349
11
29.175266
21
57.326935
0
LINE
8
Layer 1
10
29.175266
20
57.326935
11
29.262360
21
57.295516
0
LINE
8
Layer 1
10
29.262360
20
57.295516
11
29.736900
21
57.295500
0
LINE
8
Layer 1
10
29.736900
20
57.295500
11
29.811313
21
57.322509
0
LINE
8
Layer 1
10
29.811313
20
57.322509
11
29.837221
21
57.387552
0
LINE
8
Layer 1
10
29.837221
20
57.387552
11
29.804698
21
57.456454
0
LINE
8
Layer 1
10
29.804698
20
57.456454
11
29.718158
21
57.480155
0
LINE
8
Layer 1
10
29.718158
20
57.480155
11
29.413900
21
57.480200
0
LINE
8
Layer 1
10
29.413900
20
57.480200
11
29.424935
21
57.495082
0
LINE
8
Layer 1
10
29.424935
20
57.495082
11
29.425499
21
57.495646
0
LINE
8
Layer 1
10
29.425499
20
57.495646
11
29.556137
21
57.616913
0
LINE
8
Layer 1
10
29.556137
20
57.616913
11
29.695044
21
57.733219
0
LINE
8
Layer 1
10
29.695044
20
57.733219
11
29.695600
21
57.733200
0
LINE
8
Layer 1
10
29.695600
20
57.733200
11
29.778836
21
57.839584
0
LINE
8
Layer 1
10
29.778836
20
57.839584
11
29.821279
21
57.993373
0
LINE
8
Layer 1
10
29.821279
20
57.993373
11
29.800874
21
58.097553
0
LINE
8
Layer 1
10
29.800874
20
58.097553
11
29.744650
21
58.186299
0
LINE
8
Layer 1
10
29.744650
20
58.186299
11
29.660314
21
58.246932
0
LINE
8
Layer 1
10
29.660314
20
58.246932
11
29.485029
21
58.279454
0
LINE
8
Layer 1
10
29.485029
20
58.279454
11
29.485000
21
58.279500
0
LINE
8
Layer 1
10
29.485000
20
58.246978
11
29.647058
21
58.217213
0
LINE
8
Layer 1
10
29.647058
20
58.217213
11
29.647100
21
58.217700
0
LINE
8
Layer 1
10
29.647100
20
58.217700
11
29.720963
21
58.164232
0
LINE
8
Layer 1
10
29.720963
20
58.164232
11
29.770572
21
58.085960
0
LINE
8
Layer 1
10
29.770572
20
58.085960
11
29.770600
21
58.085400
0
LINE
8
Layer 1
10
29.770600
20
58.085400
11
29.788803
21
57.993347
0
LINE
8
Layer 1
10
29.788803
20
57.993347
11
29.751321
21
57.856095
0
LINE
8
Layer 1
10
29.751321
20
57.856095
11
29.673600
21
57.757428
0
LINE
8
Layer 1
10
29.673600
20
57.757428
11
29.535797
21
57.641673
0
LINE
8
Layer 1
10
29.535797
20
57.641673
11
29.401298
21
57.516547
0
LINE
8
Layer 1
10
29.401298
20
57.516547
11
29.368227
21
57.473001
0
LINE
8
Layer 1
10
29.368227
20
57.473001
11
29.381464
21
57.480166
0
LINE
8
Layer 1
10
29.381464
20
57.480166
11
29.381400
21
57.448200
0
LINE
8
Layer 1
10
29.381400
20
57.448200
11
29.390200
21
57.448200
0
LINE
8
Layer 1
10
29.390200
20
57.448200
11
29.718200
21
57.448200
0
LINE
8
Layer 1
10
29.718200
20
57.448200
11
29.784897
21
57.430561
0
LINE
8
Layer 1
10
29.784897
20
57.430561
11
29.805302
21
57.387566
0
LINE
8
Layer 1
10
29.805302
20
57.387566
11
29.788200
21
57.345123
0
LINE
8
Layer 1
10
29.788200
20
57.345123
11
29.736937
21
57.328034
0
LINE
8
Layer 1
10
29.736937
20
57.328034
11
29.262300
21
57.328100
0
LINE
8
Layer 1
10
29.262300
20
57.328100
11
29.197807
21
57.350150
0
LINE
8
Layer 1
10
29.197807
20
57.350150
11
29.175765
21
57.401413
0
LINE
8
Layer 1
10
29.175765
20
57.401413
11
29.191739
21
57.455983
0
LINE
8
Layer 1
10
29.191739
20
57.455983
11
29.191800
21
57.456500
0
LINE
8
Layer 1
10
29.191800
20
57.456500
11
29.227078
21
57.512172
0
LINE
8
Layer 1
10
29.227078
20
57.512172
11
29.380866
21
57.663756
0
LINE
8
Layer 1
10
29.380866
20
57.663756
11
29.477329
21
57.745887
0
LINE
8
Layer 1
10
29.477329
20
57.745887
11
29.477894
21
57.746452
0
LINE
8
Layer 1
10
29.477894
20
57.746452
11
29.568292
21
57.823071
0
LINE
8
Layer 1
10
29.568292
20
57.823071
11
29.624516
21
57.904650
0
LINE
8
Layer 1
10
29.624516
20
57.904650
11
29.624500
21
57.905200
0
LINE
8
Layer 1
10
29.624500
20
57.905200
11
29.644340
21
57.989536
0
LINE
8
Layer 1
10
29.644340
20
57.989536
11
29.622299
21
58.071667
0
LINE
8
Layer 1
10
29.622299
20
58.071667
11
29.562767
21
58.128442
0
LINE
8
Layer 1
10
29.562767
20
58.128442
11
29.481188
21
58.148285
0
LINE
8
Layer 1
10
29.481188
20
58.148285
11
29.335116
21
58.066705
0
LINE
8
Layer 1
10
29.335116
20
58.066705
11
29.311409
21
58.010481
0
LINE
8
Layer 1
10
29.311409
20
58.010481
11
29.279989
21
57.949296
0
LINE
8
Layer 1
10
29.279989
20
57.949296
11
29.280000
21
57.948800
0
LINE
8
Layer 1
10
29.280000
20
57.948800
11
29.237004
21
57.931711
0
LINE
8
Layer 1
10
29.237004
20
57.931711
11
29.195113
21
57.948247
0
LINE
8
Layer 1
10
29.195113
20
57.948247
11
29.178575
21
57.995100
0
LINE
8
Layer 1
10
29.178575
20
57.995100
11
29.197315
21
58.081641
0
LINE
8
Layer 1
10
29.197315
20
58.081641
11
29.252986
21
58.163772
0
LINE
8
Layer 1
10
29.252986
20
58.163772
11
29.347795
21
58.223855
0
LINE
8
Layer 1
10
29.347795
20
58.223855
11
29.348400
21
58.223800
0
LINE
8
Layer 1
10
29.348400
20
58.223800
11
29.485103
21
58.246951
0
LINE
8
Layer 1
10
29.485103
20
58.246951
11
29.485000
21
58.246978
0
LINE
8
Layer 1
10
30.077000
20
57.506100
11
29.997072
21
57.473027
0
LINE
8
Layer 1
10
29.997072
20
57.473027
11
29.965102
21
57.393652
0
LINE
8
Layer 1
10
29.965102
20
57.393652
11
29.999279
21
57.309316
0
LINE
8
Layer 1
10
29.999279
20
57.309316
11
30.079204
21
57.279551
0
LINE
8
Layer 1
10
30.079204
20
57.279551
11
30.156925
21
57.309868
0
LINE
8
Layer 1
10
30.156925
20
57.309868
11
30.191653
21
57.393652
0
LINE
8
Layer 1
10
30.191653
20
57.393652
11
30.157476
21
57.473027
0
LINE
8
Layer 1
10
30.157476
20
57.473027
11
30.077000
21
57.506100
0
LINE
8
Layer 1
10
30.077000
20
57.506100
11
30.077000
21
57.506100
0
LINE
8
Layer 1
10
30.077000
20
57.473578
11
30.134875
21
57.449877
0
LINE
8
Layer 1
10
30.134875
20
57.449877
11
30.159118
21
57.393653
0
LINE
8
Layer 1
10
30.159118
20
57.393653
11
30.135412
21
57.333571
0
LINE
8
Layer 1
10
30.135412
20
57.333571
11
30.079187
21
57.312074
0
LINE
8
Layer 1
10
30.079187
20
57.312074
11
30.020759
21
57.333571
0
LINE
8
Layer 1
10
30.020759
20
57.333571
11
29.997052
21
57.393653
0
LINE
8
Layer 1
10
29.997052
20
57.393653
11
30.020194
21
57.450428
0
LINE
8
Layer 1
10
30.020194
20
57.450428
11
30.076972
21
57.473579
0
LINE
8
Layer 1
10
30.076972
20
57.473579
11
30.077000
21
57.473578
0
LINE
8
Layer 1
10
30.670700
20
58.280600
11
30.504234
21
58.244771
0
LINE
8
Layer 1
10
30.504234
20
58.244771
11
30.394543
21
58.147206
0
LINE
8
Layer 1
10
30.394543
20
58.147206
11
30.357058
21
58.017671
0
LINE
8
Layer 1
10
30.357058
20
58.017671
11
30.357100
21
58.002200
0
LINE
8
Layer 1
10
30.357100
20
58.002200
11
30.368135
21
58.001636
0
LINE
8
Layer 1
10
30.368135
20
58.001636
11
30.489400
21
57.821389
0
LINE
8
Layer 1
10
30.489400
20
57.821389
11
30.325691
21
57.583815
0
LINE
8
Layer 1
10
30.325691
20
57.583815
11
30.366480
21
57.428924
0
LINE
8
Layer 1
10
30.366480
20
57.428924
11
30.488298
21
57.319784
0
LINE
8
Layer 1
10
30.488298
20
57.319784
11
30.678468
21
57.281198
0
LINE
8
Layer 1
10
30.678468
20
57.281198
11
30.864777
21
57.319784
0
LINE
8
Layer 1
10
30.864777
20
57.319784
11
30.987148
21
57.429476
0
LINE
8
Layer 1
10
30.987148
20
57.429476
11
31.028488
21
57.585470
0
LINE
8
Layer 1
10
31.028488
20
57.585470
11
31.008648
21
57.691854
0
LINE
8
Layer 1
10
31.008648
20
57.691854
11
31.008600
21
57.692400
0
LINE
8
Layer 1
10
31.008600
20
57.692400
11
30.950722
21
57.777838
0
LINE
8
Layer 1
10
30.950722
20
57.777838
11
30.875755
21
57.824140
0
LINE
8
Layer 1
10
30.875755
20
57.824140
11
30.958991
21
57.894696
0
LINE
8
Layer 1
10
30.958991
20
57.894696
11
30.994269
21
58.015963
0
LINE
8
Layer 1
10
30.994269
20
58.015963
11
30.974429
21
58.115733
0
LINE
8
Layer 1
10
30.974429
20
58.115733
11
30.912692
21
58.201171
0
LINE
8
Layer 1
10
30.912692
20
58.201171
11
30.810720
21
58.259600
0
LINE
8
Layer 1
10
30.810720
20
58.259600
11
30.670710
21
58.280547
0
LINE
8
Layer 1
10
30.670710
20
58.280547
11
30.670700
21
58.280600
0
LINE
8
Layer 1
10
30.670700
20
58.248078
11
30.800237
21
58.229336
0
LINE
8
Layer 1
10
30.800237
20
58.229336
11
30.891186
21
58.176971
0
LINE
8
Layer 1
10
30.891186
20
58.176971
11
30.944653
21
58.103659
0
LINE
8
Layer 1
10
30.944653
20
58.103659
11
30.944600
21
58.103100
0
LINE
8
Layer 1
10
30.944600
20
58.103100
11
30.961703
21
58.016008
0
LINE
8
Layer 1
10
30.961703
20
58.016008
11
30.931937
21
57.912380
0
LINE
8
Layer 1
10
30.931937
20
57.912380
11
30.841538
21
57.836864
0
LINE
8
Layer 1
10
30.841538
20
57.836864
11
30.808465
21
57.820328
0
LINE
8
Layer 1
10
30.808465
20
57.820328
11
30.842642
21
57.807100
0
LINE
8
Layer 1
10
30.842642
20
57.807100
11
30.928079
21
57.754184
0
LINE
8
Layer 1
10
30.928079
20
57.754184
11
30.978791
21
57.680321
0
LINE
8
Layer 1
10
30.978791
20
57.680321
11
30.978800
21
57.679700
0
LINE
8
Layer 1
10
30.978800
20
57.679700
11
30.996439
21
57.585442
0
LINE
8
Layer 1
10
30.996439
20
57.585442
11
30.958957
21
57.445985
0
LINE
8
Layer 1
10
30.958957
20
57.445985
11
30.850366
21
57.348972
0
LINE
8
Layer 1
10
30.850366
20
57.348972
11
30.678388
21
57.313143
0
LINE
8
Layer 1
10
30.678388
20
57.313143
11
30.501999
21
57.348972
0
LINE
8
Layer 1
10
30.501999
20
57.348972
11
30.394512
21
57.445434
0
LINE
8
Layer 1
10
30.394512
20
57.445434
11
30.357580
21
57.583789
0
LINE
8
Layer 1
10
30.357580
20
57.583789
11
30.511368
21
57.807031
0
LINE
8
Layer 1
10
30.511368
20
57.807031
11
30.546096
21
57.820812
0
LINE
8
Layer 1
10
30.546096
20
57.820812
11
30.512469
21
57.836797
0
LINE
8
Layer 1
10
30.512469
20
57.836797
11
30.389550
21
58.017595
0
LINE
8
Layer 1
10
30.389550
20
58.017595
11
30.422070
21
58.130043
0
LINE
8
Layer 1
10
30.422070
20
58.130043
11
30.518534
21
58.216033
0
LINE
8
Layer 1
10
30.518534
20
58.216033
11
30.670669
21
58.248003
0
LINE
8
Layer 1
10
30.670669
20
58.248003
11
30.670700
21
58.248078
0
LINE
8
Layer 1
10
30.674566
20
58.157679
11
30.564875
21
58.114684
0
LINE
8
Layer 1
10
30.564875
20
58.114684
11
30.523536
21
58.006646
0
LINE
8
Layer 1
10
30.523536
20
58.006646
11
30.566529
21
57.903569
0
LINE
8
Layer 1
10
30.566529
20
57.903569
11
30.566500
21
57.903000
0
LINE
8
Layer 1
10
30.566500
20
57.903000
11
30.675641
21
57.862761
0
LINE
8
Layer 1
10
30.675641
20
57.862761
11
30.736274
21
57.873235
0
LINE
8
Layer 1
10
30.736274
20
57.873235
11
30.784232
21
57.903552
0
LINE
8
Layer 1
10
30.784232
20
57.903552
11
30.815649
21
57.949302
0
LINE
8
Layer 1
10
30.815649
20
57.949302
11
30.826684
21
58.007731
0
LINE
8
Layer 1
10
30.826684
20
58.007731
11
30.806843
21
58.084350
0
LINE
8
Layer 1
10
30.806843
20
58.084350
11
30.753376
21
58.137818
0
LINE
8
Layer 1
10
30.753376
20
58.137818
11
30.680617
21
58.156007
0
LINE
8
Layer 1
10
30.680617
20
58.156007
11
30.674549
21
58.157672
0
LINE
8
Layer 1
10
30.674549
20
58.157672
11
30.674566
21
58.157679
0
LINE
8
Layer 1
10
30.674566
20
58.125157
11
30.737406
21
58.109723
0
LINE
8
Layer 1
10
30.737406
20
58.109723
11
30.778746
21
58.068381
0
LINE
8
Layer 1
10
30.778746
20
58.068381
11
30.779300
21
58.068300
0
LINE
8
Layer 1
10
30.779300
20
58.068300
11
30.794173
21
58.007667
0
LINE
8
Layer 1
10
30.794173
20
58.007667
11
30.785904
21
57.961364
0
LINE
8
Layer 1
10
30.785904
20
57.961364
11
30.761661
21
57.926638
0
LINE
8
Layer 1
10
30.761661
20
57.926638
11
30.724729
21
57.903487
0
LINE
8
Layer 1
10
30.724729
20
57.903487
11
30.675671
21
57.894668
0
LINE
8
Layer 1
10
30.675671
20
57.894668
11
30.589130
21
57.926638
0
LINE
8
Layer 1
10
30.589130
20
57.926638
11
30.556057
21
58.006564
0
LINE
8
Layer 1
10
30.556057
20
58.006564
11
30.588027
21
58.092003
0
LINE
8
Layer 1
10
30.588027
20
58.092003
11
30.674567
21
58.125075
0
LINE
8
Layer 1
10
30.674567
20
58.125075
11
30.674566
21
58.125157
0
LINE
8
Layer 1
10
30.672873
20
57.771828
11
30.551608
21
57.723321
0
LINE
8
Layer 1
10
30.551608
20
57.723321
11
30.501999
21
57.589377
0
LINE
8
Layer 1
10
30.501999
20
57.589377
11
30.524605
21
57.492914
0
LINE
8
Layer 1
10
30.524605
20
57.492914
11
30.524600
21
57.492300
0
LINE
8
Layer 1
10
30.524600
20
57.492300
11
30.587990
21
57.427257
0
LINE
8
Layer 1
10
30.587990
20
57.427257
11
30.588000
21
57.426700
0
LINE
8
Layer 1
10
30.588000
20
57.426700
11
30.588600
21
57.426700
0
LINE
8
Layer 1
10
30.588600
20
57.426700
11
30.676794
21
57.404100
0
LINE
8
Layer 1
10
30.676794
20
57.404100
11
30.766643
21
57.427801
0
LINE
8
Layer 1
10
30.766643
20
57.427801
11
30.829479
21
57.493946
0
LINE
8
Layer 1
10
30.829479
20
57.493946
11
30.846554
21
57.567258
0
LINE
8
Layer 1
10
30.846554
20
57.567258
11
30.852057
21
57.564492
0
LINE
8
Layer 1
10
30.852057
20
57.564492
11
30.852000
21
57.590400
0
LINE
8
Layer 1
10
30.852000
20
57.590400
11
30.828858
21
57.685760
0
LINE
8
Layer 1
10
30.828858
20
57.685760
11
30.764364
21
57.749701
0
LINE
8
Layer 1
10
30.764364
20
57.749701
11
30.672862
21
57.771751
0
LINE
8
Layer 1
10
30.672862
20
57.771751
11
30.672873
21
57.771828
0
LINE
8
Layer 1
10
30.672873
20
57.739307
11
30.749494
21
57.721668
0
LINE
8
Layer 1
10
30.749494
20
57.721668
11
30.800756
21
57.670405
0
LINE
8
Layer 1
10
30.800756
20
57.670405
11
30.819496
21
57.590479
0
LINE
8
Layer 1
10
30.819496
20
57.590479
11
30.800756
21
57.509450
0
LINE
8
Layer 1
10
30.800756
20
57.509450
11
30.750044
21
57.455431
0
LINE
8
Layer 1
10
30.750044
20
57.455431
11
30.676734
21
57.436688
0
LINE
8
Layer 1
10
30.676734
20
57.436688
11
30.604525
21
57.454878
0
LINE
8
Layer 1
10
30.604525
20
57.454878
11
30.553262
21
57.507794
0
LINE
8
Layer 1
10
30.553262
20
57.507794
11
30.553300
21
57.508300
0
LINE
8
Layer 1
10
30.553300
20
57.508300
11
30.534561
21
57.589329
0
LINE
8
Layer 1
10
30.534561
20
57.589329
11
30.574247
21
57.700123
0
LINE
8
Layer 1
10
30.574247
20
57.700123
11
30.672914
21
57.739259
0
LINE
8
Layer 1
10
30.672914
20
57.739259
11
30.672873
21
57.739307
0
LINE
8
Layer 1
10
32.773300
20
57.747000
11
32.917132
21
57.913393
0
LINE
8
Layer 1
10
32.917132
20
57.913393
11
33.062843
21
57.777082
0
LINE
8
Layer 1
10
33.062843
20
57.777082
11
32.953912
21
57.621500
0
LINE
8
Layer 1
10
32.953912
20
57.621500
11
32.741339
21
57.463098
0
LINE
8
Layer 1
10
32.741339
20
57.463098
11
32.689633
21
57.301405
0
LINE
8
Layer 1
10
32.689633
20
57.301405
11
33.123000
21
57.301400
0
LINE
8
Layer 1
10
33.123000
20
57.301400
11
33.123000
21
57.352200
0
LINE
8
Layer 1
10
33.123000
20
57.352200
11
32.753600
21
57.352200
0
LINE
8
Layer 1
10
32.753600
20
57.352200
11
32.840087
21
57.485690
0
LINE
8
Layer 1
10
32.840087
20
57.485690
11
33.021404
21
57.595561
0
LINE
8
Layer 1
10
33.021404
20
57.595561
11
33.128690
21
57.780873
0
LINE
8
Layer 1
10
33.128690
20
57.780873
11
32.924694
21
57.964187
0
LINE
8
Layer 1
10
32.924694
20
57.964187
11
32.709415
21
57.747030
0
LINE
8
Layer 1
10
32.709415
20
57.747030
11
32.773300
21
57.747000
0
LINE
8
Layer 1
10
33.331700
20
57.301400
11
33.331700
21
57.384100
0
LINE
8
Layer 1
10
33.331700
20
57.384100
11
33.263100
21
57.384100
0
LINE
8
Layer 1
10
33.263100
20
57.384100
11
33.263100
21
57.301400
0
LINE
8
Layer 1
10
33.263100
20
57.301400
11
33.331700
21
57.301400
0
LINE
8
Layer 1
10
33.478400
20
57.447100
11
33.671115
21
57.288228
0
LINE
8
Layer 1
10
33.671115
20
57.288228
11
33.844439
21
57.374597
0
LINE
8
Layer 1
10
33.844439
20
57.374597
11
33.912711
21
57.629474
0
LINE
8
Layer 1
10
33.912711
20
57.629474
11
33.863593
21
57.866255
0
LINE
8
Layer 1
10
33.863593
20
57.866255
11
33.680513
21
57.964140
0
LINE
8
Layer 1
10
33.680513
20
57.964140
11
33.519526
21
57.901508
0
LINE
8
Layer 1
10
33.519526
20
57.901508
11
33.467116
21
57.745103
0
LINE
8
Layer 1
10
33.467116
20
57.745103
11
33.672054
21
57.531706
0
LINE
8
Layer 1
10
33.672054
20
57.531706
11
33.850667
21
57.635114
0
LINE
8
Layer 1
10
33.850667
20
57.635114
11
33.852643
21
57.633223
0
LINE
8
Layer 1
10
33.852643
20
57.633223
11
33.817271
21
57.441331
0
LINE
8
Layer 1
10
33.817271
20
57.441331
11
33.668389
21
57.338980
0
LINE
8
Layer 1
10
33.668389
20
57.338980
11
33.539600
21
57.447089
0
LINE
8
Layer 1
10
33.539600
20
57.447089
11
33.478400
21
57.447100
0
LINE
8
Layer 1
10
33.680513
20
57.913376
11
33.829046
21
57.746983
0
LINE
8
Layer 1
10
33.829046
20
57.746983
11
33.680513
21
57.582470
0
LINE
8
Layer 1
10
33.680513
20
57.582470
11
33.527283
21
57.743222
0
LINE
8
Layer 1
10
33.527283
20
57.743222
11
33.680513
21
57.913375
0
LINE
8
Layer 1
10
33.680513
20
57.913375
11
33.680513
21
57.913376
0
LINE
8
Layer 1
10
36.533600
20
57.621100
11
36.746997
21
57.488550
0
LINE
8
Layer 1
10
36.746997
20
57.488550
11
36.582484
21
57.339078
0
LINE
8
Layer 1
10
36.582484
20
57.339078
11
36.417971
21
57.493250
0
LINE
8
Layer 1
10
36.417971
20
57.493250
11
36.357800
21
57.493300
0
LINE
8
Layer 1
10
36.357800
20
57.493300
11
36.423609
21
57.333017
0
LINE
8
Layer 1
10
36.423609
20
57.333017
11
36.593757
21
57.288364
0
LINE
8
Layer 1
10
36.593757
20
57.288364
11
36.807154
21
57.489540
0
LINE
8
Layer 1
10
36.807154
20
57.489540
11
36.689645
21
57.653112
0
LINE
8
Layer 1
10
36.689645
20
57.653112
11
36.783653
21
57.800704
0
LINE
8
Layer 1
10
36.783653
20
57.800704
11
36.594697
21
57.964276
0
LINE
8
Layer 1
10
36.594697
20
57.964276
11
36.444287
21
57.920093
0
LINE
8
Layer 1
10
36.444287
20
57.920093
11
36.380361
21
57.771562
0
LINE
8
Layer 1
10
36.380361
20
57.771562
11
36.440500
21
57.771500
0
LINE
8
Layer 1
10
36.440500
20
57.771500
11
36.582449
21
57.913451
0
LINE
8
Layer 1
10
36.582449
20
57.913451
11
36.723461
21
57.796882
0
LINE
8
Layer 1
10
36.723461
20
57.796882
11
36.533565
21
57.669972
0
LINE
8
Layer 1
10
36.533565
20
57.669972
11
36.533600
21
57.621100
0
LINE
8
Layer 1
10
37.013000
20
57.301500
11
37.013000
21
57.384200
0
LINE
8
Layer 1
10
37.013000
20
57.384200
11
36.944400
21
57.384200
0
LINE
8
Layer 1
10
36.944400
20
57.384200
11
36.944400
21
57.301500
0
LINE
8
Layer 1
10
36.944400
20
57.301500
11
37.013000
21
57.301500
0
LINE
8
Layer 1
10
37.534700
20
57.627700
11
37.506496
21
57.433340
0
LINE
8
Layer 1
10
37.506496
20
57.433340
11
37.371127
21
57.339098
0
LINE
8
Layer 1
10
37.371127
20
57.339098
11
37.241279
21
57.416302
0
LINE
8
Layer 1
10
37.241279
20
57.416302
11
37.206614
21
57.621120
0
LINE
8
Layer 1
10
37.206614
20
57.621120
11
37.238577
21
57.822296
0
LINE
8
Layer 1
10
37.238577
20
57.822296
11
37.369247
21
57.913483
0
LINE
8
Layer 1
10
37.369247
20
57.913483
11
37.504501
21
57.824176
0
LINE
8
Layer 1
10
37.504501
20
57.824176
11
37.534700
21
57.627701
0
LINE
8
Layer 1
10
37.534700
20
57.627701
11
37.534700
21
57.627700
0
LINE
8
Layer 1
10
37.371127
20
57.964246
11
37.187226
21
57.858723
0
LINE
8
Layer 1
10
37.187226
20
57.858723
11
37.146450
21
57.627700
0
LINE
8
Layer 1
10
37.146450
20
57.627700
11
37.190047
21
57.389274
0
LINE
8
Layer 1
10
37.190047
20
57.389274
11
37.371127
21
57.288334
0
LINE
8
Layer 1
10
37.371127
20
57.288334
11
37.551388
21
57.388804
0
LINE
8
Layer 1
10
37.551388
20
57.388804
11
37.594867
21
57.621120
0
LINE
8
Layer 1
10
37.594867
20
57.621120
11
37.556676
21
57.850498
0
LINE
8
Layer 1
10
37.556676
20
57.850498
11
37.371127
21
57.964247
0
LINE
8
Layer 1
10
37.371127
20
57.964247
11
37.371127
21
57.964246
0
LINE
8
Layer 1
10
40.300100
20
57.621100
11
40.513497
21
57.488550
0
LINE
8
Layer 1
10
40.513497
20
57.488550
11
40.348984
21
57.339078
0
LINE
8
Layer 1
10
40.348984
20
57.339078
11
40.184471
21
57.493250
0
LINE
8
Layer 1
10
40.184471
20
57.493250
11
40.124400
21
57.493300
0
LINE
8
Layer 1
10
40.124400
20
57.493300
11
40.190208
21
57.333017
0
LINE
8
Layer 1
10
40.190208
20
57.333017
11
40.360357
21
57.288364
0
LINE
8
Layer 1
10
40.360357
20
57.288364
11
40.573754
21
57.489540
0
LINE
8
Layer 1
10
40.573754
20
57.489540
11
40.456245
21
57.653112
0
LINE
8
Layer 1
10
40.456245
20
57.653112
11
40.550253
21
57.800704
0
LINE
8
Layer 1
10
40.550253
20
57.800704
11
40.361297
21
57.964276
0
LINE
8
Layer 1
10
40.361297
20
57.964276
11
40.210887
21
57.920093
0
LINE
8
Layer 1
10
40.210887
20
57.920093
11
40.146961
21
57.771562
0
LINE
8
Layer 1
10
40.146961
20
57.771562
11
40.207100
21
57.771500
0
LINE
8
Layer 1
10
40.207100
20
57.771500
11
40.349052
21
57.913451
0
LINE
8
Layer 1
10
40.349052
20
57.913451
11
40.490061
21
57.796882
0
LINE
8
Layer 1
10
40.490061
20
57.796882
11
40.300168
21
57.669972
0
LINE
8
Layer 1
10
40.300168
20
57.669972
11
40.300100
21
57.621100
0
LINE
8
Layer 1
10
40.779600
20
57.301500
11
40.779600
21
57.384200
0
LINE
8
Layer 1
10
40.779600
20
57.384200
11
40.711000
21
57.384200
0
LINE
8
Layer 1
10
40.711000
20
57.384200
11
40.711000
21
57.301500
0
LINE
8
Layer 1
10
40.711000
20
57.301500
11
40.779600
21
57.301500
0
LINE
8
Layer 1
10
41.160300
20
57.301500
11
41.220500
21
57.301500
0
LINE
8
Layer 1
10
41.220500
20
57.301500
11
41.220500
21
57.964200
0
LINE
8
Layer 1
10
41.220500
20
57.964200
11
41.172500
21
57.964200
0
LINE
8
Layer 1
10
41.172500
20
57.964200
11
40.989186
21
57.833530
0
LINE
8
Layer 1
10
40.989186
20
57.833530
11
40.989200
21
57.794100
0
LINE
8
Layer 1
10
40.989200
20
57.794100
11
41.160300
21
57.794100
0
LINE
8
Layer 1
10
41.160300
20
57.794100
11
41.160300
21
57.301500
0
LINE
8
Layer 1
10
44.006600
20
57.664300
11
44.219997
21
57.531750
0
LINE
8
Layer 1
10
44.219997
20
57.531750
11
44.055484
21
57.382278
0
LINE
8
Layer 1
10
44.055484
20
57.382278
11
43.890971
21
57.536450
0
LINE
8
Layer 1
10
43.890971
20
57.536450
11
43.830800
21
57.536400
0
LINE
8
Layer 1
10
43.830800
20
57.536400
11
43.896609
21
57.376117
0
LINE
8
Layer 1
10
43.896609
20
57.376117
11
44.066757
21
57.331464
0
LINE
8
Layer 1
10
44.066757
20
57.331464
11
44.280154
21
57.532640
0
LINE
8
Layer 1
10
44.280154
20
57.532640
11
44.162645
21
57.696212
0
LINE
8
Layer 1
10
44.162645
20
57.696212
11
44.256653
21
57.843804
0
LINE
8
Layer 1
10
44.256653
20
57.843804
11
44.067697
21
58.007376
0
LINE
8
Layer 1
10
44.067697
20
58.007376
11
43.917287
21
57.963193
0
LINE
8
Layer 1
10
43.917287
20
57.963193
11
43.853361
21
57.814662
0
LINE
8
Layer 1
10
43.853361
20
57.814662
11
43.913500
21
57.814700
0
LINE
8
Layer 1
10
43.913500
20
57.814700
11
44.055449
21
57.956651
0
LINE
8
Layer 1
10
44.055449
20
57.956651
11
44.196461
21
57.840082
0
LINE
8
Layer 1
10
44.196461
20
57.840082
11
44.006565
21
57.713172
0
LINE
8
Layer 1
10
44.006565
20
57.713172
11
44.006600
21
57.664300
0
LINE
8
Layer 1
10
44.486000
20
57.344700
11
44.486000
21
57.427400
0
LINE
8
Layer 1
10
44.486000
20
57.427400
11
44.417400
21
57.427400
0
LINE
8
Layer 1
10
44.417400
20
57.427400
11
44.417400
21
57.344700
0
LINE
8
Layer 1
10
44.417400
20
57.344700
11
44.486000
21
57.344700
0
LINE
8
Layer 1
10
44.711700
20
57.790300
11
44.855532
21
57.956693
0
LINE
8
Layer 1
10
44.855532
20
57.956693
11
45.001243
21
57.820382
0
LINE
8
Layer 1
10
45.001243
20
57.820382
11
44.892312
21
57.664800
0
LINE
8
Layer 1
10
44.892312
20
57.664800
11
44.679736
21
57.506398
0
LINE
8
Layer 1
10
44.679736
20
57.506398
11
44.628033
21
57.344706
0
LINE
8
Layer 1
10
44.628033
20
57.344706
11
45.061400
21
57.344700
0
LINE
8
Layer 1
10
45.061400
20
57.344700
11
45.061400
21
57.395400
0
LINE
8
Layer 1
10
45.061400
20
57.395400
11
44.691900
21
57.395400
0
LINE
8
Layer 1
10
44.691900
20
57.395400
11
44.778387
21
57.528890
0
LINE
8
Layer 1
10
44.778387
20
57.528890
11
44.959702
21
57.638761
0
LINE
8
Layer 1
10
44.959702
20
57.638761
11
45.066987
21
57.824073
0
LINE
8
Layer 1
10
45.066987
20
57.824073
11
44.862991
21
58.007387
0
LINE
8
Layer 1
10
44.862991
20
58.007387
11
44.647715
21
57.790230
0
LINE
8
Layer 1
10
44.647715
20
57.790230
11
44.711700
21
57.790300
0
LINE
8
Layer 1
10
47.787600
20
57.701000
11
48.000997
21
57.568450
0
LINE
8
Layer 1
10
48.000997
20
57.568450
11
47.836484
21
57.418978
0
LINE
8
Layer 1
10
47.836484
20
57.418978
11
47.671971
21
57.573150
0
LINE
8
Layer 1
10
47.671971
20
57.573150
11
47.611800
21
57.573100
0
LINE
8
Layer 1
10
47.611800
20
57.573100
11
47.677608
21
57.412817
0
LINE
8
Layer 1
10
47.677608
20
57.412817
11
47.847757
21
57.368164
0
LINE
8
Layer 1
10
47.847757
20
57.368164
11
48.061154
21
57.569340
0
LINE
8
Layer 1
10
48.061154
20
57.569340
11
47.943645
21
57.732912
0
LINE
8
Layer 1
10
47.943645
20
57.732912
11
48.037653
21
57.880504
0
LINE
8
Layer 1
10
48.037653
20
57.880504
11
47.848697
21
58.044077
0
LINE
8
Layer 1
10
47.848697
20
58.044077
11
47.698287
21
57.999893
0
LINE
8
Layer 1
10
47.698287
20
57.999893
11
47.634361
21
57.851362
0
LINE
8
Layer 1
10
47.634361
20
57.851362
11
47.694600
21
57.851400
0
LINE
8
Layer 1
10
47.694600
20
57.851400
11
47.836552
21
57.993351
0
LINE
8
Layer 1
10
47.836552
20
57.993351
11
47.977564
21
57.876782
0
LINE
8
Layer 1
10
47.977564
20
57.876782
11
47.787668
21
57.749872
0
LINE
8
Layer 1
10
47.787668
20
57.749872
11
47.787600
21
57.701000
0
LINE
8
Layer 1
10
48.267100
20
57.381400
11
48.267100
21
57.464100
0
LINE
8
Layer 1
10
48.267100
20
57.464100
11
48.198400
21
57.464100
0
LINE
8
Layer 1
10
48.198400
20
57.464100
11
48.198400
21
57.381400
0
LINE
8
Layer 1
10
48.198400
20
57.381400
11
48.267100
21
57.381400
0
LINE
8
Layer 1
10
48.571700
20
57.701000
11
48.785097
21
57.568450
0
LINE
8
Layer 1
10
48.785097
20
57.568450
11
48.620584
21
57.418978
0
LINE
8
Layer 1
10
48.620584
20
57.418978
11
48.456071
21
57.573150
0
LINE
8
Layer 1
10
48.456071
20
57.573150
11
48.395900
21
57.573100
0
LINE
8
Layer 1
10
48.395900
20
57.573100
11
48.461708
21
57.412817
0
LINE
8
Layer 1
10
48.461708
20
57.412817
11
48.631857
21
57.368164
0
LINE
8
Layer 1
10
48.631857
20
57.368164
11
48.845254
21
57.569340
0
LINE
8
Layer 1
10
48.845254
20
57.569340
11
48.727745
21
57.732912
0
LINE
8
Layer 1
10
48.727745
20
57.732912
11
48.821753
21
57.880504
0
LINE
8
Layer 1
10
48.821753
20
57.880504
11
48.632797
21
58.044077
0
LINE
8
Layer 1
10
48.632797
20
58.044077
11
48.482387
21
57.999893
0
LINE
8
Layer 1
10
48.482387
20
57.999893
11
48.418461
21
57.851362
0
LINE
8
Layer 1
10
48.418461
20
57.851362
11
48.478600
21
57.851400
0
LINE
8
Layer 1
10
48.478600
20
57.851400
11
48.620552
21
57.993351
0
LINE
8
Layer 1
10
48.620552
20
57.993351
11
48.761561
21
57.876782
0
LINE
8
Layer 1
10
48.761561
20
57.876782
11
48.571668
21
57.749872
0
LINE
8
Layer 1
10
48.571668
20
57.749872
11
48.571700
21
57.701000
0
LINE
8
Layer 1
10
25.719200
20
57.747000
11
25.863031
21
57.913393
0
LINE
8
Layer 1
10
25.863031
20
57.913393
11
26.008742
21
57.777082
0
LINE
8
Layer 1
10
26.008742
20
57.777082
11
25.899811
21
57.621500
0
LINE
8
Layer 1
10
25.899811
20
57.621500
11
25.687237
21
57.463098
0
LINE
8
Layer 1
10
25.687237
20
57.463098
11
25.635533
21
57.301405
0
LINE
8
Layer 1
10
25.635533
20
57.301405
11
26.068900
21
57.301400
0
LINE
8
Layer 1
10
26.068900
20
57.301400
11
26.068900
21
57.352200
0
LINE
8
Layer 1
10
26.068900
20
57.352200
11
25.699400
21
57.352200
0
LINE
8
Layer 1
10
25.699400
20
57.352200
11
25.785887
21
57.485690
0
LINE
8
Layer 1
10
25.785887
20
57.485690
11
25.967203
21
57.595561
0
LINE
8
Layer 1
10
25.967203
20
57.595561
11
26.074489
21
57.780873
0
LINE
8
Layer 1
10
26.074489
20
57.780873
11
25.870493
21
57.964187
0
LINE
8
Layer 1
10
25.870493
20
57.964187
11
25.655216
21
57.747030
0
LINE
8
Layer 1
10
25.655216
20
57.747030
11
25.719200
21
57.747000
0
LINE
8
Layer 1
10
26.277600
20
57.301400
11
26.277600
21
57.384100
0
LINE
8
Layer 1
10
26.277600
20
57.384100
11
26.208900
21
57.384100
0
LINE
8
Layer 1
10
26.208900
20
57.384100
11
26.208900
21
57.301400
0
LINE
8
Layer 1
10
26.208900
20
57.301400
11
26.277600
21
57.301400
0
LINE
8
Layer 1
10
26.429900
20
57.897400
11
26.779600
21
57.897400
0
LINE
8
Layer 1
10
26.779600
20
57.897400
11
26.517320
21
57.301394
0
LINE
8
Layer 1
10
26.517320
20
57.301394
11
26.583100
21
57.301400
0
LINE
8
Layer 1
10
26.583100
20
57.301400
11
26.851961
21
57.901167
0
LINE
8
Layer 1
10
26.851961
20
57.901167
11
26.851900
21
57.957600
0
LINE
8
Layer 1
10
26.851900
20
57.957600
11
26.429900
21
57.957600
0
LINE
8
Layer 1
10
26.429900
20
57.957600
11
26.429900
21
57.897400
0
LINE
8
Layer 1
10
22.194000
20
57.766400
11
22.337831
21
57.932793
0
LINE
8
Layer 1
10
22.337831
20
57.932793
11
22.483542
21
57.796483
0
LINE
8
Layer 1
10
22.483542
20
57.796483
11
22.374611
21
57.640901
0
LINE
8
Layer 1
10
22.374611
20
57.640901
11
22.162037
21
57.482499
0
LINE
8
Layer 1
10
22.162037
20
57.482499
11
22.110333
21
57.320806
0
LINE
8
Layer 1
10
22.110333
20
57.320806
11
22.543700
21
57.320800
0
LINE
8
Layer 1
10
22.543700
20
57.320800
11
22.543700
21
57.371600
0
LINE
8
Layer 1
10
22.543700
20
57.371600
11
22.174200
21
57.371600
0
LINE
8
Layer 1
10
22.174200
20
57.371600
11
22.260687
21
57.505090
0
LINE
8
Layer 1
10
22.260687
20
57.505090
11
22.442003
21
57.614961
0
LINE
8
Layer 1
10
22.442003
20
57.614961
11
22.549289
21
57.800273
0
LINE
8
Layer 1
10
22.549289
20
57.800273
11
22.345293
21
57.983587
0
LINE
8
Layer 1
10
22.345293
20
57.983587
11
22.130016
21
57.766430
0
LINE
8
Layer 1
10
22.130016
20
57.766430
11
22.194000
21
57.766400
0
LINE
8
Layer 1
10
22.752400
20
57.320800
11
22.752400
21
57.403600
0
LINE
8
Layer 1
10
22.752400
20
57.403600
11
22.683700
21
57.403600
0
LINE
8
Layer 1
10
22.683700
20
57.403600
11
22.683700
21
57.320800
0
LINE
8
Layer 1
10
22.683700
20
57.320800
11
22.752400
21
57.320800
0
LINE
8
Layer 1
10
23.322000
20
57.821000
11
23.128345
21
57.983633
0
LINE
8
Layer 1
10
23.128345
20
57.983633
11
22.935042
21
57.862951
0
LINE
8
Layer 1
10
22.935042
20
57.862951
11
22.887686
21
57.624525
0
LINE
8
Layer 1
10
22.887686
20
57.624525
11
22.954079
21
57.378343
0
LINE
8
Layer 1
10
22.954079
20
57.378343
11
23.119884
21
57.307720
0
LINE
8
Layer 1
10
23.119884
20
57.307720
11
23.332340
21
57.522997
0
LINE
8
Layer 1
10
23.332340
20
57.522997
11
23.121764
21
57.736394
0
LINE
8
Layer 1
10
23.121764
20
57.736394
11
22.947850
21
57.632986
0
LINE
8
Layer 1
10
22.947850
20
57.632986
11
22.983456
21
57.829814
0
LINE
8
Layer 1
10
22.983456
20
57.829814
11
23.133984
21
57.932869
0
LINE
8
Layer 1
10
23.133984
20
57.932869
11
23.259954
21
57.821000
0
LINE
8
Layer 1
10
23.259954
20
57.821000
11
23.322000
21
57.821000
0
LINE
8
Layer 1
10
23.119884
20
57.685629
11
23.272176
21
57.524876
0
LINE
8
Layer 1
10
23.272176
20
57.524876
11
23.120824
21
57.358483
0
LINE
8
Layer 1
10
23.120824
20
57.358483
11
22.970412
21
57.521115
0
LINE
8
Layer 1
10
22.970412
20
57.521115
11
23.119884
21
57.685628
0
LINE
8
Layer 1
10
23.119884
20
57.685628
11
23.119884
21
57.685629
0
LINE
8
Layer 1
10
18.534400
20
57.773000
11
18.678231
21
57.939393
0
LINE
8
Layer 1
10
18.678231
20
57.939393
11
18.823943
21
57.803082
0
LINE
8
Layer 1
10
18.823943
20
57.803082
11
18.715012
21
57.647500
0
LINE
8
Layer 1
10
18.715012
20
57.647500
11
18.502438
21
57.489098
0
LINE
8
Layer 1
10
18.502438
20
57.489098
11
18.450734
21
57.327405
0
LINE
8
Layer 1
10
18.450734
20
57.327405
11
18.884100
21
57.327400
0
LINE
8
Layer 1
10
18.884100
20
57.327400
11
18.884100
21
57.378200
0
LINE
8
Layer 1
10
18.884100
20
57.378200
11
18.514700
21
57.378200
0
LINE
8
Layer 1
10
18.514700
20
57.378200
11
18.601187
21
57.511690
0
LINE
8
Layer 1
10
18.601187
20
57.511690
11
18.782503
21
57.621561
0
LINE
8
Layer 1
10
18.782503
20
57.621561
11
18.889789
21
57.806873
0
LINE
8
Layer 1
10
18.889789
20
57.806873
11
18.685793
21
57.990187
0
LINE
8
Layer 1
10
18.685793
20
57.990187
11
18.470516
21
57.773030
0
LINE
8
Layer 1
10
18.470516
20
57.773030
11
18.534400
21
57.773000
0
LINE
8
Layer 1
10
19.092800
20
57.327400
11
19.092800
21
57.410100
0
LINE
8
Layer 1
10
19.092800
20
57.410100
11
19.024200
21
57.410100
0
LINE
8
Layer 1
10
19.024200
20
57.410100
11
19.024200
21
57.327400
0
LINE
8
Layer 1
10
19.024200
20
57.327400
11
19.092800
21
57.327400
0
LINE
8
Layer 1
10
19.222500
20
57.499400
11
19.296060
21
57.355333
0
LINE
8
Layer 1
10
19.296060
20
57.355333
11
19.455638
21
57.314205
0
LINE
8
Layer 1
10
19.455638
20
57.314205
11
19.665274
21
57.534182
0
LINE
8
Layer 1
10
19.665274
20
57.534182
11
19.455638
21
57.753219
0
LINE
8
Layer 1
10
19.455638
20
57.753219
11
19.309927
21
57.709976
0
LINE
8
Layer 1
10
19.309927
20
57.709976
11
19.351290
21
57.932773
0
LINE
8
Layer 1
10
19.351290
20
57.932773
11
19.629600
21
57.932800
0
LINE
8
Layer 1
10
19.629600
20
57.932800
11
19.629600
21
57.983600
0
LINE
8
Layer 1
10
19.629600
20
57.983600
11
19.300600
21
57.983600
0
LINE
8
Layer 1
10
19.300600
20
57.983600
11
19.247016
21
57.640473
0
LINE
8
Layer 1
10
19.247016
20
57.640473
11
19.296840
21
57.633892
0
LINE
8
Layer 1
10
19.296840
20
57.633892
11
19.440671
21
57.702517
0
LINE
8
Layer 1
10
19.440671
20
57.702517
11
19.605184
21
57.534244
0
LINE
8
Layer 1
10
19.605184
20
57.534244
11
19.446312
21
57.365031
0
LINE
8
Layer 1
10
19.446312
20
57.365031
11
19.282739
21
57.499462
0
LINE
8
Layer 1
10
19.282739
20
57.499462
11
19.222500
21
57.499400
0
LINE
8
Layer 1
10
29.988800
20
56.766400
11
29.805796
21
56.714586
0
LINE
8
Layer 1
10
29.805796
20
56.714586
11
29.689489
21
56.565758
0
LINE
8
Layer 1
10
29.689489
20
56.565758
11
29.655865
21
56.427403
0
LINE
8
Layer 1
10
29.655865
20
56.427403
11
29.645395
21
56.249912
0
LINE
8
Layer 1
10
29.645395
20
56.249912
11
29.654764
21
56.107147
0
LINE
8
Layer 1
10
29.654764
20
56.107147
11
29.654800
21
56.106600
0
LINE
8
Layer 1
10
29.654800
20
56.106600
11
29.685116
21
55.985333
0
LINE
8
Layer 1
10
29.685116
20
55.985333
11
29.685700
21
55.985300
0
LINE
8
Layer 1
10
29.685700
20
55.985300
11
29.685700
21
55.984700
0
LINE
8
Layer 1
10
29.685700
20
55.984700
11
29.808069
21
55.823745
0
LINE
8
Layer 1
10
29.808069
20
55.823745
11
29.993828
21
55.765316
0
LINE
8
Layer 1
10
29.993828
20
55.765316
11
30.157539
21
55.808862
0
LINE
8
Layer 1
10
30.157539
20
55.808862
11
30.276603
21
55.932334
0
LINE
8
Layer 1
10
30.276603
20
55.932334
11
30.277200
21
55.932400
0
LINE
8
Layer 1
10
30.277200
20
55.932400
11
30.326809
21
56.076267
0
LINE
8
Layer 1
10
30.326809
20
56.076267
11
30.338945
21
56.244387
0
LINE
8
Layer 1
10
30.338945
20
56.244387
11
30.340000
21
56.244300
0
LINE
8
Layer 1
10
30.340000
20
56.244300
11
30.340000
21
56.260900
0
LINE
8
Layer 1
10
30.340000
20
56.260900
11
30.289288
21
56.569029
0
LINE
8
Layer 1
10
30.289288
20
56.569029
11
30.216528
21
56.675965
0
LINE
8
Layer 1
10
30.216528
20
56.675965
11
30.115653
21
56.743213
0
LINE
8
Layer 1
10
30.115653
20
56.743213
11
29.988876
21
56.766364
0
LINE
8
Layer 1
10
29.988876
20
56.766364
11
29.988800
21
56.766400
0
LINE
8
Layer 1
10
29.988800
20
56.732776
11
30.102900
21
56.711829
0
LINE
8
Layer 1
10
30.102900
20
56.711829
11
30.103500
21
56.711800
0
LINE
8
Layer 1
10
30.103500
20
56.711800
11
30.192245
21
56.652820
0
LINE
8
Layer 1
10
30.192245
20
56.652820
11
30.258389
21
56.554704
0
LINE
8
Layer 1
10
30.258389
20
56.554704
11
30.305794
21
56.260906
0
LINE
8
Layer 1
10
30.305794
20
56.260906
11
30.293122
21
56.081761
0
LINE
8
Layer 1
10
30.293122
20
56.081761
11
30.247371
21
55.948918
0
LINE
8
Layer 1
10
30.247371
20
55.948918
11
30.139884
21
55.838124
0
LINE
8
Layer 1
10
30.139884
20
55.838124
11
29.993812
21
55.798987
0
LINE
8
Layer 1
10
29.993812
20
55.798987
11
29.827897
21
55.851353
0
LINE
8
Layer 1
10
29.827897
20
55.851353
11
29.717105
21
55.996874
0
LINE
8
Layer 1
10
29.717105
20
55.996874
11
29.688440
21
56.111527
0
LINE
8
Layer 1
10
29.688440
20
56.111527
11
29.679070
21
56.249882
0
LINE
8
Layer 1
10
29.679070
20
56.249882
11
29.689540
21
56.422963
0
LINE
8
Layer 1
10
29.689540
20
56.422963
11
29.720960
21
56.553050
0
LINE
8
Layer 1
10
29.720960
20
56.553050
11
29.720400
21
56.553100
0
LINE
8
Layer 1
10
29.720400
20
56.553100
11
29.824579
21
56.686494
0
LINE
8
Layer 1
10
29.824579
20
56.686494
11
29.988843
21
56.732796
0
LINE
8
Layer 1
10
29.988843
20
56.732796
11
29.988800
21
56.732776
0
LINE
8
Layer 1
10
29.991622
20
56.635762
11
29.857126
21
56.539300
0
LINE
8
Layer 1
10
29.857126
20
56.539300
11
29.857200
21
56.538700
0
LINE
8
Layer 1
10
29.857200
20
56.538700
11
29.823026
21
56.268605
0
LINE
8
Layer 1
10
29.823026
20
56.268605
11
29.837363
21
56.066860
0
LINE
8
Layer 1
10
29.837363
20
56.066860
11
29.889176
21
55.941734
0
LINE
8
Layer 1
10
29.889176
20
55.941734
11
29.992805
21
55.896534
0
LINE
8
Layer 1
10
29.992805
20
55.896534
11
30.098638
21
55.943939
0
LINE
8
Layer 1
10
30.098638
20
55.943939
11
30.149350
21
56.069616
0
LINE
8
Layer 1
10
30.149350
20
56.069616
11
30.163123
21
56.273565
0
LINE
8
Layer 1
10
30.163123
20
56.273565
11
30.163100
21
56.290700
0
LINE
8
Layer 1
10
30.163100
20
56.290700
11
30.162000
21
56.290700
0
LINE
8
Layer 1
10
30.162000
20
56.290700
11
30.148764
21
56.469845
0
LINE
8
Layer 1
10
30.148764
20
56.469845
11
30.096951
21
56.591112
0
LINE
8
Layer 1
10
30.096951
20
56.591112
11
29.991668
21
56.635760
0
LINE
8
Layer 1
10
29.991668
20
56.635760
11
29.991622
21
56.635762
0
LINE
8
Layer 1
10
29.991622
20
56.602138
11
30.071548
21
56.569065
0
LINE
8
Layer 1
10
30.071548
20
56.569065
11
30.115645
21
56.463232
0
LINE
8
Layer 1
10
30.115645
20
56.463232
11
30.129417
21
56.273614
0
LINE
8
Layer 1
10
30.129417
20
56.273614
11
30.116181
21
56.075177
0
LINE
8
Layer 1
10
30.116181
20
56.075177
11
30.072634
21
55.964934
0
LINE
8
Layer 1
10
30.072634
20
55.964934
11
29.992709
21
55.930208
0
LINE
8
Layer 1
10
29.992709
20
55.930208
11
29.914434
21
55.963281
0
LINE
8
Layer 1
10
29.914434
20
55.963281
11
29.870337
21
56.072973
0
LINE
8
Layer 1
10
29.870337
20
56.072973
11
29.856565
21
56.268654
0
LINE
8
Layer 1
10
29.856565
20
56.268654
11
29.888535
21
56.526623
0
LINE
8
Layer 1
10
29.888535
20
56.526623
11
29.991611
21
56.602139
0
LINE
8
Layer 1
10
29.991611
20
56.602139
11
29.991622
21
56.602138
0
LINE
8
Layer 1
10
33.245000
20
55.823200
11
33.305100
21
55.823200
0
LINE
8
Layer 1
10
33.305100
20
55.823200
11
33.305100
21
56.486000
0
LINE
8
Layer 1
10
33.305100
20
56.486000
11
33.257200
21
56.486000
0
LINE
8
Layer 1
10
33.257200
20
56.486000
11
33.073886
21
56.355330
0
LINE
8
Layer 1
10
33.073886
20
56.355330
11
33.073900
21
56.315800
0
LINE
8
Layer 1
10
33.073900
20
56.315800
11
33.245000
21
56.315800
0
LINE
8
Layer 1
10
33.245000
20
56.315800
11
33.245000
21
55.823200
0
LINE
8
Layer 1
10
26.002900
20
56.064300
11
26.002900
21
56.006000
0
LINE
8
Layer 1
10
26.002900
20
56.006000
11
26.240700
21
56.006000
0
LINE
8
Layer 1
10
26.240700
20
56.006000
11
26.240700
21
56.064300
0
LINE
8
Layer 1
10
26.240700
20
56.064300
11
26.002900
21
56.064300
0
LINE
8
Layer 1
10
26.562200
20
55.790700
11
26.622400
21
55.790700
0
LINE
8
Layer 1
10
26.622400
20
55.790700
11
26.622400
21
56.453500
0
LINE
8
Layer 1
10
26.622400
20
56.453500
11
26.574500
21
56.453500
0
LINE
8
Layer 1
10
26.574500
20
56.453500
11
26.391186
21
56.322830
0
LINE
8
Layer 1
10
26.391186
20
56.322830
11
26.391100
21
56.283300
0
LINE
8
Layer 1
10
26.391100
20
56.283300
11
26.562200
21
56.283300
0
LINE
8
Layer 1
10
26.562200
20
56.283300
11
26.562200
21
55.790700
0
LINE
8
Layer 1
10
22.411500
20
56.089600
11
22.411500
21
56.031300
0
LINE
8
Layer 1
10
22.411500
20
56.031300
11
22.649300
21
56.031300
0
LINE
8
Layer 1
10
22.649300
20
56.031300
11
22.649300
21
56.089600
0
LINE
8
Layer 1
10
22.649300
20
56.089600
11
22.411500
21
56.089600
0
LINE
8
Layer 1
10
22.815700
20
56.261600
11
22.959531
21
56.427993
0
LINE
8
Layer 1
10
22.959531
20
56.427993
11
23.105242
21
56.291683
0
LINE
8
Layer 1
10
23.105242
20
56.291683
11
22.996311
21
56.136101
0
LINE
8
Layer 1
10
22.996311
20
56.136101
11
22.783737
21
55.977699
0
LINE
8
Layer 1
10
22.783737
20
55.977699
11
22.732033
21
55.816006
0
LINE
8
Layer 1
10
22.732033
20
55.816006
11
23.165400
21
55.816000
0
LINE
8
Layer 1
10
23.165400
20
55.816000
11
23.165400
21
55.866800
0
LINE
8
Layer 1
10
23.165400
20
55.866800
11
22.796000
21
55.866800
0
LINE
8
Layer 1
10
22.796000
20
55.866800
11
22.882487
21
56.000290
0
LINE
8
Layer 1
10
22.882487
20
56.000290
11
23.063803
21
56.110161
0
LINE
8
Layer 1
10
23.063803
20
56.110161
11
23.171089
21
56.295473
0
LINE
8
Layer 1
10
23.171089
20
56.295473
11
22.967093
21
56.478787
0
LINE
8
Layer 1
10
22.967093
20
56.478787
11
22.751816
21
56.261630
0
LINE
8
Layer 1
10
22.751816
20
56.261630
11
22.815700
21
56.261600
0
LINE
8
Layer 1
10
18.600400
20
56.107900
11
18.600400
21
56.049600
0
LINE
8
Layer 1
10
18.600400
20
56.049600
11
18.838300
21
56.049600
0
LINE
8
Layer 1
10
18.838300
20
56.049600
11
18.838300
21
56.107900
0
LINE
8
Layer 1
10
18.838300
20
56.107900
11
18.600400
21
56.107900
0
LINE
8
Layer 1
10
19.083600
20
56.154000
11
19.296997
21
56.021450
0
LINE
8
Layer 1
10
19.296997
20
56.021450
11
19.132484
21
55.871978
0
LINE
8
Layer 1
10
19.132484
20
55.871978
11
18.967971
21
56.026150
0
LINE
8
Layer 1
10
18.967971
20
56.026150
11
18.907800
21
56.026100
0
LINE
8
Layer 1
10
18.907800
20
56.026100
11
18.973606
21
55.865817
0
LINE
8
Layer 1
10
18.973606
20
55.865817
11
19.143758
21
55.821164
0
LINE
8
Layer 1
10
19.143758
20
55.821164
11
19.357155
21
56.022340
0
LINE
8
Layer 1
10
19.357155
20
56.022340
11
19.239646
21
56.185912
0
LINE
8
Layer 1
10
19.239646
20
56.185912
11
19.333653
21
56.333504
0
LINE
8
Layer 1
10
19.333653
20
56.333504
11
19.144698
21
56.497077
0
LINE
8
Layer 1
10
19.144698
20
56.497077
11
18.994286
21
56.452893
0
LINE
8
Layer 1
10
18.994286
20
56.452893
11
18.930361
21
56.304362
0
LINE
8
Layer 1
10
18.930361
20
56.304362
11
18.990600
21
56.304400
0
LINE
8
Layer 1
10
18.990600
20
56.304400
11
19.132551
21
56.446351
0
LINE
8
Layer 1
10
19.132551
20
56.446351
11
19.273562
21
56.329782
0
LINE
8
Layer 1
10
19.273562
20
56.329782
11
19.083667
21
56.202872
0
LINE
8
Layer 1
10
19.083667
20
56.202872
11
19.083600
21
56.154000
0
LINE
8
Layer 1
10
36.947600
20
56.223300
11
37.091432
21
56.389693
0
LINE
8
Layer 1
10
37.091432
20
56.389693
11
37.237143
21
56.253382
0
LINE
8
Layer 1
10
37.237143
20
56.253382
11
37.128212
21
56.097800
0
LINE
8
Layer 1
10
37.128212
20
56.097800
11
36.915639
21
55.939398
0
LINE
8
Layer 1
10
36.915639
20
55.939398
11
36.863933
21
55.777706
0
LINE
8
Layer 1
10
36.863933
20
55.777706
11
37.297300
21
55.777700
0
LINE
8
Layer 1
10
37.297300
20
55.777700
11
37.297300
21
55.828500
0
LINE
8
Layer 1
10
37.297300
20
55.828500
11
36.927900
21
55.828500
0
LINE
8
Layer 1
10
36.927900
20
55.828500
11
37.014387
21
55.961990
0
LINE
8
Layer 1
10
37.014387
20
55.961990
11
37.195704
21
56.071861
0
LINE
8
Layer 1
10
37.195704
20
56.071861
11
37.302990
21
56.257173
0
LINE
8
Layer 1
10
37.302990
20
56.257173
11
37.098991
21
56.440487
0
LINE
8
Layer 1
10
37.098991
20
56.440487
11
36.883715
21
56.223330
0
LINE
8
Layer 1
10
36.883715
20
56.223330
11
36.947600
21
56.223300
0
LINE
8
Layer 1
10
40.686000
20
56.071400
11
40.899397
21
55.938850
0
LINE
8
Layer 1
10
40.899397
20
55.938850
11
40.734884
21
55.789378
0
LINE
8
Layer 1
10
40.734884
20
55.789378
11
40.570371
21
55.943550
0
LINE
8
Layer 1
10
40.570371
20
55.943550
11
40.510300
21
55.943600
0
LINE
8
Layer 1
10
40.510300
20
55.943600
11
40.576108
21
55.783318
0
LINE
8
Layer 1
10
40.576108
20
55.783318
11
40.746257
21
55.738664
0
LINE
8
Layer 1
10
40.746257
20
55.738664
11
40.959654
21
55.939840
0
LINE
8
Layer 1
10
40.959654
20
55.939840
11
40.842145
21
56.103412
0
LINE
8
Layer 1
10
40.842145
20
56.103412
11
40.936153
21
56.251004
0
LINE
8
Layer 1
10
40.936153
20
56.251004
11
40.747197
21
56.414576
0
LINE
8
Layer 1
10
40.747197
20
56.414576
11
40.596787
21
56.370393
0
LINE
8
Layer 1
10
40.596787
20
56.370393
11
40.532861
21
56.221862
0
LINE
8
Layer 1
10
40.532861
20
56.221862
11
40.593000
21
56.221800
0
LINE
8
Layer 1
10
40.593000
20
56.221800
11
40.734952
21
56.363751
0
LINE
8
Layer 1
10
40.734952
20
56.363751
11
40.875961
21
56.247182
0
LINE
8
Layer 1
10
40.875961
20
56.247182
11
40.686068
21
56.120272
0
LINE
8
Layer 1
10
40.686068
20
56.120272
11
40.686000
21
56.071400
0
LINE
8
Layer 1
10
44.458800
20
55.767600
11
44.518900
21
55.767600
0
LINE
8
Layer 1
10
44.518900
20
55.767600
11
44.518900
21
55.931100
0
LINE
8
Layer 1
10
44.518900
20
55.931100
11
44.611100
21
55.931100
0
LINE
8
Layer 1
10
44.611100
20
55.931100
11
44.611100
21
55.981900
0
LINE
8
Layer 1
10
44.611100
20
55.981900
11
44.518900
21
55.981900
0
LINE
8
Layer 1
10
44.518900
20
55.981900
11
44.518900
21
56.423700
0
LINE
8
Layer 1
10
44.518900
20
56.423700
11
44.464400
21
56.423700
0
LINE
8
Layer 1
10
44.464400
20
56.423700
11
44.156058
21
55.982806
0
LINE
8
Layer 1
10
44.156058
20
55.982806
11
44.156100
21
55.931100
0
LINE
8
Layer 1
10
44.156100
20
55.931100
11
44.458800
21
55.931100
0
LINE
8
Layer 1
10
44.458800
20
55.931100
11
44.458800
21
55.767600
0
LINE
8
Layer 1
10
44.458800
20
56.333524
11
44.458800
21
55.981900
0
LINE
8
Layer 1
10
44.458800
20
55.981900
11
44.215300
21
55.981900
0
LINE
8
Layer 1
10
44.215300
20
55.981900
11
44.458800
21
56.333524
0
LINE
8
Layer 1
10
48.019800
20
55.918000
11
48.093356
21
55.773934
0
LINE
8
Layer 1
10
48.093356
20
55.773934
11
48.252938
21
55.732806
0
LINE
8
Layer 1
10
48.252938
20
55.732806
11
48.462575
21
55.952783
0
LINE
8
Layer 1
10
48.462575
20
55.952783
11
48.252938
21
56.171820
0
LINE
8
Layer 1
10
48.252938
20
56.171820
11
48.107227
21
56.128577
0
LINE
8
Layer 1
10
48.107227
20
56.128577
11
48.148589
21
56.351374
0
LINE
8
Layer 1
10
48.148589
20
56.351374
11
48.426900
21
56.351400
0
LINE
8
Layer 1
10
48.426900
20
56.351400
11
48.426900
21
56.402100
0
LINE
8
Layer 1
10
48.426900
20
56.402100
11
48.097900
21
56.402100
0
LINE
8
Layer 1
10
48.097900
20
56.402100
11
48.044317
21
56.058973
0
LINE
8
Layer 1
10
48.044317
20
56.058973
11
48.094141
21
56.052392
0
LINE
8
Layer 1
10
48.094141
20
56.052392
11
48.237973
21
56.121017
0
LINE
8
Layer 1
10
48.237973
20
56.121017
11
48.402486
21
55.952744
0
LINE
8
Layer 1
10
48.402486
20
55.952744
11
48.243612
21
55.783531
0
LINE
8
Layer 1
10
48.243612
20
55.783531
11
48.080039
21
55.917961
0
LINE
8
Layer 1
10
48.080039
20
55.917961
11
48.019800
21
55.918000
0
LINE
8
Layer 1
10
14.224500
20
57.657400
11
14.278861
21
57.881239
0
LINE
8
Layer 1
10
14.278861
20
57.881239
11
14.465927
21
57.975571
0
LINE
8
Layer 1
10
14.465927
20
57.975571
11
14.643400
21
57.783709
0
LINE
8
Layer 1
10
14.643400
20
57.783709
11
14.643400
21
57.211300
0
LINE
8
Layer 1
10
14.643400
20
57.211300
11
14.739300
21
57.211300
0
LINE
8
Layer 1
10
14.739300
20
57.211300
11
14.739300
21
57.657400
0
LINE
8
Layer 1
10
14.739300
20
57.657400
11
14.793661
21
57.881239
0
LINE
8
Layer 1
10
14.793661
20
57.881239
11
14.980727
21
57.975571
0
LINE
8
Layer 1
10
14.980727
20
57.975571
11
15.158200
21
57.783709
0
LINE
8
Layer 1
10
15.158200
20
57.783709
11
15.158200
21
57.211300
0
LINE
8
Layer 1
10
15.158200
20
57.211300
11
15.254100
21
57.211300
0
LINE
8
Layer 1
10
15.254100
20
57.211300
11
15.254100
21
57.734100
0
LINE
8
Layer 1
10
15.254100
20
57.734100
11
15.209932
21
57.960338
0
LINE
8
Layer 1
10
15.209932
20
57.960338
11
14.996685
21
58.061865
0
LINE
8
Layer 1
10
14.996685
20
58.061865
11
14.726479
21
57.901980
0
LINE
8
Layer 1
10
14.726479
20
57.901980
11
14.483453
21
58.061865
0
LINE
8
Layer 1
10
14.483453
20
58.061865
11
14.227637
21
57.914771
0
LINE
8
Layer 1
10
14.227637
20
57.914771
11
14.224500
21
57.914800
0
LINE
8
Layer 1
10
14.224500
20
57.914800
11
14.224500
21
58.039500
0
LINE
8
Layer 1
10
14.224500
20
58.039500
11
14.128500
21
58.039500
0
LINE
8
Layer 1
10
14.128500
20
58.039500
11
14.128500
21
57.211300
0
LINE
8
Layer 1
10
14.128500
20
57.211300
11
14.224500
21
57.211300
0
LINE
8
Layer 1
10
14.224500
20
57.211300
11
14.224500
21
57.657400
0
LINE
8
Layer 1
10
15.556300
20
57.657400
11
15.610661
21
57.881239
0
LINE
8
Layer 1
10
15.610661
20
57.881239
11
15.797727
21
57.975571
0
LINE
8
Layer 1
10
15.797727
20
57.975571
11
15.975199
21
57.783709
0
LINE
8
Layer 1
10
15.975199
20
57.783709
11
15.975200
21
57.211300
0
LINE
8
Layer 1
10
15.975200
20
57.211300
11
16.071100
21
57.211300
0
LINE
8
Layer 1
10
16.071100
20
57.211300
11
16.071100
21
57.657400
0
LINE
8
Layer 1
10
16.071100
20
57.657400
11
16.125461
21
57.881239
0
LINE
8
Layer 1
10
16.125461
20
57.881239
11
16.312527
21
57.975571
0
LINE
8
Layer 1
10
16.312527
20
57.975571
11
16.489999
21
57.783709
0
LINE
8
Layer 1
10
16.489999
20
57.783709
11
16.490000
21
57.211300
0
LINE
8
Layer 1
10
16.490000
20
57.211300
11
16.586000
21
57.211300
0
LINE
8
Layer 1
10
16.586000
20
57.211300
11
16.586000
21
57.734100
0
LINE
8
Layer 1
10
16.586000
20
57.734100
11
16.541832
21
57.960338
0
LINE
8
Layer 1
10
16.541832
20
57.960338
11
16.328585
21
58.061865
0
LINE
8
Layer 1
10
16.328585
20
58.061865
11
16.058379
21
57.901980
0
LINE
8
Layer 1
10
16.058379
20
57.901980
11
15.815354
21
58.061865
0
LINE
8
Layer 1
10
15.815354
20
58.061865
11
15.559538
21
57.914771
0
LINE
8
Layer 1
10
15.559538
20
57.914771
11
15.556300
21
57.914800
0
LINE
8
Layer 1
10
15.556300
20
57.914800
11
15.556300
21
58.039500
0
LINE
8
Layer 1
10
15.556300
20
58.039500
11
15.460400
21
58.039500
0
LINE
8
Layer 1
10
15.460400
20
58.039500
11
15.460400
21
57.211300
0
LINE
8
Layer 1
10
15.460400
20
57.211300
11
15.556300
21
57.211300
0
LINE
8
Layer 1
10
15.556300
20
57.211300
11
15.556300
21
57.657400
0
LINE
8
Layer 1
10
14.377900
20
56.325100
11
14.186078
21
56.483018
0
LINE
8
Layer 1
10
14.186078
20
56.483018
11
14.028048
21
56.408966
0
LINE
8
Layer 1
10
14.028048
20
56.408966
11
13.973736
21
56.238557
0
LINE
8
Layer 1
10
13.973736
20
56.238557
11
14.024703
21
56.066029
0
LINE
8
Layer 1
10
14.024703
20
56.066029
11
14.186078
21
55.995880
0
LINE
8
Layer 1
10
14.186078
20
55.995880
11
14.385037
21
56.168074
0
LINE
8
Layer 1
10
14.385037
20
56.168074
11
14.328000
21
56.168100
0
LINE
8
Layer 1
10
14.328000
20
56.168100
11
14.186141
21
56.044085
0
LINE
8
Layer 1
10
14.186141
20
56.044085
11
14.030899
21
56.238583
0
LINE
8
Layer 1
10
14.030899
20
56.238583
11
14.186141
21
56.434866
0
LINE
8
Layer 1
10
14.186141
20
56.434866
11
14.323539
21
56.325126
0
LINE
8
Layer 1
10
14.323539
20
56.325126
11
14.377900
21
56.325100
0
LINE
8
Layer 1
10
14.553700
20
56.008400
11
14.553700
21
56.650700
0
LINE
8
Layer 1
10
14.553700
20
56.650700
11
14.500200
21
56.650700
0
LINE
8
Layer 1
10
14.500200
20
56.650700
11
14.500200
21
56.008400
0
LINE
8
Layer 1
10
14.500200
20
56.008400
11
14.553700
21
56.008400
0
LINE
8
Layer 1
10
14.723200
20
56.271600
11
14.878442
21
56.434872
0
LINE
8
Layer 1
10
14.878442
20
56.434872
11
15.024762
21
56.271600
0
LINE
8
Layer 1
10
15.024762
20
56.271600
11
14.723200
21
56.271600
0
LINE
8
Layer 1
10
15.081862
20
56.226990
11
15.028000
21
56.417251
0
LINE
8
Layer 1
10
15.028000
20
56.417251
11
14.878442
21
56.483050
0
LINE
8
Layer 1
10
14.878442
20
56.483050
11
14.666100
21
56.237697
0
LINE
8
Layer 1
10
14.666100
20
56.237697
11
14.716732
21
56.065615
0
LINE
8
Layer 1
10
14.716732
20
56.065615
11
14.878442
21
55.995912
0
LINE
8
Layer 1
10
14.878442
20
55.995912
11
15.078293
21
56.150262
0
LINE
8
Layer 1
10
15.078293
20
56.150262
11
15.018500
21
56.150200
0
LINE
8
Layer 1
10
15.018500
20
56.150200
11
14.878426
21
56.044029
0
LINE
8
Layer 1
10
14.878426
20
56.044029
11
14.723184
21
56.226929
0
LINE
8
Layer 1
10
14.723184
20
56.226929
11
15.081862
21
56.226990
0
LINE
8
Layer 1
10
15.488700
20
56.178800
11
15.320075
21
56.044079
0
LINE
8
Layer 1
10
15.320075
20
56.044079
11
15.220149
21
56.127053
0
LINE
8
Layer 1
10
15.220149
20
56.127053
11
15.350409
21
56.225194
0
LINE
8
Layer 1
10
15.350409
20
56.225194
11
15.488699
21
56.251069
0
LINE
8
Layer 1
10
15.488699
20
56.251069
11
15.488700
21
56.178800
0
LINE
8
Layer 1
10
15.324600
20
56.268000
11
15.163113
21
56.128818
0
LINE
8
Layer 1
10
15.163113
20
56.128818
11
15.317462
21
55.995881
0
LINE
8
Layer 1
10
15.317462
20
55.995881
11
15.489656
21
56.072610
0
LINE
8
Layer 1
10
15.489656
20
56.072610
11
15.532481
21
56.003911
0
LINE
8
Layer 1
10
15.532481
20
56.003911
11
15.556569
21
56.001230
0
LINE
8
Layer 1
10
15.556569
20
56.001230
11
15.598502
21
56.010151
0
LINE
8
Layer 1
10
15.598502
20
56.010151
11
15.598500
21
56.052100
0
LINE
8
Layer 1
10
15.598500
20
56.052100
11
15.542292
21
56.087788
0
LINE
8
Layer 1
10
15.542292
20
56.087788
11
15.542300
21
56.339400
0
LINE
8
Layer 1
10
15.542300
20
56.339400
11
15.374568
21
56.483043
0
LINE
8
Layer 1
10
15.374568
20
56.483043
11
15.184531
21
56.330478
0
LINE
8
Layer 1
10
15.184531
20
56.330478
11
15.238900
21
56.330400
0
LINE
8
Layer 1
10
15.238900
20
56.330400
11
15.373621
21
56.434787
0
LINE
8
Layer 1
10
15.373621
20
56.434787
11
15.488714
21
56.341107
0
LINE
8
Layer 1
10
15.488714
20
56.341107
11
15.469086
21
56.292928
0
LINE
8
Layer 1
10
15.469086
20
56.292928
11
15.398602
21
56.277762
0
LINE
8
Layer 1
10
15.398602
20
56.277762
11
15.324600
21
56.268000
0
LINE
8
Layer 1
10
15.738500
20
56.235000
11
15.891065
21
56.425037
0
LINE
8
Layer 1
10
15.891065
20
56.425037
11
15.891100
21
56.483000
0
LINE
8
Layer 1
10
15.891100
20
56.483000
11
15.740319
21
56.383967
0
LINE
8
Layer 1
10
15.740319
20
56.383967
11
15.738500
21
56.384000
0
LINE
8
Layer 1
10
15.738500
20
56.384000
11
15.738500
21
56.470500
0
LINE
8
Layer 1
10
15.738500
20
56.470500
11
15.685000
21
56.470500
0
LINE
8
Layer 1
10
15.685000
20
56.470500
11
15.685000
21
56.008400
0
LINE
8
Layer 1
10
15.685000
20
56.008400
11
15.738500
21
56.008400
0
LINE
8
Layer 1
10
15.738500
20
56.008400
11
15.738500
21
56.235000
0
LINE
8
Layer 1
10
16.281900
20
56.178800
11
16.113275
21
56.044079
0
LINE
8
Layer 1
10
16.113275
20
56.044079
11
16.013349
21
56.127053
0
LINE
8
Layer 1
10
16.013349
20
56.127053
11
16.143609
21
56.225194
0
LINE
8
Layer 1
10
16.143609
20
56.225194
11
16.281899
21
56.251069
0
LINE
8
Layer 1
10
16.281899
20
56.251069
11
16.281900
21
56.178800
0
LINE
8
Layer 1
10
16.117736
20
56.268019
11
15.956249
21
56.128837
0
LINE
8
Layer 1
10
15.956249
20
56.128837
11
16.110599
21
55.995900
0
LINE
8
Layer 1
10
16.110599
20
55.995900
11
16.282793
21
56.072629
0
LINE
8
Layer 1
10
16.282793
20
56.072629
11
16.325618
21
56.003930
0
LINE
8
Layer 1
10
16.325618
20
56.003930
11
16.349709
21
56.001249
0
LINE
8
Layer 1
10
16.349709
20
56.001249
11
16.391642
21
56.010170
0
LINE
8
Layer 1
10
16.391642
20
56.010170
11
16.391600
21
56.052100
0
LINE
8
Layer 1
10
16.391600
20
56.052100
11
16.335392
21
56.087788
0
LINE
8
Layer 1
10
16.335392
20
56.087788
11
16.335400
21
56.339400
0
LINE
8
Layer 1
10
16.335400
20
56.339400
11
16.167668
21
56.483043
0
LINE
8
Layer 1
10
16.167668
20
56.483043
11
15.977631
21
56.330478
0
LINE
8
Layer 1
10
15.977631
20
56.330478
11
16.032100
21
56.330400
0
LINE
8
Layer 1
10
16.032100
20
56.330400
11
16.166821
21
56.434787
0
LINE
8
Layer 1
10
16.166821
20
56.434787
11
16.281914
21
56.341107
0
LINE
8
Layer 1
10
16.281914
20
56.341107
11
16.262286
21
56.292928
0
LINE
8
Layer 1
10
16.262286
20
56.292928
11
16.191802
21
56.277762
0
LINE
8
Layer 1
10
16.191802
20
56.277762
11
16.117736
21
56.268019
0
LINE
8
Layer 1
10
16.529000
20
56.257300
11
16.540599
21
56.344735
0
LINE
8
Layer 1
10
16.540599
20
56.344735
11
16.669075
21
56.434847
0
LINE
8
Layer 1
10
16.669075
20
56.434847
11
16.788629
21
56.309940
0
LINE
8
Layer 1
10
16.788629
20
56.309940
11
16.788700
21
56.008400
0
LINE
8
Layer 1
10
16.788700
20
56.008400
11
16.842200
21
56.008400
0
LINE
8
Layer 1
10
16.842200
20
56.008400
11
16.842200
21
56.310800
0
LINE
8
Layer 1
10
16.842200
20
56.310800
11
16.819004
21
56.416971
0
LINE
8
Layer 1
10
16.819004
20
56.416971
11
16.678037
21
56.482994
0
LINE
8
Layer 1
10
16.678037
20
56.482994
11
16.529041
21
56.406265
0
LINE
8
Layer 1
10
16.529041
20
56.406265
11
16.529000
21
56.470500
0
LINE
8
Layer 1
10
16.529000
20
56.470500
11
16.475500
21
56.470500
0
LINE
8
Layer 1
10
16.475500
20
56.470500
11
16.475500
21
56.008400
0
LINE
8
Layer 1
10
16.475500
20
56.008400
11
16.529000
21
56.008400
0
LINE
8
Layer 1
10
16.529000
20
56.008400
11
16.529000
21
56.257300
0
LINE
8
Layer 1
10
17.353400
20
56.325100
11
17.161578
21
56.483018
0
LINE
8
Layer 1
10
17.161578
20
56.483018
11
17.003548
21
56.408966
0
LINE
8
Layer 1
10
17.003548
20
56.408966
11
16.949236
21
56.238557
0
LINE
8
Layer 1
10
16.949236
20
56.238557
11
17.000203
21
56.066029
0
LINE
8
Layer 1
10
17.000203
20
56.066029
11
17.161578
21
55.995880
0
LINE
8
Layer 1
10
17.161578
20
55.995880
11
17.360537
21
56.168074
0
LINE
8
Layer 1
10
17.360537
20
56.168074
11
17.303500
21
56.168100
0
LINE
8
Layer 1
10
17.303500
20
56.168100
11
17.161641
21
56.044085
0
LINE
8
Layer 1
10
17.161641
20
56.044085
11
17.006399
21
56.238583
0
LINE
8
Layer 1
10
17.006399
20
56.238583
11
17.161641
21
56.434866
0
LINE
8
Layer 1
10
17.161641
20
56.434866
11
17.299039
21
56.325126
0
LINE
8
Layer 1
10
17.299039
20
56.325126
11
17.353400
21
56.325100
0
LINE
8
Layer 1
10
17.500600
20
56.271600
11
17.655842
21
56.434872
0
LINE
8
Layer 1
10
17.655842
20
56.434872
11
17.802162
21
56.271600
0
LINE
8
Layer 1
10
17.802162
20
56.271600
11
17.500600
21
56.271600
0
LINE
8
Layer 1
10
17.859262
20
56.226990
11
17.805400
21
56.417251
0
LINE
8
Layer 1
10
17.805400
20
56.417251
11
17.655842
21
56.483050
0
LINE
8
Layer 1
10
17.655842
20
56.483050
11
17.443500
21
56.237697
0
LINE
8
Layer 1
10
17.443500
20
56.237697
11
17.494132
21
56.065615
0
LINE
8
Layer 1
10
17.494132
20
56.065615
11
17.655842
21
55.995912
0
LINE
8
Layer 1
10
17.655842
20
55.995912
11
17.855693
21
56.150262
0
LINE
8
Layer 1
10
17.855693
20
56.150262
11
17.795900
21
56.150200
0
LINE
8
Layer 1
10
17.795900
20
56.150200
11
17.655826
21
56.044029
0
LINE
8
Layer 1
10
17.655826
20
56.044029
11
17.500584
21
56.226929
0
LINE
8
Layer 1
10
17.500584
20
56.226929
11
17.859262
21
56.226990
0
LINE
8
Capa 1
10
23.170900
20
81.404900
11
25.993100
21
81.404900
0
LINE
8
Capa 1
10
25.993100
20
81.404900
11
25.993100
21
67.294300
0
LINE
8
Capa 1
10
25.993100
20
67.294300
11
26.783400
21
67.294300
0
LINE
8
Capa 1
10
26.783400
20
67.294300
11
26.783400
21
81.404900
0
LINE
8
Capa 1
10
26.783400
20
81.404900
11
29.605600
21
81.404900
0
LINE
8
Capa 1
10
29.605600
20
81.404900
11
29.605600
21
67.294300
0
LINE
8
Capa 1
10
29.605600
20
67.294300
11
30.424000
21
67.294300
0
LINE
8
Capa 1
10
30.424000
20
67.294300
11
30.424000
21
81.404900
0
LINE
8
Capa 1
10
30.424000
20
81.404900
11
33.246300
21
81.404900
0
LINE
8
Capa 1
10
33.246300
20
81.404900
11
33.246300
21
67.294300
0
LINE
8
Capa 1
10
33.246300
20
67.294300
11
34.092900
21
67.294300
0
LINE
8
Capa 1
10
34.092900
20
67.294300
11
34.092900
21
81.404900
0
LINE
8
Capa 1
10
34.092900
20
81.404900
11
36.915200
21
81.404900
0
LINE
8
Capa 1
10
36.915200
20
81.404900
11
36.915200
21
67.294300
0
LINE
8
Capa 1
10
36.915200
20
67.294300
11
37.790000
21
67.294300
0
LINE
8
Capa 1
10
37.790000
20
67.294300
11
37.790000
21
81.404900
0
LINE
8
Capa 1
10
23.244300
20
67.294300
11
22.482280
21
67.289821
0
LINE
8
Capa 1
10
22.482300
20
67.289800
11
22.482300
21
81.401100
0
LINE
8
Capa 1
10
22.482300
20
81.401100
11
19.660100
21
81.401100
0
LINE
8
Capa 1
10
19.660100
20
81.401100
11
19.660100
21
67.289800
0
LINE
8
Capa 1
10
19.660100
20
67.289800
11
18.926300
21
67.289800
0
LINE
8
Capa 1
10
18.926300
20
67.289800
11
18.926300
21
81.401100
0
LINE
8
Capa 1
10
18.926300
20
81.401100
11
16.104100
21
81.401100
0
LINE
8
Capa 1
10
16.104100
20
81.401100
11
16.104100
21
67.289800
0
LINE
8
Capa 1
10
16.104100
20
67.289800
11
15.398600
21
67.289800
0
LINE
8
Capa 1
10
15.398600
20
67.289800
11
15.398600
21
81.401100
0
LINE
8
Capa 1
10
37.790000
20
81.404900
11
40.612200
21
81.404900
0
LINE
8
Capa 1
10
15.398600
20
81.401100
11
9.754170
21
81.401100
0
LINE
8
Capa 1
10
9.754170
20
81.401100
11
9.754170
21
53.531600
0
LINE
8
Capa 1
10
50.913300
20
53.531600
11
9.754170
21
53.531600
0
LINE
8
Capa 1
10
23.170900
20
81.404900
11
23.244300
21
67.294300
0
LINE
8
Capa 1
10
40.612200
20
81.404900
11
40.612200
21
67.294300
0
LINE
8
Capa 1
10
40.612200
20
67.294300
11
41.515400
21
67.294300
0
LINE
8
Capa 1
10
41.515400
20
67.294300
11
41.515400
21
81.404900
0
LINE
8
Capa 1
10
41.515400
20
81.404900
11
44.337600
21
81.404900
0
LINE
8
Capa 1
10
44.337600
20
81.404900
11
44.337600
21
67.294300
0
LINE
8
Capa 1
10
44.337600
20
67.294300
11
45.268900
21
67.294300
0
LINE
8
Capa 1
10
45.268900
20
67.294300
11
45.268900
21
81.404900
0
LINE
8
Capa 1
10
45.268900
20
81.404900
11
50.913300
21
81.404900
0
LINE
8
Capa 1
10
50.913300
20
81.404900
11
50.913300
21
53.531600
0
LINE
8
Layer 1
10
13.210900
20
76.512800
11
13.210900
21
77.054300
0
LINE
8
Layer 1
10
13.210900
20
77.054300
11
13.473100
21
77.054300
0
LINE
8
Layer 1
10
13.473100
20
77.054300
11
13.793030
21
77.122628
0
LINE
8
Layer 1
10
13.793030
20
77.122628
11
13.943097
21
77.396581
0
LINE
8
Layer 1
10
13.943097
20
77.396581
11
13.862423
21
77.636688
0
LINE
8
Layer 1
10
13.862423
20
77.636688
11
13.542918
21
77.738862
0
LINE
8
Layer 1
10
13.542918
20
77.738862
11
13.095100
21
77.738900
0
LINE
8
Layer 1
10
13.095100
20
77.738900
11
13.095100
21
76.512800
0
LINE
8
Layer 1
10
13.095100
20
76.512800
11
13.210900
21
76.512800
0
LINE
8
Layer 1
10
13.210900
20
77.153086
11
13.210900
21
77.640100
0
LINE
8
Layer 1
10
13.210900
20
77.640100
11
13.510600
21
77.640100
0
LINE
8
Layer 1
10
13.510600
20
77.640100
11
13.750707
21
77.580073
0
LINE
8
Layer 1
10
13.750707
20
77.580073
11
13.827337
21
77.405101
0
LINE
8
Layer 1
10
13.827337
20
77.405101
11
13.733040
21
77.201180
0
LINE
8
Layer 1
10
13.733040
20
77.201180
11
13.476542
21
77.153074
0
LINE
8
Layer 1
10
13.476542
20
77.153074
11
13.210900
21
77.153086
0
LINE
8
Layer 1
10
14.232600
20
76.945400
11
14.291988
21
77.202749
0
LINE
8
Layer 1
10
14.291988
20
77.202749
11
14.523794
21
77.308115
0
LINE
8
Layer 1
10
14.523794
20
77.308115
11
14.523800
21
77.418800
0
LINE
8
Layer 1
10
14.523800
20
77.418800
11
14.236012
21
77.229780
0
LINE
8
Layer 1
10
14.236012
20
77.229780
11
14.232600
21
77.229700
0
LINE
8
Layer 1
10
14.232600
20
77.229700
11
14.232600
21
77.394900
0
LINE
8
Layer 1
10
14.232600
20
77.394900
11
14.130400
21
77.394900
0
LINE
8
Layer 1
10
14.130400
20
77.394900
11
14.130400
21
76.512800
0
LINE
8
Layer 1
10
14.130400
20
76.512800
11
14.232600
21
76.512800
0
LINE
8
Layer 1
10
14.232600
20
76.512800
11
14.232600
21
76.945400
0
LINE
8
Layer 1
10
14.724700
20
77.015200
11
14.812825
21
77.233596
0
LINE
8
Layer 1
10
14.812825
20
77.233596
11
15.021003
21
77.326829
0
LINE
8
Layer 1
10
15.021003
20
77.326829
11
15.229607
21
77.235512
0
LINE
8
Layer 1
10
15.229607
20
77.235512
11
15.300277
21
77.015200
0
LINE
8
Layer 1
10
15.300277
20
77.015200
11
14.724700
21
77.015200
0
LINE
8
Layer 1
10
15.409261
20
76.930056
11
15.306446
21
77.293196
0
LINE
8
Layer 1
10
15.306446
20
77.293196
11
15.021003
21
77.418785
0
LINE
8
Layer 1
10
15.021003
20
77.418785
11
14.723849
21
77.281064
0
LINE
8
Layer 1
10
14.723849
20
77.281064
11
14.615716
21
76.950491
0
LINE
8
Layer 1
10
14.615716
20
76.950491
11
14.712355
21
76.622046
0
LINE
8
Layer 1
10
14.712355
20
76.622046
11
15.021003
21
76.489008
0
LINE
8
Layer 1
10
15.021003
20
76.489008
11
15.276862
21
76.573726
0
LINE
8
Layer 1
10
15.276862
20
76.573726
11
15.402450
21
76.783608
0
LINE
8
Layer 1
10
15.402450
20
76.783608
11
15.288400
21
76.783600
0
LINE
8
Layer 1
10
15.288400
20
76.783600
11
15.021047
21
76.580956
0
LINE
8
Layer 1
10
15.021047
20
76.580956
11
14.798820
21
76.683981
0
LINE
8
Layer 1
10
14.798820
20
76.683981
11
14.724744
21
76.930048
0
LINE
8
Layer 1
10
14.724744
20
76.930048
11
15.409261
21
76.930056
0
LINE
8
Layer 1
10
15.564300
20
76.788700
11
15.657320
21
76.576265
0
LINE
8
Layer 1
10
15.657320
20
76.576265
11
15.899769
21
76.488992
0
LINE
8
Layer 1
10
15.899769
20
76.488992
11
16.157331
21
76.554340
0
LINE
8
Layer 1
10
16.157331
20
76.554340
11
16.259079
21
76.746128
0
LINE
8
Layer 1
10
16.259079
20
76.746128
11
16.170742
21
76.922377
0
LINE
8
Layer 1
10
16.170742
20
76.922377
11
15.976399
21
76.997730
0
LINE
8
Layer 1
10
15.976399
20
76.997730
11
15.782057
21
77.054564
0
LINE
8
Layer 1
10
15.782057
20
77.054564
11
15.693720
21
77.175256
0
LINE
8
Layer 1
10
15.693720
20
77.175256
11
15.892958
21
77.326813
0
LINE
8
Layer 1
10
15.892958
20
77.326813
11
16.131362
21
77.141198
0
LINE
8
Layer 1
10
16.131362
20
77.141198
11
16.235200
21
77.141200
0
LINE
8
Layer 1
10
16.235200
20
77.141200
11
16.126854
21
77.354700
0
LINE
8
Layer 1
10
16.126854
20
77.354700
11
15.894622
21
77.418771
0
LINE
8
Layer 1
10
15.894622
20
77.418771
11
15.666222
21
77.347675
0
LINE
8
Layer 1
10
15.666222
20
77.347675
11
15.584696
21
77.166744
0
LINE
8
Layer 1
10
15.584696
20
77.166744
11
15.673033
21
76.990123
0
LINE
8
Layer 1
10
15.673033
20
76.990123
11
15.867375
21
76.921102
0
LINE
8
Layer 1
10
15.867375
20
76.921102
11
16.061718
21
76.869324
0
LINE
8
Layer 1
10
16.061718
20
76.869324
11
16.150055
21
76.744428
0
LINE
8
Layer 1
10
16.150055
20
76.744428
11
15.932085
21
76.580951
0
LINE
8
Layer 1
10
15.932085
20
76.580951
11
15.668137
21
76.788703
0
LINE
8
Layer 1
10
15.668137
20
76.788703
11
15.564300
21
76.788700
0
LINE
8
Layer 1
10
16.415700
20
76.788700
11
16.508720
21
76.576265
0
LINE
8
Layer 1
10
16.508720
20
76.576265
11
16.751169
21
76.488992
0
LINE
8
Layer 1
10
16.751169
20
76.488992
11
17.008731
21
76.554340
0
LINE
8
Layer 1
10
17.008731
20
76.554340
11
17.110478
21
76.746128
0
LINE
8
Layer 1
10
17.110478
20
76.746128
11
17.022141
21
76.922377
0
LINE
8
Layer 1
10
17.022141
20
76.922377
11
16.827799
21
76.997730
0
LINE
8
Layer 1
10
16.827799
20
76.997730
11
16.633456
21
77.054564
0
LINE
8
Layer 1
10
16.633456
20
77.054564
11
16.545119
21
77.175256
0
LINE
8
Layer 1
10
16.545119
20
77.175256
11
16.744357
21
77.326813
0
LINE
8
Layer 1
10
16.744357
20
77.326813
11
16.982761
21
77.141198
0
LINE
8
Layer 1
10
16.982761
20
77.141198
11
17.086600
21
77.141200
0
LINE
8
Layer 1
10
17.086600
20
77.141200
11
16.978254
21
77.354700
0
LINE
8
Layer 1
10
16.978254
20
77.354700
11
16.746022
21
77.418771
0
LINE
8
Layer 1
10
16.746022
20
77.418771
11
16.517623
21
77.347675
0
LINE
8
Layer 1
10
16.517623
20
77.347675
11
16.436097
21
77.166744
0
LINE
8
Layer 1
10
16.436097
20
77.166744
11
16.524434
21
76.990123
0
LINE
8
Layer 1
10
16.524434
20
76.990123
11
16.718777
21
76.921102
0
LINE
8
Layer 1
10
16.718777
20
76.921102
11
16.913119
21
76.869324
0
LINE
8
Layer 1
10
16.913119
20
76.869324
11
17.001456
21
76.744428
0
LINE
8
Layer 1
10
17.001456
20
76.744428
11
16.783486
21
76.580951
0
LINE
8
Layer 1
10
16.783486
20
76.580951
11
16.519538
21
76.788703
0
LINE
8
Layer 1
10
16.519538
20
76.788703
11
16.415700
21
76.788700
0
LINE
8
Layer 1
10
17.827400
20
77.309800
11
17.827400
21
76.512800
0
LINE
8
Layer 1
10
17.827400
20
76.512800
11
17.929600
21
76.512800
0
LINE
8
Layer 1
10
17.929600
20
76.512800
11
17.929600
21
77.309800
0
LINE
8
Layer 1
10
17.929600
20
77.309800
11
18.099900
21
77.309800
0
LINE
8
Layer 1
10
18.099900
20
77.309800
11
18.099900
21
77.394900
0
LINE
8
Layer 1
10
18.099900
20
77.394900
11
17.929600
21
77.394900
0
LINE
8
Layer 1
10
17.929600
20
77.394900
11
17.929600
21
77.503900
0
LINE
8
Layer 1
10
17.929600
20
77.503900
11
18.038585
21
77.670783
0
LINE
8
Layer 1
10
18.038585
20
77.670783
11
18.099889
21
77.662268
0
LINE
8
Layer 1
10
18.099889
20
77.662268
11
18.099900
21
77.755900
0
LINE
8
Layer 1
10
18.099900
20
77.755900
11
18.014756
21
77.762713
0
LINE
8
Layer 1
10
18.014756
20
77.762713
11
17.870010
21
77.700983
0
LINE
8
Layer 1
10
17.870010
20
77.700983
11
17.827438
21
77.534526
0
LINE
8
Layer 1
10
17.827438
20
77.534526
11
17.827400
21
77.394900
0
LINE
8
Layer 1
10
17.827400
20
77.394900
11
17.696300
21
77.394900
0
LINE
8
Layer 1
10
17.696300
20
77.394900
11
17.696300
21
77.309800
0
LINE
8
Layer 1
10
17.696300
20
77.309800
11
17.827400
21
77.309800
0
LINE
8
Layer 1
10
18.375700
20
76.512800
11
18.375700
21
77.394900
0
LINE
8
Layer 1
10
18.375700
20
77.394900
11
18.273600
21
77.394900
0
LINE
8
Layer 1
10
18.273600
20
77.394900
11
18.273600
21
76.512800
0
LINE
8
Layer 1
10
18.273600
20
76.512800
11
18.375700
21
76.512800
0
LINE
8
Layer 1
10
18.380808
20
77.587320
11
18.380800
21
77.738900
0
LINE
8
Layer 1
10
18.380800
20
77.738900
11
18.268500
21
77.738900
0
LINE
8
Layer 1
10
18.268500
20
77.738900
11
18.268500
21
77.587300
0
LINE
8
Layer 1
10
18.268500
20
77.587300
11
18.380808
21
77.587320
0
LINE
8
Layer 1
10
18.946200
20
76.592900
11
18.862759
21
76.580979
0
LINE
8
Layer 1
10
18.862759
20
76.580979
11
18.774208
21
76.705290
0
LINE
8
Layer 1
10
18.774208
20
76.705290
11
18.774200
21
77.309800
0
LINE
8
Layer 1
10
18.774200
20
77.309800
11
18.939400
21
77.309800
0
LINE
8
Layer 1
10
18.939400
20
77.309800
11
18.939400
21
77.394900
0
LINE
8
Layer 1
10
18.939400
20
77.394900
11
18.774200
21
77.394900
0
LINE
8
Layer 1
10
18.774200
20
77.394900
11
18.774200
21
77.640100
0
LINE
8
Layer 1
10
18.774200
20
77.640100
11
18.672000
21
77.640100
0
LINE
8
Layer 1
10
18.672000
20
77.640100
11
18.672000
21
77.394900
0
LINE
8
Layer 1
10
18.672000
20
77.394900
11
18.547700
21
77.394900
0
LINE
8
Layer 1
10
18.547700
20
77.394900
11
18.547700
21
77.309800
0
LINE
8
Layer 1
10
18.547700
20
77.309800
11
18.672000
21
77.309800
0
LINE
8
Layer 1
10
18.672000
20
77.309800
11
18.672000
21
76.664400
0
LINE
8
Layer 1
10
18.672000
20
76.664400
11
18.828666
21
76.489002
0
LINE
8
Layer 1
10
18.828666
20
76.489002
11
18.946165
21
76.509438
0
LINE
8
Layer 1
10
18.946165
20
76.509438
11
18.946200
21
76.592900
0
LINE
8
Layer 1
10
19.893000
20
76.592900
11
19.809559
21
76.580979
0
LINE
8
Layer 1
10
19.809559
20
76.580979
11
19.721008
21
76.705290
0
LINE
8
Layer 1
10
19.721008
20
76.705290
11
19.721000
21
77.309800
0
LINE
8
Layer 1
10
19.721000
20
77.309800
11
19.886200
21
77.309800
0
LINE
8
Layer 1
10
19.886200
20
77.309800
11
19.886200
21
77.394900
0
LINE
8
Layer 1
10
19.886200
20
77.394900
11
19.721000
21
77.394900
0
LINE
8
Layer 1
10
19.721000
20
77.394900
11
19.721000
21
77.640100
0
LINE
8
Layer 1
10
19.721000
20
77.640100
11
19.618800
21
77.640100
0
LINE
8
Layer 1
10
19.618800
20
77.640100
11
19.618800
21
77.394900
0
LINE
8
Layer 1
10
19.618800
20
77.394900
11
19.494500
21
77.394900
0
LINE
8
Layer 1
10
19.494500
20
77.394900
11
19.494500
21
77.309800
0
LINE
8
Layer 1
10
19.494500
20
77.309800
11
19.618800
21
77.309800
0
LINE
8
Layer 1
10
19.618800
20
77.309800
11
19.618800
21
76.664400
0
LINE
8
Layer 1
10
19.618800
20
76.664400
11
19.775466
21
76.489002
0
LINE
8
Layer 1
10
19.775466
20
76.489002
11
19.892965
21
76.509438
0
LINE
8
Layer 1
10
19.892965
20
76.509438
11
19.893000
21
76.592900
0
LINE
8
Layer 1
10
20.119500
20
77.015200
11
20.207625
21
77.233596
0
LINE
8
Layer 1
10
20.207625
20
77.233596
11
20.415802
21
77.326829
0
LINE
8
Layer 1
10
20.415802
20
77.326829
11
20.624406
21
77.235512
0
LINE
8
Layer 1
10
20.624406
20
77.235512
11
20.695076
21
77.015200
0
LINE
8
Layer 1
10
20.695076
20
77.015200
11
20.119500
21
77.015200
0
LINE
8
Layer 1
10
20.804061
20
76.930056
11
20.701246
21
77.293196
0
LINE
8
Layer 1
10
20.701246
20
77.293196
11
20.415803
21
77.418785
0
LINE
8
Layer 1
10
20.415803
20
77.418785
11
20.118649
21
77.281064
0
LINE
8
Layer 1
10
20.118649
20
77.281064
11
20.010516
21
76.950491
0
LINE
8
Layer 1
10
20.010516
20
76.950491
11
20.107155
21
76.622046
0
LINE
8
Layer 1
10
20.107155
20
76.622046
11
20.415803
21
76.489008
0
LINE
8
Layer 1
10
20.415803
20
76.489008
11
20.671662
21
76.573726
0
LINE
8
Layer 1
10
20.671662
20
76.573726
11
20.797250
21
76.783608
0
LINE
8
Layer 1
10
20.797250
20
76.783608
11
20.683100
21
76.783600
0
LINE
8
Layer 1
10
20.683100
20
76.783600
11
20.415747
21
76.580956
0
LINE
8
Layer 1
10
20.415747
20
76.580956
11
20.193520
21
76.683981
0
LINE
8
Layer 1
10
20.193520
20
76.683981
11
20.119445
21
76.930048
0
LINE
8
Layer 1
10
20.119445
20
76.930048
11
20.804061
21
76.930056
0
LINE
8
Layer 1
10
20.959000
20
76.788700
11
21.052020
21
76.576265
0
LINE
8
Layer 1
10
21.052020
20
76.576265
11
21.294469
21
76.488992
0
LINE
8
Layer 1
10
21.294469
20
76.488992
11
21.552030
21
76.554340
0
LINE
8
Layer 1
10
21.552030
20
76.554340
11
21.653778
21
76.746128
0
LINE
8
Layer 1
10
21.653778
20
76.746128
11
21.565441
21
76.922377
0
LINE
8
Layer 1
10
21.565441
20
76.922377
11
21.371098
21
76.997730
0
LINE
8
Layer 1
10
21.371098
20
76.997730
11
21.176756
21
77.054564
0
LINE
8
Layer 1
10
21.176756
20
77.054564
11
21.088419
21
77.175256
0
LINE
8
Layer 1
10
21.088419
20
77.175256
11
21.287657
21
77.326813
0
LINE
8
Layer 1
10
21.287657
20
77.326813
11
21.526061
21
77.141198
0
LINE
8
Layer 1
10
21.526061
20
77.141198
11
21.630000
21
77.141200
0
LINE
8
Layer 1
10
21.630000
20
77.141200
11
21.521654
21
77.354700
0
LINE
8
Layer 1
10
21.521654
20
77.354700
11
21.289422
21
77.418771
0
LINE
8
Layer 1
10
21.289422
20
77.418771
11
21.061022
21
77.347675
0
LINE
8
Layer 1
10
21.061022
20
77.347675
11
20.979497
21
77.166744
0
LINE
8
Layer 1
10
20.979497
20
77.166744
11
21.067834
21
76.990123
0
LINE
8
Layer 1
10
21.067834
20
76.990123
11
21.262176
21
76.921102
0
LINE
8
Layer 1
10
21.262176
20
76.921102
11
21.456519
21
76.869324
0
LINE
8
Layer 1
10
21.456519
20
76.869324
11
21.544856
21
76.744428
0
LINE
8
Layer 1
10
21.544856
20
76.744428
11
21.326886
21
76.580951
0
LINE
8
Layer 1
10
21.326886
20
76.580951
11
21.062938
21
76.788703
0
LINE
8
Layer 1
10
21.062938
20
76.788703
11
20.959000
21
76.788700
0
LINE
8
Layer 1
10
22.164700
20
76.592900
11
22.081259
21
76.580979
0
LINE
8
Layer 1
10
22.081259
20
76.580979
11
21.992708
21
76.705290
0
LINE
8
Layer 1
10
21.992708
20
76.705290
11
21.992700
21
77.309800
0
LINE
8
Layer 1
10
21.992700
20
77.309800
11
22.157800
21
77.309800
0
LINE
8
Layer 1
10
22.157800
20
77.309800
11
22.157800
21
77.394900
0
LINE
8
Layer 1
10
22.157800
20
77.394900
11
21.992700
21
77.394900
0
LINE
8
Layer 1
10
21.992700
20
77.394900
11
21.992700
21
77.640100
0
LINE
8
Layer 1
10
21.992700
20
77.640100
11
21.890500
21
77.640100
0
LINE
8
Layer 1
10
21.890500
20
77.640100
11
21.890500
21
77.394900
0
LINE
8
Layer 1
10
21.890500
20
77.394900
11
21.766200
21
77.394900
0
LINE
8
Layer 1
10
21.766200
20
77.394900
11
21.766200
21
77.309800
0
LINE
8
Layer 1
10
21.766200
20
77.309800
11
21.890500
21
77.309800
0
LINE
8
Layer 1
10
21.890500
20
77.309800
11
21.890500
21
76.664400
0
LINE
8
Layer 1
10
21.890500
20
76.664400
11
22.047166
21
76.489002
0
LINE
8
Layer 1
10
22.047166
20
76.489002
11
22.164665
21
76.509438
0
LINE
8
Layer 1
10
22.164665
20
76.509438
11
22.164700
21
76.592900
0
LINE
8
Layer 1
10
29.485000
20
58.279500
11
29.336173
21
58.253592
0
LINE
8
Layer 1
10
29.336173
20
58.253592
11
29.230340
21
58.186895
0
LINE
8
Layer 1
10
29.230340
20
58.186895
11
29.229800
21
58.186900
0
LINE
8
Layer 1
10
29.229800
20
58.186900
11
29.166963
21
58.093745
0
LINE
8
Layer 1
10
29.166963
20
58.093745
11
29.146022
21
57.995077
0
LINE
8
Layer 1
10
29.146022
20
57.995077
11
29.171930
21
57.925624
0
LINE
8
Layer 1
10
29.171930
20
57.925624
11
29.236974
21
57.899716
0
LINE
8
Layer 1
10
29.236974
20
57.899716
11
29.304775
21
57.928931
0
LINE
8
Layer 1
10
29.304775
20
57.928931
11
29.341707
21
58.000037
0
LINE
8
Layer 1
10
29.341707
20
58.000037
11
29.362111
21
58.049096
0
LINE
8
Layer 1
10
29.362111
20
58.049096
11
29.481175
21
58.116344
0
LINE
8
Layer 1
10
29.481175
20
58.116344
11
29.547320
21
58.099808
0
LINE
8
Layer 1
10
29.547320
20
58.099808
11
29.594725
21
58.055160
0
LINE
8
Layer 1
10
29.594725
20
58.055160
11
29.594700
21
58.054600
0
LINE
8
Layer 1
10
29.594700
20
58.054600
11
29.612339
21
57.989557
0
LINE
8
Layer 1
10
29.612339
20
57.989557
11
29.595236
21
57.918450
0
LINE
8
Layer 1
10
29.595236
20
57.918450
11
29.544527
21
57.845138
0
LINE
8
Layer 1
10
29.544527
20
57.845138
11
29.459087
21
57.772929
0
LINE
8
Layer 1
10
29.459087
20
57.772929
11
29.358766
21
57.687491
0
LINE
8
Layer 1
10
29.358766
20
57.687491
11
29.203324
21
57.534804
0
LINE
8
Layer 1
10
29.203324
20
57.534804
11
29.161984
21
57.469761
0
LINE
8
Layer 1
10
29.161984
20
57.469761
11
29.162600
21
57.469700
0
LINE
8
Layer 1
10
29.162600
20
57.469700
11
29.143296
21
57.401349
0
LINE
8
Layer 1
10
29.143296
20
57.401349
11
29.175266
21
57.326935
0
LINE
8
Layer 1
10
29.175266
20
57.326935
11
29.262360
21
57.295516
0
LINE
8
Layer 1
10
29.262360
20
57.295516
11
29.736900
21
57.295500
0
LINE
8
Layer 1
10
29.736900
20
57.295500
11
29.811313
21
57.322509
0
LINE
8
Layer 1
10
29.811313
20
57.322509
11
29.837221
21
57.387552
0
LINE
8
Layer 1
10
29.837221
20
57.387552
11
29.804698
21
57.456454
0
LINE
8
Layer 1
10
29.804698
20
57.456454
11
29.718158
21
57.480155
0
LINE
8
Layer 1
10
29.718158
20
57.480155
11
29.413900
21
57.480200
0
LINE
8
Layer 1
10
29.413900
20
57.480200
11
29.424935
21
57.495082
0
LINE
8
Layer 1
10
29.424935
20
57.495082
11
29.425499
21
57.495646
0
LINE
8
Layer 1
10
29.425499
20
57.495646
11
29.556137
21
57.616913
0
LINE
8
Layer 1
10
29.556137
20
57.616913
11
29.695044
21
57.733219
0
LINE
8
Layer 1
10
29.695044
20
57.733219
11
29.695600
21
57.733200
0
LINE
8
Layer 1
10
29.695600
20
57.733200
11
29.778836
21
57.839584
0
LINE
8
Layer 1
10
29.778836
20
57.839584
11
29.821279
21
57.993373
0
LINE
8
Layer 1
10
29.821279
20
57.993373
11
29.800874
21
58.097553
0
LINE
8
Layer 1
10
29.800874
20
58.097553
11
29.744650
21
58.186299
0
LINE
8
Layer 1
10
29.744650
20
58.186299
11
29.660314
21
58.246932
0
LINE
8
Layer 1
10
29.660314
20
58.246932
11
29.485029
21
58.279454
0
LINE
8
Layer 1
10
29.485029
20
58.279454
11
29.485000
21
58.279500
0
LINE
8
Layer 1
10
29.485000
20
58.246978
11
29.647058
21
58.217213
0
LINE
8
Layer 1
10
29.647058
20
58.217213
11
29.647100
21
58.217700
0
LINE
8
Layer 1
10
29.647100
20
58.217700
11
29.720963
21
58.164232
0
LINE
8
Layer 1
10
29.720963
20
58.164232
11
29.770572
21
58.085960
0
LINE
8
Layer 1
10
29.770572
20
58.085960
11
29.770600
21
58.085400
0
LINE
8
Layer 1
10
29.770600
20
58.085400
11
29.788803
21
57.993347
0
LINE
8
Layer 1
10
29.788803
20
57.993347
11
29.751321
21
57.856095
0
LINE
8
Layer 1
10
29.751321
20
57.856095
11
29.673600
21
57.757428
0
LINE
8
Layer 1
10
29.673600
20
57.757428
11
29.535797
21
57.641673
0
LINE
8
Layer 1
10
29.535797
20
57.641673
11
29.401298
21
57.516547
0
LINE
8
Layer 1
10
29.401298
20
57.516547
11
29.368227
21
57.473001
0
LINE
8
Layer 1
10
29.368227
20
57.473001
11
29.381464
21
57.480166
0
LINE
8
Layer 1
10
29.381464
20
57.480166
11
29.381400
21
57.448200
0
LINE
8
Layer 1
10
29.381400
20
57.448200
11
29.390200
21
57.448200
0
LINE
8
Layer 1
10
29.390200
20
57.448200
11
29.718200
21
57.448200
0
LINE
8
Layer 1
10
29.718200
20
57.448200
11
29.784897
21
57.430561
0
LINE
8
Layer 1
10
29.784897
20
57.430561
11
29.805302
21
57.387566
0
LINE
8
Layer 1
10
29.805302
20
57.387566
11
29.788200
21
57.345123
0
LINE
8
Layer 1
10
29.788200
20
57.345123
11
29.736937
21
57.328034
0
LINE
8
Layer 1
10
29.736937
20
57.328034
11
29.262300
21
57.328100
0
LINE
8
Layer 1
10
29.262300
20
57.328100
11
29.197807
21
57.350150
0
LINE
8
Layer 1
10
29.197807
20
57.350150
11
29.175765
21
57.401413
0
LINE
8
Layer 1
10
29.175765
20
57.401413
11
29.191739
21
57.455983
0
LINE
8
Layer 1
10
29.191739
20
57.455983
11
29.191800
21
57.456500
0
LINE
8
Layer 1
10
29.191800
20
57.456500
11
29.227078
21
57.512172
0
LINE
8
Layer 1
10
29.227078
20
57.512172
11
29.380866
21
57.663756
0
LINE
8
Layer 1
10
29.380866
20
57.663756
11
29.477329
21
57.745887
0
LINE
8
Layer 1
10
29.477329
20
57.745887
11
29.477894
21
57.746452
0
LINE
8
Layer 1
10
29.477894
20
57.746452
11
29.568292
21
57.823071
0
LINE
8
Layer 1
10
29.568292
20
57.823071
11
29.624516
21
57.904650
0
LINE
8
Layer 1
10
29.624516
20
57.904650
11
29.624500
21
57.905200
0
LINE
8
Layer 1
10
29.624500
20
57.905200
11
29.644340
21
57.989536
0
LINE
8
Layer 1
10
29.644340
20
57.989536
11
29.622299
21
58.071667
0
LINE
8
Layer 1
10
29.622299
20
58.071667
11
29.562767
21
58.128442
0
LINE
8
Layer 1
10
29.562767
20
58.128442
11
29.481188
21
58.148285
0
LINE
8
Layer 1
10
29.481188
20
58.148285
11
29.335116
21
58.066705
0
LINE
8
Layer 1
10
29.335116
20
58.066705
11
29.311409
21
58.010481
0
LINE
8
Layer 1
10
29.311409
20
58.010481
11
29.279989
21
57.949296
0
LINE
8
Layer 1
10
29.279989
20
57.949296
11
29.280000
21
57.948800
0
LINE
8
Layer 1
10
29.280000
20
57.948800
11
29.237004
21
57.931711
0
LINE
8
Layer 1
10
29.237004
20
57.931711
11
29.195113
21
57.948247
0
LINE
8
Layer 1
10
29.195113
20
57.948247
11
29.178575
21
57.995100
0
LINE
8
Layer 1
10
29.178575
20
57.995100
11
29.197315
21
58.081641
0
LINE
8
Layer 1
10
29.197315
20
58.081641
11
29.252986
21
58.163772
0
LINE
8
Layer 1
10
29.252986
20
58.163772
11
29.347795
21
58.223855
0
LINE
8
Layer 1
10
29.347795
20
58.223855
11
29.348400
21
58.223800
0
LINE
8
Layer 1
10
29.348400
20
58.223800
11
29.485103
21
58.246951
0
LINE
8
Layer 1
10
29.485103
20
58.246951
11
29.485000
21
58.246978
0
LINE
8
Layer 1
10
30.077000
20
57.506100
11
29.997072
21
57.473027
0
LINE
8
Layer 1
10
29.997072
20
57.473027
11
29.965102
21
57.393652
0
LINE
8
Layer 1
10
29.965102
20
57.393652
11
29.999279
21
57.309316
0
LINE
8
Layer 1
10
29.999279
20
57.309316
11
30.079204
21
57.279551
0
LINE
8
Layer 1
10
30.079204
20
57.279551
11
30.156925
21
57.309868
0
LINE
8
Layer 1
10
30.156925
20
57.309868
11
30.191653
21
57.393652
0
LINE
8
Layer 1
10
30.191653
20
57.393652
11
30.157476
21
57.473027
0
LINE
8
Layer 1
10
30.157476
20
57.473027
11
30.077000
21
57.506100
0
LINE
8
Layer 1
10
30.077000
20
57.506100
11
30.077000
21
57.506100
0
LINE
8
Layer 1
10
30.077000
20
57.473578
11
30.134875
21
57.449877
0
LINE
8
Layer 1
10
30.134875
20
57.449877
11
30.159118
21
57.393653
0
LINE
8
Layer 1
10
30.159118
20
57.393653
11
30.135412
21
57.333571
0
LINE
8
Layer 1
10
30.135412
20
57.333571
11
30.079187
21
57.312074
0
LINE
8
Layer 1
10
30.079187
20
57.312074
11
30.020759
21
57.333571
0
LINE
8
Layer 1
10
30.020759
20
57.333571
11
29.997052
21
57.393653
0
LINE
8
Layer 1
10
29.997052
20
57.393653
11
30.020194
21
57.450428
0
LINE
8
Layer 1
10
30.020194
20
57.450428
11
30.076972
21
57.473579
0
LINE
8
Layer 1
10
30.076972
20
57.473579
11
30.077000
21
57.473578
0
LINE
8
Layer 1
10
30.670700
20
58.280600
11
30.504234
21
58.244771
0
LINE
8
Layer 1
10
30.504234
20
58.244771
11
30.394543
21
58.147206
0
LINE
8
Layer 1
10
30.394543
20
58.147206
11
30.357058
21
58.017671
0
LINE
8
Layer 1
10
30.357058
20
58.017671
11
30.357100
21
58.002200
0
LINE
8
Layer 1
10
30.357100
20
58.002200
11
30.368135
21
58.001636
0
LINE
8
Layer 1
10
30.368135
20
58.001636
11
30.489400
21
57.821389
0
LINE
8
Layer 1
10
30.489400
20
57.821389
11
30.325691
21
57.583815
0
LINE
8
Layer 1
10
30.325691
20
57.583815
11
30.366480
21
57.428924
0
LINE
8
Layer 1
10
30.366480
20
57.428924
11
30.488298
21
57.319784
0
LINE
8
Layer 1
10
30.488298
20
57.319784
11
30.678468
21
57.281198
0
LINE
8
Layer 1
10
30.678468
20
57.281198
11
30.864777
21
57.319784
0
LINE
8
Layer 1
10
30.864777
20
57.319784
11
30.987148
21
57.429476
0
LINE
8
Layer 1
10
30.987148
20
57.429476
11
31.028488
21
57.585470
0
LINE
8
Layer 1
10
31.028488
20
57.585470
11
31.008648
21
57.691854
0
LINE
8
Layer 1
10
31.008648
20
57.691854
11
31.008600
21
57.692400
0
LINE
8
Layer 1
10
31.008600
20
57.692400
11
30.950722
21
57.777838
0
LINE
8
Layer 1
10
30.950722
20
57.777838
11
30.875755
21
57.824140
0
LINE
8
Layer 1
10
30.875755
20
57.824140
11
30.958991
21
57.894696
0
LINE
8
Layer 1
10
30.958991
20
57.894696
11
30.994269
21
58.015963
0
LINE
8
Layer 1
10
30.994269
20
58.015963
11
30.974429
21
58.115733
0
LINE
8
Layer 1
10
30.974429
20
58.115733
11
30.912692
21
58.201171
0
LINE
8
Layer 1
10
30.912692
20
58.201171
11
30.810720
21
58.259600
0
LINE
8
Layer 1
10
30.810720
20
58.259600
11
30.670710
21
58.280547
0
LINE
8
Layer 1
10
30.670710
20
58.280547
11
30.670700
21
58.280600
0
LINE
8
Layer 1
10
30.670700
20
58.248078
11
30.800237
21
58.229336
0
LINE
8
Layer 1
10
30.800237
20
58.229336
11
30.891186
21
58.176971
0
LINE
8
Layer 1
10
30.891186
20
58.176971
11
30.944653
21
58.103659
0
LINE
8
Layer 1
10
30.944653
20
58.103659
11
30.944600
21
58.103100
0
LINE
8
Layer 1
10
30.944600
20
58.103100
11
30.961703
21
58.016008
0
LINE
8
Layer 1
10
30.961703
20
58.016008
11
30.931937
21
57.912380
0
LINE
8
Layer 1
10
30.931937
20
57.912380
11
30.841538
21
57.836864
0
LINE
8
Layer 1
10
30.841538
20
57.836864
11
30.808465
21
57.820328
0
LINE
8
Layer 1
10
30.808465
20
57.820328
11
30.842642
21
57.807100
0
LINE
8
Layer 1
10
30.842642
20
57.807100
11
30.928079
21
57.754184
0
LINE
8
Layer 1
10
30.928079
20
57.754184
11
30.978791
21
57.680321
0
LINE
8
Layer 1
10
30.978791
20
57.680321
11
30.978800
21
57.679700
0
LINE
8
Layer 1
10
30.978800
20
57.679700
11
30.996439
21
57.585442
0
LINE
8
Layer 1
10
30.996439
20
57.585442
11
30.958957
21
57.445985
0
LINE
8
Layer 1
10
30.958957
20
57.445985
11
30.850366
21
57.348972
0
LINE
8
Layer 1
10
30.850366
20
57.348972
11
30.678388
21
57.313143
0
LINE
8
Layer 1
10
30.678388
20
57.313143
11
30.501999
21
57.348972
0
LINE
8
Layer 1
10
30.501999
20
57.348972
11
30.394512
21
57.445434
0
LINE
8
Layer 1
10
30.394512
20
57.445434
11
30.357580
21
57.583789
0
LINE
8
Layer 1
10
30.357580
20
57.583789
11
30.511368
21
57.807031
0
LINE
8
Layer 1
10
30.511368
20
57.807031
11
30.546096
21
57.820812
0
LINE
8
Layer 1
10
30.546096
20
57.820812
11
30.512469
21
57.836797
0
LINE
8
Layer 1
10
30.512469
20
57.836797
11
30.389550
21
58.017595
0
LINE
8
Layer 1
10
30.389550
20
58.017595
11
30.422070
21
58.130043
0
LINE
8
Layer 1
10
30.422070
20
58.130043
11
30.518534
21
58.216033
0
LINE
8
Layer 1
10
30.518534
20
58.216033
11
30.670669
21
58.248003
0
LINE
8
Layer 1
10
30.670669
20
58.248003
11
30.670700
21
58.248078
0
LINE
8
Layer 1
10
30.674566
20
58.157679
11
30.564875
21
58.114684
0
LINE
8
Layer 1
10
30.564875
20
58.114684
11
30.523536
21
58.006646
0
LINE
8
Layer 1
10
30.523536
20
58.006646
11
30.566529
21
57.903569
0
LINE
8
Layer 1
10
30.566529
20
57.903569
11
30.566500
21
57.903000
0
LINE
8
Layer 1
10
30.566500
20
57.903000
11
30.675641
21
57.862761
0
LINE
8
Layer 1
10
30.675641
20
57.862761
11
30.736274
21
57.873235
0
LINE
8
Layer 1
10
30.736274
20
57.873235
11
30.784232
21
57.903552
0
LINE
8
Layer 1
10
30.784232
20
57.903552
11
30.815649
21
57.949302
0
LINE
8
Layer 1
10
30.815649
20
57.949302
11
30.826684
21
58.007731
0
LINE
8
Layer 1
10
30.826684
20
58.007731
11
30.806843
21
58.084350
0
LINE
8
Layer 1
10
30.806843
20
58.084350
11
30.753376
21
58.137818
0
LINE
8
Layer 1
10
30.753376
20
58.137818
11
30.680617
21
58.156007
0
LINE
8
Layer 1
10
30.680617
20
58.156007
11
30.674549
21
58.157672
0
LINE
8
Layer 1
10
30.674549
20
58.157672
11
30.674566
21
58.157679
0
LINE
8
Layer 1
10
30.674566
20
58.125157
11
30.737406
21
58.109723
0
LINE
8
Layer 1
10
30.737406
20
58.109723
11
30.778746
21
58.068381
0
LINE
8
Layer 1
10
30.778746
20
58.068381
11
30.779300
21
58.068300
0
LINE
8
Layer 1
10
30.779300
20
58.068300
11
30.794173
21
58.007667
0
LINE
8
Layer 1
10
30.794173
20
58.007667
11
30.785904
21
57.961364
0
LINE
8
Layer 1
10
30.785904
20
57.961364
11
30.761661
21
57.926638
0
LINE
8
Layer 1
10
30.761661
20
57.926638
11
30.724729
21
57.903487
0
LINE
8
Layer 1
10
30.724729
20
57.903487
11
30.675671
21
57.894668
0
LINE
8
Layer 1
10
30.675671
20
57.894668
11
30.589130
21
57.926638
0
LINE
8
Layer 1
10
30.589130
20
57.926638
11
30.556057
21
58.006564
0
LINE
8
Layer 1
10
30.556057
20
58.006564
11
30.588027
21
58.092003
0
LINE
8
Layer 1
10
30.588027
20
58.092003
11
30.674567
21
58.125075
0
LINE
8
Layer 1
10
30.674567
20
58.125075
11
30.674566
21
58.125157
0
LINE
8
Layer 1
10
30.672873
20
57.771828
11
30.551608
21
57.723321
0
LINE
8
Layer 1
10
30.551608
20
57.723321
11
30.501999
21
57.589377
0
LINE
8
Layer 1
10
30.501999
20
57.589377
11
30.524605
21
57.492914
0
LINE
8
Layer 1
10
30.524605
20
57.492914
11
30.524600
21
57.492300
0
LINE
8
Layer 1
10
30.524600
20
57.492300
11
30.587990
21
57.427257
0
LINE
8
Layer 1
10
30.587990
20
57.427257
11
30.588000
21
57.426700
0
LINE
8
Layer 1
10
30.588000
20
57.426700
11
30.588600
21
57.426700
0
LINE
8
Layer 1
10
30.588600
20
57.426700
11
30.676794
21
57.404100
0
LINE
8
Layer 1
10
30.676794
20
57.404100
11
30.766643
21
57.427801
0
LINE
8
Layer 1
10
30.766643
20
57.427801
11
30.829479
21
57.493946
0
LINE
8
Layer 1
10
30.829479
20
57.493946
11
30.846554
21
57.567258
0
LINE
8
Layer 1
10
30.846554
20
57.567258
11
30.852057
21
57.564492
0
LINE
8
Layer 1
10
30.852057
20
57.564492
11
30.852000
21
57.590400
0
LINE
8
Layer 1
10
30.852000
20
57.590400
11
30.828858
21
57.685760
0
LINE
8
Layer 1
10
30.828858
20
57.685760
11
30.764364
21
57.749701
0
LINE
8
Layer 1
10
30.764364
20
57.749701
11
30.672862
21
57.771751
0
LINE
8
Layer 1
10
30.672862
20
57.771751
11
30.672873
21
57.771828
0
LINE
8
Layer 1
10
30.672873
20
57.739307
11
30.749494
21
57.721668
0
LINE
8
Layer 1
10
30.749494
20
57.721668
11
30.800756
21
57.670405
0
LINE
8
Layer 1
10
30.800756
20
57.670405
11
30.819496
21
57.590479
0
LINE
8
Layer 1
10
30.819496
20
57.590479
11
30.800756
21
57.509450
0
LINE
8
Layer 1
10
30.800756
20
57.509450
11
30.750044
21
57.455431
0
LINE
8
Layer 1
10
30.750044
20
57.455431
11
30.676734
21
57.436688
0
LINE
8
Layer 1
10
30.676734
20
57.436688
11
30.604525
21
57.454878
0
LINE
8
Layer 1
10
30.604525
20
57.454878
11
30.553262
21
57.507794
0
LINE
8
Layer 1
10
30.553262
20
57.507794
11
30.553300
21
57.508300
0
LINE
8
Layer 1
10
30.553300
20
57.508300
11
30.534561
21
57.589329
0
LINE
8
Layer 1
10
30.534561
20
57.589329
11
30.574247
21
57.700123
0
LINE
8
Layer 1
10
30.574247
20
57.700123
11
30.672914
21
57.739259
0
LINE
8
Layer 1
10
30.672914
20
57.739259
11
30.672873
21
57.739307
0
LINE
8
Layer 1
10
32.773300
20
57.747000
11
32.917132
21
57.913393
0
LINE
8
Layer 1
10
32.917132
20
57.913393
11
33.062843
21
57.777082
0
LINE
8
Layer 1
10
33.062843
20
57.777082
11
32.953912
21
57.621500
0
LINE
8
Layer 1
10
32.953912
20
57.621500
11
32.741339
21
57.463098
0
LINE
8
Layer 1
10
32.741339
20
57.463098
11
32.689633
21
57.301405
0
LINE
8
Layer 1
10
32.689633
20
57.301405
11
33.123000
21
57.301400
0
LINE
8
Layer 1
10
33.123000
20
57.301400
11
33.123000
21
57.352200
0
LINE
8
Layer 1
10
33.123000
20
57.352200
11
32.753600
21
57.352200
0
LINE
8
Layer 1
10
32.753600
20
57.352200
11
32.840087
21
57.485690
0
LINE
8
Layer 1
10
32.840087
20
57.485690
11
33.021404
21
57.595561
0
LINE
8
Layer 1
10
33.021404
20
57.595561
11
33.128690
21
57.780873
0
LINE
8
Layer 1
10
33.128690
20
57.780873
11
32.924694
21
57.964187
0
LINE
8
Layer 1
10
32.924694
20
57.964187
11
32.709415
21
57.747030
0
LINE
8
Layer 1
10
32.709415
20
57.747030
11
32.773300
21
57.747000
0
LINE
8
Layer 1
10
33.331700
20
57.301400
11
33.331700
21
57.384100
0
LINE
8
Layer 1
10
33.331700
20
57.384100
11
33.263100
21
57.384100
0
LINE
8
Layer 1
10
33.263100
20
57.384100
11
33.263100
21
57.301400
0
LINE
8
Layer 1
10
33.263100
20
57.301400
11
33.331700
21
57.301400
0
LINE
8
Layer 1
10
33.478400
20
57.447100
11
33.671115
21
57.288228
0
LINE
8
Layer 1
10
33.671115
20
57.288228
11
33.844439
21
57.374597
0
LINE
8
Layer 1
10
33.844439
20
57.374597
11
33.912711
21
57.629474
0
LINE
8
Layer 1
10
33.912711
20
57.629474
11
33.863593
21
57.866255
0
LINE
8
Layer 1
10
33.863593
20
57.866255
11
33.680513
21
57.964140
0
LINE
8
Layer 1
10
33.680513
20
57.964140
11
33.519526
21
57.901508
0
LINE
8
Layer 1
10
33.519526
20
57.901508
11
33.467116
21
57.745103
0
LINE
8
Layer 1
10
33.467116
20
57.745103
11
33.672054
21
57.531706
0
LINE
8
Layer 1
10
33.672054
20
57.531706
11
33.850667
21
57.635114
0
LINE
8
Layer 1
10
33.850667
20
57.635114
11
33.852643
21
57.633223
0
LINE
8
Layer 1
10
33.852643
20
57.633223
11
33.817271
21
57.441331
0
LINE
8
Layer 1
10
33.817271
20
57.441331
11
33.668389
21
57.338980
0
LINE
8
Layer 1
10
33.668389
20
57.338980
11
33.539600
21
57.447089
0
LINE
8
Layer 1
10
33.539600
20
57.447089
11
33.478400
21
57.447100
0
LINE
8
Layer 1
10
33.680513
20
57.913376
11
33.829046
21
57.746983
0
LINE
8
Layer 1
10
33.829046
20
57.746983
11
33.680513
21
57.582470
0
LINE
8
Layer 1
10
33.680513
20
57.582470
11
33.527283
21
57.743222
0
LINE
8
Layer 1
10
33.527283
20
57.743222
11
33.680513
21
57.913375
0
LINE
8
Layer 1
10
33.680513
20
57.913375
11
33.680513
21
57.913376
0
LINE
8
Layer 1
10
36.533600
20
57.621100
11
36.746997
21
57.488550
0
LINE
8
Layer 1
10
36.746997
20
57.488550
11
36.582484
21
57.339078
0
LINE
8
Layer 1
10
36.582484
20
57.339078
11
36.417971
21
57.493250
0
LINE
8
Layer 1
10
36.417971
20
57.493250
11
36.357800
21
57.493300
0
LINE
8
Layer 1
10
36.357800
20
57.493300
11
36.423609
21
57.333017
0
LINE
8
Layer 1
10
36.423609
20
57.333017
11
36.593757
21
57.288364
0
LINE
8
Layer 1
10
36.593757
20
57.288364
11
36.807154
21
57.489540
0
LINE
8
Layer 1
10
36.807154
20
57.489540
11
36.689645
21
57.653112
0
LINE
8
Layer 1
10
36.689645
20
57.653112
11
36.783653
21
57.800704
0
LINE
8
Layer 1
10
36.783653
20
57.800704
11
36.594697
21
57.964276
0
LINE
8
Layer 1
10
36.594697
20
57.964276
11
36.444287
21
57.920093
0
LINE
8
Layer 1
10
36.444287
20
57.920093
11
36.380361
21
57.771562
0
LINE
8
Layer 1
10
36.380361
20
57.771562
11
36.440500
21
57.771500
0
LINE
8
Layer 1
10
36.440500
20
57.771500
11
36.582449
21
57.913451
0
LINE
8
Layer 1
10
36.582449
20
57.913451
11
36.723461
21
57.796882
0
LINE
8
Layer 1
10
36.723461
20
57.796882
11
36.533565
21
57.669972
0
LINE
8
Layer 1
10
36.533565
20
57.669972
11
36.533600
21
57.621100
0
LINE
8
Layer 1
10
37.013000
20
57.301500
11
37.013000
21
57.384200
0
LINE
8
Layer 1
10
37.013000
20
57.384200
11
36.944400
21
57.384200
0
LINE
8
Layer 1
10
36.944400
20
57.384200
11
36.944400
21
57.301500
0
LINE
8
Layer 1
10
36.944400
20
57.301500
11
37.013000
21
57.301500
0
LINE
8
Layer 1
10
37.534700
20
57.627700
11
37.506496
21
57.433340
0
LINE
8
Layer 1
10
37.506496
20
57.433340
11
37.371127
21
57.339098
0
LINE
8
Layer 1
10
37.371127
20
57.339098
11
37.241279
21
57.416302
0
LINE
8
Layer 1
10
37.241279
20
57.416302
11
37.206614
21
57.621120
0
LINE
8
Layer 1
10
37.206614
20
57.621120
11
37.238577
21
57.822296
0
LINE
8
Layer 1
10
37.238577
20
57.822296
11
37.369247
21
57.913483
0
LINE
8
Layer 1
10
37.369247
20
57.913483
11
37.504501
21
57.824176
0
LINE
8
Layer 1
10
37.504501
20
57.824176
11
37.534700
21
57.627701
0
LINE
8
Layer 1
10
37.534700
20
57.627701
11
37.534700
21
57.627700
0
LINE
8
Layer 1
10
37.371127
20
57.964246
11
37.187226
21
57.858723
0
LINE
8
Layer 1
10
37.187226
20
57.858723
11
37.146450
21
57.627700
0
LINE
8
Layer 1
10
37.146450
20
57.627700
11
37.190047
21
57.389274
0
LINE
8
Layer 1
10
37.190047
20
57.389274
11
37.371127
21
57.288334
0
LINE
8
Layer 1
10
37.371127
20
57.288334
11
37.551388
21
57.388804
0
LINE
8
Layer 1
10
37.551388
20
57.388804
11
37.594867
21
57.621120
0
LINE
8
Layer 1
10
37.594867
20
57.621120
11
37.556676
21
57.850498
0
LINE
8
Layer 1
10
37.556676
20
57.850498
11
37.371127
21
57.964247
0
LINE
8
Layer 1
10
37.371127
20
57.964247
11
37.371127
21
57.964246
0
LINE
8
Layer 1
10
40.300100
20
57.621100
11
40.513497
21
57.488550
0
LINE
8
Layer 1
10
40.513497
20
57.488550
11
40.348984
21
57.339078
0
LINE
8
Layer 1
10
40.348984
20
57.339078
11
40.184471
21
57.493250
0
LINE
8
Layer 1
10
40.184471
20
57.493250
11
40.124400
21
57.493300
0
LINE
8
Layer 1
10
40.124400
20
57.493300
11
40.190208
21
57.333017
0
LINE
8
Layer 1
10
40.190208
20
57.333017
11
40.360357
21
57.288364
0
LINE
8
Layer 1
10
40.360357
20
57.288364
11
40.573754
21
57.489540
0
LINE
8
Layer 1
10
40.573754
20
57.489540
11
40.456245
21
57.653112
0
LINE
8
Layer 1
10
40.456245
20
57.653112
11
40.550253
21
57.800704
0
LINE
8
Layer 1
10
40.550253
20
57.800704
11
40.361297
21
57.964276
0
LINE
8
Layer 1
10
40.361297
20
57.964276
11
40.210887
21
57.920093
0
LINE
8
Layer 1
10
40.210887
20
57.920093
11
40.146961
21
57.771562
0
LINE
8
Layer 1
10
40.146961
20
57.771562
11
40.207100
21
57.771500
0
LINE
8
Layer 1
10
40.207100
20
57.771500
11
40.349052
21
57.913451
0
LINE
8
Layer 1
10
40.349052
20
57.913451
11
40.490061
21
57.796882
0
LINE
8
Layer 1
10
40.490061
20
57.796882
11
40.300168
21
57.669972
0
LINE
8
Layer 1
10
40.300168
20
57.669972
11
40.300100
21
57.621100
0
LINE
8
Layer 1
10
40.779600
20
57.301500
11
40.779600
21
57.384200
0
LINE
8
Layer 1
10
40.779600
20
57.384200
11
40.711000
21
57.384200
0
LINE
8
Layer 1
10
40.711000
20
57.384200
11
40.711000
21
57.301500
0
LINE
8
Layer 1
10
40.711000
20
57.301500
11
40.779600
21
57.301500
0
LINE
8
Layer 1
10
41.160300
20
57.301500
11
41.220500
21
57.301500
0
LINE
8
Layer 1
10
41.220500
20
57.301500
11
41.220500
21
57.964200
0
LINE
8
Layer 1
10
41.220500
20
57.964200
11
41.172500
21
57.964200
0
LINE
8
Layer 1
10
41.172500
20
57.964200
11
40.989186
21
57.833530
0
LINE
8
Layer 1
10
40.989186
20
57.833530
11
40.989200
21
57.794100
0
LINE
8
Layer 1
10
40.989200
20
57.794100
11
41.160300
21
57.794100
0
LINE
8
Layer 1
10
41.160300
20
57.794100
11
41.160300
21
57.301500
0
LINE
8
Layer 1
10
44.006600
20
57.664300
11
44.219997
21
57.531750
0
LINE
8
Layer 1
10
44.219997
20
57.531750
11
44.055484
21
57.382278
0
LINE
8
Layer 1
10
44.055484
20
57.382278
11
43.890971
21
57.536450
0
LINE
8
Layer 1
10
43.890971
20
57.536450
11
43.830800
21
57.536400
0
LINE
8
Layer 1
10
43.830800
20
57.536400
11
43.896609
21
57.376117
0
LINE
8
Layer 1
10
43.896609
20
57.376117
11
44.066757
21
57.331464
0
LINE
8
Layer 1
10
44.066757
20
57.331464
11
44.280154
21
57.532640
0
LINE
8
Layer 1
10
44.280154
20
57.532640
11
44.162645
21
57.696212
0
LINE
8
Layer 1
10
44.162645
20
57.696212
11
44.256653
21
57.843804
0
LINE
8
Layer 1
10
44.256653
20
57.843804
11
44.067697
21
58.007376
0
LINE
8
Layer 1
10
44.067697
20
58.007376
11
43.917287
21
57.963193
0
LINE
8
Layer 1
10
43.917287
20
57.963193
11
43.853361
21
57.814662
0
LINE
8
Layer 1
10
43.853361
20
57.814662
11
43.913500
21
57.814700
0
LINE
8
Layer 1
10
43.913500
20
57.814700
11
44.055449
21
57.956651
0
LINE
8
Layer 1
10
44.055449
20
57.956651
11
44.196461
21
57.840082
0
LINE
8
Layer 1
10
44.196461
20
57.840082
11
44.006565
21
57.713172
0
LINE
8
Layer 1
10
44.006565
20
57.713172
11
44.006600
21
57.664300
0
LINE
8
Layer 1
10
44.486000
20
57.344700
11
44.486000
21
57.427400
0
LINE
8
Layer 1
10
44.486000
20
57.427400
11
44.417400
21
57.427400
0
LINE
8
Layer 1
10
44.417400
20
57.427400
11
44.417400
21
57.344700
0
LINE
8
Layer 1
10
44.417400
20
57.344700
11
44.486000
21
57.344700
0
LINE
8
Layer 1
10
44.711700
20
57.790300
11
44.855532
21
57.956693
0
LINE
8
Layer 1
10
44.855532
20
57.956693
11
45.001243
21
57.820382
0
LINE
8
Layer 1
10
45.001243
20
57.820382
11
44.892312
21
57.664800
0
LINE
8
Layer 1
10
44.892312
20
57.664800
11
44.679736
21
57.506398
0
LINE
8
Layer 1
10
44.679736
20
57.506398
11
44.628033
21
57.344706
0
LINE
8
Layer 1
10
44.628033
20
57.344706
11
45.061400
21
57.344700
0
LINE
8
Layer 1
10
45.061400
20
57.344700
11
45.061400
21
57.395400
0
LINE
8
Layer 1
10
45.061400
20
57.395400
11
44.691900
21
57.395400
0
LINE
8
Layer 1
10
44.691900
20
57.395400
11
44.778387
21
57.528890
0
LINE
8
Layer 1
10
44.778387
20
57.528890
11
44.959702
21
57.638761
0
LINE
8
Layer 1
10
44.959702
20
57.638761
11
45.066987
21
57.824073
0
LINE
8
Layer 1
10
45.066987
20
57.824073
11
44.862991
21
58.007387
0
LINE
8
Layer 1
10
44.862991
20
58.007387
11
44.647715
21
57.790230
0
LINE
8
Layer 1
10
44.647715
20
57.790230
11
44.711700
21
57.790300
0
LINE
8
Layer 1
10
47.787600
20
57.701000
11
48.000997
21
57.568450
0
LINE
8
Layer 1
10
48.000997
20
57.568450
11
47.836484
21
57.418978
0
LINE
8
Layer 1
10
47.836484
20
57.418978
11
47.671971
21
57.573150
0
LINE
8
Layer 1
10
47.671971
20
57.573150
11
47.611800
21
57.573100
0
LINE
8
Layer 1
10
47.611800
20
57.573100
11
47.677608
21
57.412817
0
LINE
8
Layer 1
10
47.677608
20
57.412817
11
47.847757
21
57.368164
0
LINE
8
Layer 1
10
47.847757
20
57.368164
11
48.061154
21
57.569340
0
LINE
8
Layer 1
10
48.061154
20
57.569340
11
47.943645
21
57.732912
0
LINE
8
Layer 1
10
47.943645
20
57.732912
11
48.037653
21
57.880504
0
LINE
8
Layer 1
10
48.037653
20
57.880504
11
47.848697
21
58.044077
0
LINE
8
Layer 1
10
47.848697
20
58.044077
11
47.698287
21
57.999893
0
LINE
8
Layer 1
10
47.698287
20
57.999893
11
47.634361
21
57.851362
0
LINE
8
Layer 1
10
47.634361
20
57.851362
11
47.694600
21
57.851400
0
LINE
8
Layer 1
10
47.694600
20
57.851400
11
47.836552
21
57.993351
0
LINE
8
Layer 1
10
47.836552
20
57.993351
11
47.977564
21
57.876782
0
LINE
8
Layer 1
10
47.977564
20
57.876782
11
47.787668
21
57.749872
0
LINE
8
Layer 1
10
47.787668
20
57.749872
11
47.787600
21
57.701000
0
LINE
8
Layer 1
10
48.267100
20
57.381400
11
48.267100
21
57.464100
0
LINE
8
Layer 1
10
48.267100
20
57.464100
11
48.198400
21
57.464100
0
LINE
8
Layer 1
10
48.198400
20
57.464100
11
48.198400
21
57.381400
0
LINE
8
Layer 1
10
48.198400
20
57.381400
11
48.267100
21
57.381400
0
LINE
8
Layer 1
10
48.571700
20
57.701000
11
48.785097
21
57.568450
0
LINE
8
Layer 1
10
48.785097
20
57.568450
11
48.620584
21
57.418978
0
LINE
8
Layer 1
10
48.620584
20
57.418978
11
48.456071
21
57.573150
0
LINE
8
Layer 1
10
48.456071
20
57.573150
11
48.395900
21
57.573100
0
LINE
8
Layer 1
10
48.395900
20
57.573100
11
48.461708
21
57.412817
0
LINE
8
Layer 1
10
48.461708
20
57.412817
11
48.631857
21
57.368164
0
LINE
8
Layer 1
10
48.631857
20
57.368164
11
48.845254
21
57.569340
0
LINE
8
Layer 1
10
48.845254
20
57.569340
11
48.727745
21
57.732912
0
LINE
8
Layer 1
10
48.727745
20
57.732912
11
48.821753
21
57.880504
0
LINE
8
Layer 1
10
48.821753
20
57.880504
11
48.632797
21
58.044077
0
LINE
8
Layer 1
10
48.632797
20
58.044077
11
48.482387
21
57.999893
0
LINE
8
Layer 1
10
48.482387
20
57.999893
11
48.418461
21
57.851362
0
LINE
8
Layer 1
10
48.418461
20
57.851362
11
48.478600
21
57.851400
0
LINE
8
Layer 1
10
48.478600
20
57.851400
11
48.620552
21
57.993351
0
LINE
8
Layer 1
10
48.620552
20
57.993351
11
48.761561
21
57.876782
0
LINE
8
Layer 1
10
48.761561
20
57.876782
11
48.571668
21
57.749872
0
LINE
8
Layer 1
10
48.571668
20
57.749872
11
48.571700
21
57.701000
0
LINE
8
Layer 1
10
25.719200
20
57.747000
11
25.863031
21
57.913393
0
LINE
8
Layer 1
10
25.863031
20
57.913393
11
26.008742
21
57.777082
0
LINE
8
Layer 1
10
26.008742
20
57.777082
11
25.899811
21
57.621500
0
LINE
8
Layer 1
10
25.899811
20
57.621500
11
25.687237
21
57.463098
0
LINE
8
Layer 1
10
25.687237
20
57.463098
11
25.635533
21
57.301405
0
LINE
8
Layer 1
10
25.635533
20
57.301405
11
26.068900
21
57.301400
0
LINE
8
Layer 1
10
26.068900
20
57.301400
11
26.068900
21
57.352200
0
LINE
8
Layer 1
10
26.068900
20
57.352200
11
25.699400
21
57.352200
0
LINE
8
Layer 1
10
25.699400
20
57.352200
11
25.785887
21
57.485690
0
LINE
8
Layer 1
10
25.785887
20
57.485690
11
25.967203
21
57.595561
0
LINE
8
Layer 1
10
25.967203
20
57.595561
11
26.074489
21
57.780873
0
LINE
8
Layer 1
10
26.074489
20
57.780873
11
25.870493
21
57.964187
0
LINE
8
Layer 1
10
25.870493
20
57.964187
11
25.655216
21
57.747030
0
LINE
8
Layer 1
10
25.655216
20
57.747030
11
25.719200
21
57.747000
0
LINE
8
Layer 1
10
26.277600
20
57.301400
11
26.277600
21
57.384100
0
LINE
8
Layer 1
10
26.277600
20
57.384100
11
26.208900
21
57.384100
0
LINE
8
Layer 1
10
26.208900
20
57.384100
11
26.208900
21
57.301400
0
LINE
8
Layer 1
10
26.208900
20
57.301400
11
26.277600
21
57.301400
0
LINE
8
Layer 1
10
26.429900
20
57.897400
11
26.779600
21
57.897400
0
LINE
8
Layer 1
10
26.779600
20
57.897400
11
26.517320
21
57.301394
0
LINE
8
Layer 1
10
26.517320
20
57.301394
11
26.583100
21
57.301400
0
LINE
8
Layer 1
10
26.583100
20
57.301400
11
26.851961
21
57.901167
0
LINE
8
Layer 1
10
26.851961
20
57.901167
11
26.851900
21
57.957600
0
LINE
8
Layer 1
10
26.851900
20
57.957600
11
26.429900
21
57.957600
0
LINE
8
Layer 1
10
26.429900
20
57.957600
11
26.429900
21
57.897400
0
LINE
8
Layer 1
10
22.194000
20
57.766400
11
22.337831
21
57.932793
0
LINE
8
Layer 1
10
22.337831
20
57.932793
11
22.483542
21
57.796483
0
LINE
8
Layer 1
10
22.483542
20
57.796483
11
22.374611
21
57.640901
0
LINE
8
Layer 1
10
22.374611
20
57.640901
11
22.162037
21
57.482499
0
LINE
8
Layer 1
10
22.162037
20
57.482499
11
22.110333
21
57.320806
0
LINE
8
Layer 1
10
22.110333
20
57.320806
11
22.543700
21
57.320800
0
LINE
8
Layer 1
10
22.543700
20
57.320800
11
22.543700
21
57.371600
0
LINE
8
Layer 1
10
22.543700
20
57.371600
11
22.174200
21
57.371600
0
LINE
8
Layer 1
10
22.174200
20
57.371600
11
22.260687
21
57.505090
0
LINE
8
Layer 1
10
22.260687
20
57.505090
11
22.442003
21
57.614961
0
LINE
8
Layer 1
10
22.442003
20
57.614961
11
22.549289
21
57.800273
0
LINE
8
Layer 1
10
22.549289
20
57.800273
11
22.345293
21
57.983587
0
LINE
8
Layer 1
10
22.345293
20
57.983587
11
22.130016
21
57.766430
0
LINE
8
Layer 1
10
22.130016
20
57.766430
11
22.194000
21
57.766400
0
LINE
8
Layer 1
10
22.752400
20
57.320800
11
22.752400
21
57.403600
0
LINE
8
Layer 1
10
22.752400
20
57.403600
11
22.683700
21
57.403600
0
LINE
8
Layer 1
10
22.683700
20
57.403600
11
22.683700
21
57.320800
0
LINE
8
Layer 1
10
22.683700
20
57.320800
11
22.752400
21
57.320800
0
LINE
8
Layer 1
10
23.322000
20
57.821000
11
23.128345
21
57.983633
0
LINE
8
Layer 1
10
23.128345
20
57.983633
11
22.935042
21
57.862951
0
LINE
8
Layer 1
10
22.935042
20
57.862951
11
22.887686
21
57.624525
0
LINE
8
Layer 1
10
22.887686
20
57.624525
11
22.954079
21
57.378343
0
LINE
8
Layer 1
10
22.954079
20
57.378343
11
23.119884
21
57.307720
0
LINE
8
Layer 1
10
23.119884
20
57.307720
11
23.332340
21
57.522997
0
LINE
8
Layer 1
10
23.332340
20
57.522997
11
23.121764
21
57.736394
0
LINE
8
Layer 1
10
23.121764
20
57.736394
11
22.947850
21
57.632986
0
LINE
8
Layer 1
10
22.947850
20
57.632986
11
22.983456
21
57.829814
0
LINE
8
Layer 1
10
22.983456
20
57.829814
11
23.133984
21
57.932869
0
LINE
8
Layer 1
10
23.133984
20
57.932869
11
23.259954
21
57.821000
0
LINE
8
Layer 1
10
23.259954
20
57.821000
11
23.322000
21
57.821000
0
LINE
8
Layer 1
10
23.119884
20
57.685629
11
23.272176
21
57.524876
0
LINE
8
Layer 1
10
23.272176
20
57.524876
11
23.120824
21
57.358483
0
LINE
8
Layer 1
10
23.120824
20
57.358483
11
22.970412
21
57.521115
0
LINE
8
Layer 1
10
22.970412
20
57.521115
11
23.119884
21
57.685628
0
LINE
8
Layer 1
10
23.119884
20
57.685628
11
23.119884
21
57.685629
0
LINE
8
Layer 1
10
18.534400
20
57.773000
11
18.678231
21
57.939393
0
LINE
8
Layer 1
10
18.678231
20
57.939393
11
18.823943
21
57.803082
0
LINE
8
Layer 1
10
18.823943
20
57.803082
11
18.715012
21
57.647500
0
LINE
8
Layer 1
10
18.715012
20
57.647500
11
18.502438
21
57.489098
0
LINE
8
Layer 1
10
18.502438
20
57.489098
11
18.450734
21
57.327405
0
LINE
8
Layer 1
10
18.450734
20
57.327405
11
18.884100
21
57.327400
0
LINE
8
Layer 1
10
18.884100
20
57.327400
11
18.884100
21
57.378200
0
LINE
8
Layer 1
10
18.884100
20
57.378200
11
18.514700
21
57.378200
0
LINE
8
Layer 1
10
18.514700
20
57.378200
11
18.601187
21
57.511690
0
LINE
8
Layer 1
10
18.601187
20
57.511690
11
18.782503
21
57.621561
0
LINE
8
Layer 1
10
18.782503
20
57.621561
11
18.889789
21
57.806873
0
LINE
8
Layer 1
10
18.889789
20
57.806873
11
18.685793
21
57.990187
0
LINE
8
Layer 1
10
18.685793
20
57.990187
11
18.470516
21
57.773030
0
LINE
8
Layer 1
10
18.470516
20
57.773030
11
18.534400
21
57.773000
0
LINE
8
Layer 1
10
19.092800
20
57.327400
11
19.092800
21
57.410100
0
LINE
8
Layer 1
10
19.092800
20
57.410100
11
19.024200
21
57.410100
0
LINE
8
Layer 1
10
19.024200
20
57.410100
11
19.024200
21
57.327400
0
LINE
8
Layer 1
10
19.024200
20
57.327400
11
19.092800
21
57.327400
0
LINE
8
Layer 1
10
19.222500
20
57.499400
11
19.296060
21
57.355333
0
LINE
8
Layer 1
10
19.296060
20
57.355333
11
19.455638
21
57.314205
0
LINE
8
Layer 1
10
19.455638
20
57.314205
11
19.665274
21
57.534182
0
LINE
8
Layer 1
10
19.665274
20
57.534182
11
19.455638
21
57.753219
0
LINE
8
Layer 1
10
19.455638
20
57.753219
11
19.309927
21
57.709976
0
LINE
8
Layer 1
10
19.309927
20
57.709976
11
19.351290
21
57.932773
0
LINE
8
Layer 1
10
19.351290
20
57.932773
11
19.629600
21
57.932800
0
LINE
8
Layer 1
10
19.629600
20
57.932800
11
19.629600
21
57.983600
0
LINE
8
Layer 1
10
19.629600
20
57.983600
11
19.300600
21
57.983600
0
LINE
8
Layer 1
10
19.300600
20
57.983600
11
19.247016
21
57.640473
0
LINE
8
Layer 1
10
19.247016
20
57.640473
11
19.296840
21
57.633892
0
LINE
8
Layer 1
10
19.296840
20
57.633892
11
19.440671
21
57.702517
0
LINE
8
Layer 1
10
19.440671
20
57.702517
11
19.605184
21
57.534244
0
LINE
8
Layer 1
10
19.605184
20
57.534244
11
19.446312
21
57.365031
0
LINE
8
Layer 1
10
19.446312
20
57.365031
11
19.282739
21
57.499462
0
LINE
8
Layer 1
10
19.282739
20
57.499462
11
19.222500
21
57.499400
0
LINE
8
Layer 1
10
29.988800
20
56.766400
11
29.805796
21
56.714586
0
LINE
8
Layer 1
10
29.805796
20
56.714586
11
29.689489
21
56.565758
0
LINE
8
Layer 1
10
29.689489
20
56.565758
11
29.655865
21
56.427403
0
LINE
8
Layer 1
10
29.655865
20
56.427403
11
29.645395
21
56.249912
0
LINE
8
Layer 1
10
29.645395
20
56.249912
11
29.654764
21
56.107147
0
LINE
8
Layer 1
10
29.654764
20
56.107147
11
29.654800
21
56.106600
0
LINE
8
Layer 1
10
29.654800
20
56.106600
11
29.685116
21
55.985333
0
LINE
8
Layer 1
10
29.685116
20
55.985333
11
29.685700
21
55.985300
0
LINE
8
Layer 1
10
29.685700
20
55.985300
11
29.685700
21
55.984700
0
LINE
8
Layer 1
10
29.685700
20
55.984700
11
29.808069
21
55.823745
0
LINE
8
Layer 1
10
29.808069
20
55.823745
11
29.993828
21
55.765316
0
LINE
8
Layer 1
10
29.993828
20
55.765316
11
30.157539
21
55.808862
0
LINE
8
Layer 1
10
30.157539
20
55.808862
11
30.276603
21
55.932334
0
LINE
8
Layer 1
10
30.276603
20
55.932334
11
30.277200
21
55.932400
0
LINE
8
Layer 1
10
30.277200
20
55.932400
11
30.326809
21
56.076267
0
LINE
8
Layer 1
10
30.326809
20
56.076267
11
30.338945
21
56.244387
0
LINE
8
Layer 1
10
30.338945
20
56.244387
11
30.340000
21
56.244300
0
LINE
8
Layer 1
10
30.340000
20
56.244300
11
30.340000
21
56.260900
0
LINE
8
Layer 1
10
30.340000
20
56.260900
11
30.289288
21
56.569029
0
LINE
8
Layer 1
10
30.289288
20
56.569029
11
30.216528
21
56.675965
0
LINE
8
Layer 1
10
30.216528
20
56.675965
11
30.115653
21
56.743213
0
LINE
8
Layer 1
10
30.115653
20
56.743213
11
29.988876
21
56.766364
0
LINE
8
Layer 1
10
29.988876
20
56.766364
11
29.988800
21
56.766400
0
LINE
8
Layer 1
10
29.988800
20
56.732776
11
30.102900
21
56.711829
0
LINE
8
Layer 1
10
30.102900
20
56.711829
11
30.103500
21
56.711800
0
LINE
8
Layer 1
10
30.103500
20
56.711800
11
30.192245
21
56.652820
0
LINE
8
Layer 1
10
30.192245
20
56.652820
11
30.258389
21
56.554704
0
LINE
8
Layer 1
10
30.258389
20
56.554704
11
30.305794
21
56.260906
0
LINE
8
Layer 1
10
30.305794
20
56.260906
11
30.293122
21
56.081761
0
LINE
8
Layer 1
10
30.293122
20
56.081761
11
30.247371
21
55.948918
0
LINE
8
Layer 1
10
30.247371
20
55.948918
11
30.139884
21
55.838124
0
LINE
8
Layer 1
10
30.139884
20
55.838124
11
29.993812
21
55.798987
0
LINE
8
Layer 1
10
29.993812
20
55.798987
11
29.827897
21
55.851353
0
LINE
8
Layer 1
10
29.827897
20
55.851353
11
29.717105
21
55.996874
0
LINE
8
Layer 1
10
29.717105
20
55.996874
11
29.688440
21
56.111527
0
LINE
8
Layer 1
10
29.688440
20
56.111527
11
29.679070
21
56.249882
0
LINE
8
Layer 1
10
29.679070
20
56.249882
11
29.689540
21
56.422963
0
LINE
8
Layer 1
10
29.689540
20
56.422963
11
29.720960
21
56.553050
0
LINE
8
Layer 1
10
29.720960
20
56.553050
11
29.720400
21
56.553100
0
LINE
8
Layer 1
10
29.720400
20
56.553100
11
29.824579
21
56.686494
0
LINE
8
Layer 1
10
29.824579
20
56.686494
11
29.988843
21
56.732796
0
LINE
8
Layer 1
10
29.988843
20
56.732796
11
29.988800
21
56.732776
0
LINE
8
Layer 1
10
29.991622
20
56.635762
11
29.857126
21
56.539300
0
LINE
8
Layer 1
10
29.857126
20
56.539300
11
29.857200
21
56.538700
0
LINE
8
Layer 1
10
29.857200
20
56.538700
11
29.823026
21
56.268605
0
LINE
8
Layer 1
10
29.823026
20
56.268605
11
29.837363
21
56.066860
0
LINE
8
Layer 1
10
29.837363
20
56.066860
11
29.889176
21
55.941734
0
LINE
8
Layer 1
10
29.889176
20
55.941734
11
29.992805
21
55.896534
0
LINE
8
Layer 1
10
29.992805
20
55.896534
11
30.098638
21
55.943939
0
LINE
8
Layer 1
10
30.098638
20
55.943939
11
30.149350
21
56.069616
0
LINE
8
Layer 1
10
30.149350
20
56.069616
11
30.163123
21
56.273565
0
LINE
8
Layer 1
10
30.163123
20
56.273565
11
30.163100
21
56.290700
0
LINE
8
Layer 1
10
30.163100
20
56.290700
11
30.162000
21
56.290700
0
LINE
8
Layer 1
10
30.162000
20
56.290700
11
30.148764
21
56.469845
0
LINE
8
Layer 1
10
30.148764
20
56.469845
11
30.096951
21
56.591112
0
LINE
8
Layer 1
10
30.096951
20
56.591112
11
29.991668
21
56.635760
0
LINE
8
Layer 1
10
29.991668
20
56.635760
11
29.991622
21
56.635762
0
LINE
8
Layer 1
10
29.991622
20
56.602138
11
30.071548
21
56.569065
0
LINE
8
Layer 1
10
30.071548
20
56.569065
11
30.115645
21
56.463232
0
LINE
8
Layer 1
10
30.115645
20
56.463232
11
30.129417
21
56.273614
0
LINE
8
Layer 1
10
30.129417
20
56.273614
11
30.116181
21
56.075177
0
LINE
8
Layer 1
10
30.116181
20
56.075177
11
30.072634
21
55.964934
0
LINE
8
Layer 1
10
30.072634
20
55.964934
11
29.992709
21
55.930208
0
LINE
8
Layer 1
10
29.992709
20
55.930208
11
29.914434
21
55.963281
0
LINE
8
Layer 1
10
29.914434
20
55.963281
11
29.870337
21
56.072973
0
LINE
8
Layer 1
10
29.870337
20
56.072973
11
29.856565
21
56.268654
0
LINE
8
Layer 1
10
29.856565
20
56.268654
11
29.888535
21
56.526623
0
LINE
8
Layer 1
10
29.888535
20
56.526623
11
29.991611
21
56.602139
0
LINE
8
Layer 1
10
29.991611
20
56.602139
11
29.991622
21
56.602138
0
LINE
8
Layer 1
10
33.245000
20
55.823200
11
33.305100
21
55.823200
0
LINE
8
Layer 1
10
33.305100
20
55.823200
11
33.305100
21
56.486000
0
LINE
8
Layer 1
10
33.305100
20
56.486000
11
33.257200
21
56.486000
0
LINE
8
Layer 1
10
33.257200
20
56.486000
11
33.073886
21
56.355330
0
LINE
8
Layer 1
10
33.073886
20
56.355330
11
33.073900
21
56.315800
0
LINE
8
Layer 1
10
33.073900
20
56.315800
11
33.245000
21
56.315800
0
LINE
8
Layer 1
10
33.245000
20
56.315800
11
33.245000
21
55.823200
0
LINE
8
Layer 1
10
26.002900
20
56.064300
11
26.002900
21
56.006000
0
LINE
8
Layer 1
10
26.002900
20
56.006000
11
26.240700
21
56.006000
0
LINE
8
Layer 1
10
26.240700
20
56.006000
11
26.240700
21
56.064300
0
LINE
8
Layer 1
10
26.240700
20
56.064300
11
26.002900
21
56.064300
0
LINE
8
Layer 1
10
26.562200
20
55.790700
11
26.622400
21
55.790700
0
LINE
8
Layer 1
10
26.622400
20
55.790700
11
26.622400
21
56.453500
0
LINE
8
Layer 1
10
26.622400
20
56.453500
11
26.574500
21
56.453500
0
LINE
8
Layer 1
10
26.574500
20
56.453500
11
26.391186
21
56.322830
0
LINE
8
Layer 1
10
26.391186
20
56.322830
11
26.391100
21
56.283300
0
LINE
8
Layer 1
10
26.391100
20
56.283300
11
26.562200
21
56.283300
0
LINE
8
Layer 1
10
26.562200
20
56.283300
11
26.562200
21
55.790700
0
LINE
8
Layer 1
10
22.411500
20
56.089600
11
22.411500
21
56.031300
0
LINE
8
Layer 1
10
22.411500
20
56.031300
11
22.649300
21
56.031300
0
LINE
8
Layer 1
10
22.649300
20
56.031300
11
22.649300
21
56.089600
0
LINE
8
Layer 1
10
22.649300
20
56.089600
11
22.411500
21
56.089600
0
LINE
8
Layer 1
10
22.815700
20
56.261600
11
22.959531
21
56.427993
0
LINE
8
Layer 1
10
22.959531
20
56.427993
11
23.105242
21
56.291683
0
LINE
8
Layer 1
10
23.105242
20
56.291683
11
22.996311
21
56.136101
0
LINE
8
Layer 1
10
22.996311
20
56.136101
11
22.783737
21
55.977699
0
LINE
8
Layer 1
10
22.783737
20
55.977699
11
22.732033
21
55.816006
0
LINE
8
Layer 1
10
22.732033
20
55.816006
11
23.165400
21
55.816000
0
LINE
8
Layer 1
10
23.165400
20
55.816000
11
23.165400
21
55.866800
0
LINE
8
Layer 1
10
23.165400
20
55.866800
11
22.796000
21
55.866800
0
LINE
8
Layer 1
10
22.796000
20
55.866800
11
22.882487
21
56.000290
0
LINE
8
Layer 1
10
22.882487
20
56.000290
11
23.063803
21
56.110161
0
LINE
8
Layer 1
10
23.063803
20
56.110161
11
23.171089
21
56.295473
0
LINE
8
Layer 1
10
23.171089
20
56.295473
11
22.967093
21
56.478787
0
LINE
8
Layer 1
10
22.967093
20
56.478787
11
22.751816
21
56.261630
0
LINE
8
Layer 1
10
22.751816
20
56.261630
11
22.815700
21
56.261600
0
LINE
8
Layer 1
10
18.600400
20
56.107900
11
18.600400
21
56.049600
0
LINE
8
Layer 1
10
18.600400
20
56.049600
11
18.838300
21
56.049600
0
LINE
8
Layer 1
10
18.838300
20
56.049600
11
18.838300
21
56.107900
0
LINE
8
Layer 1
10
18.838300
20
56.107900
11
18.600400
21
56.107900
0
LINE
8
Layer 1
10
19.083600
20
56.154000
11
19.296997
21
56.021450
0
LINE
8
Layer 1
10
19.296997
20
56.021450
11
19.132484
21
55.871978
0
LINE
8
Layer 1
10
19.132484
20
55.871978
11
18.967971
21
56.026150
0
LINE
8
Layer 1
10
18.967971
20
56.026150
11
18.907800
21
56.026100
0
LINE
8
Layer 1
10
18.907800
20
56.026100
11
18.973606
21
55.865817
0
LINE
8
Layer 1
10
18.973606
20
55.865817
11
19.143758
21
55.821164
0
LINE
8
Layer 1
10
19.143758
20
55.821164
11
19.357155
21
56.022340
0
LINE
8
Layer 1
10
19.357155
20
56.022340
11
19.239646
21
56.185912
0
LINE
8
Layer 1
10
19.239646
20
56.185912
11
19.333653
21
56.333504
0
LINE
8
Layer 1
10
19.333653
20
56.333504
11
19.144698
21
56.497077
0
LINE
8
Layer 1
10
19.144698
20
56.497077
11
18.994286
21
56.452893
0
LINE
8
Layer 1
10
18.994286
20
56.452893
11
18.930361
21
56.304362
0
LINE
8
Layer 1
10
18.930361
20
56.304362
11
18.990600
21
56.304400
0
LINE
8
Layer 1
10
18.990600
20
56.304400
11
19.132551
21
56.446351
0
LINE
8
Layer 1
10
19.132551
20
56.446351
11
19.273562
21
56.329782
0
LINE
8
Layer 1
10
19.273562
20
56.329782
11
19.083667
21
56.202872
0
LINE
8
Layer 1
10
19.083667
20
56.202872
11
19.083600
21
56.154000
0
LINE
8
Layer 1
10
36.947600
20
56.223300
11
37.091432
21
56.389693
0
LINE
8
Layer 1
10
37.091432
20
56.389693
11
37.237143
21
56.253382
0
LINE
8
Layer 1
10
37.237143
20
56.253382
11
37.128212
21
56.097800
0
LINE
8
Layer 1
10
37.128212
20
56.097800
11
36.915639
21
55.939398
0
LINE
8
Layer 1
10
36.915639
20
55.939398
11
36.863933
21
55.777706
0
LINE
8
Layer 1
10
36.863933
20
55.777706
11
37.297300
21
55.777700
0
LINE
8
Layer 1
10
37.297300
20
55.777700
11
37.297300
21
55.828500
0
LINE
8
Layer 1
10
37.297300
20
55.828500
11
36.927900
21
55.828500
0
LINE
8
Layer 1
10
36.927900
20
55.828500
11
37.014387
21
55.961990
0
LINE
8
Layer 1
10
37.014387
20
55.961990
11
37.195704
21
56.071861
0
LINE
8
Layer 1
10
37.195704
20
56.071861
11
37.302990
21
56.257173
0
LINE
8
Layer 1
10
37.302990
20
56.257173
11
37.098991
21
56.440487
0
LINE
8
Layer 1
10
37.098991
20
56.440487
11
36.883715
21
56.223330
0
LINE
8
Layer 1
10
36.883715
20
56.223330
11
36.947600
21
56.223300
0
LINE
8
Layer 1
10
40.686000
20
56.071400
11
40.899397
21
55.938850
0
LINE
8
Layer 1
10
40.899397
20
55.938850
11
40.734884
21
55.789378
0
LINE
8
Layer 1
10
40.734884
20
55.789378
11
40.570371
21
55.943550
0
LINE
8
Layer 1
10
40.570371
20
55.943550
11
40.510300
21
55.943600
0
LINE
8
Layer 1
10
40.510300
20
55.943600
11
40.576108
21
55.783318
0
LINE
8
Layer 1
10
40.576108
20
55.783318
11
40.746257
21
55.738664
0
LINE
8
Layer 1
10
40.746257
20
55.738664
11
40.959654
21
55.939840
0
LINE
8
Layer 1
10
40.959654
20
55.939840
11
40.842145
21
56.103412
0
LINE
8
Layer 1
10
40.842145
20
56.103412
11
40.936153
21
56.251004
0
LINE
8
Layer 1
10
40.936153
20
56.251004
11
40.747197
21
56.414576
0
LINE
8
Layer 1
10
40.747197
20
56.414576
11
40.596787
21
56.370393
0
LINE
8
Layer 1
10
40.596787
20
56.370393
11
40.532861
21
56.221862
0
LINE
8
Layer 1
10
40.532861
20
56.221862
11
40.593000
21
56.221800
0
LINE
8
Layer 1
10
40.593000
20
56.221800
11
40.734952
21
56.363751
0
LINE
8
Layer 1
10
40.734952
20
56.363751
11
40.875961
21
56.247182
0
LINE
8
Layer 1
10
40.875961
20
56.247182
11
40.686068
21
56.120272
0
LINE
8
Layer 1
10
40.686068
20
56.120272
11
40.686000
21
56.071400
0
LINE
8
Layer 1
10
44.458800
20
55.767600
11
44.518900
21
55.767600
0
LINE
8
Layer 1
10
44.518900
20
55.767600
11
44.518900
21
55.931100
0
LINE
8
Layer 1
10
44.518900
20
55.931100
11
44.611100
21
55.931100
0
LINE
8
Layer 1
10
44.611100
20
55.931100
11
44.611100
21
55.981900
0
LINE
8
Layer 1
10
44.611100
20
55.981900
11
44.518900
21
55.981900
0
LINE
8
Layer 1
10
44.518900
20
55.981900
11
44.518900
21
56.423700
0
LINE
8
Layer 1
10
44.518900
20
56.423700
11
44.464400
21
56.423700
0
LINE
8
Layer 1
10
44.464400
20
56.423700
11
44.156058
21
55.982806
0
LINE
8
Layer 1
10
44.156058
20
55.982806
11
44.156100
21
55.931100
0
LINE
8
Layer 1
10
44.156100
20
55.931100
11
44.458800
21
55.931100
0
LINE
8
Layer 1
10
44.458800
20
55.931100
11
44.458800
21
55.767600
0
LINE
8
Layer 1
10
44.458800
20
56.333524
11
44.458800
21
55.981900
0
LINE
8
Layer 1
10
44.458800
20
55.981900
11
44.215300
21
55.981900
0
LINE
8
Layer 1
10
44.215300
20
55.981900
11
44.458800
21
56.333524
0
LINE
8
Layer 1
10
48.019800
20
55.918000
11
48.093356
21
55.773934
0
LINE
8
Layer 1
10
48.093356
20
55.773934
11
48.252938
21
55.732806
0
LINE
8
Layer 1
10
48.252938
20
55.732806
11
48.462575
21
55.952783
0
LINE
8
Layer 1
10
48.462575
20
55.952783
11
48.252938
21
56.171820
0
LINE
8
Layer 1
10
48.252938
20
56.171820
11
48.107227
21
56.128577
0
LINE
8
Layer 1
10
48.107227
20
56.128577
11
48.148589
21
56.351374
0
LINE
8
Layer 1
10
48.148589
20
56.351374
11
48.426900
21
56.351400
0
LINE
8
Layer 1
10
48.426900
20
56.351400
11
48.426900
21
56.402100
0
LINE
8
Layer 1
10
48.426900
20
56.402100
11
48.097900
21
56.402100
0
LINE
8
Layer 1
10
48.097900
20
56.402100
11
48.044317
21
56.058973
0
LINE
8
Layer 1
10
48.044317
20
56.058973
11
48.094141
21
56.052392
0
LINE
8
Layer 1
10
48.094141
20
56.052392
11
48.237973
21
56.121017
0
LINE
8
Layer 1
10
48.237973
20
56.121017
11
48.402486
21
55.952744
0
LINE
8
Layer 1
10
48.402486
20
55.952744
11
48.243612
21
55.783531
0
LINE
8
Layer 1
10
48.243612
20
55.783531
11
48.080039
21
55.917961
0
LINE
8
Layer 1
10
48.080039
20
55.917961
11
48.019800
21
55.918000
0
LINE
8
Layer 1
10
14.224500
20
57.657400
11
14.278861
21
57.881239
0
LINE
8
Layer 1
10
14.278861
20
57.881239
11
14.465927
21
57.975571
0
LINE
8
Layer 1
10
14.465927
20
57.975571
11
14.643400
21
57.783709
0
LINE
8
Layer 1
10
14.643400
20
57.783709
11
14.643400
21
57.211300
0
LINE
8
Layer 1
10
14.643400
20
57.211300
11
14.739300
21
57.211300
0
LINE
8
Layer 1
10
14.739300
20
57.211300
11
14.739300
21
57.657400
0
LINE
8
Layer 1
10
14.739300
20
57.657400
11
14.793661
21
57.881239
0
LINE
8
Layer 1
10
14.793661
20
57.881239
11
14.980727
21
57.975571
0
LINE
8
Layer 1
10
14.980727
20
57.975571
11
15.158200
21
57.783709
0
LINE
8
Layer 1
10
15.158200
20
57.783709
11
15.158200
21
57.211300
0
LINE
8
Layer 1
10
15.158200
20
57.211300
11
15.254100
21
57.211300
0
LINE
8
Layer 1
10
15.254100
20
57.211300
11
15.254100
21
57.734100
0
LINE
8
Layer 1
10
15.254100
20
57.734100
11
15.209932
21
57.960338
0
LINE
8
Layer 1
10
15.209932
20
57.960338
11
14.996685
21
58.061865
0
LINE
8
Layer 1
10
14.996685
20
58.061865
11
14.726479
21
57.901980
0
LINE
8
Layer 1
10
14.726479
20
57.901980
11
14.483453
21
58.061865
0
LINE
8
Layer 1
10
14.483453
20
58.061865
11
14.227637
21
57.914771
0
LINE
8
Layer 1
10
14.227637
20
57.914771
11
14.224500
21
57.914800
0
LINE
8
Layer 1
10
14.224500
20
57.914800
11
14.224500
21
58.039500
0
LINE
8
Layer 1
10
14.224500
20
58.039500
11
14.128500
21
58.039500
0
LINE
8
Layer 1
10
14.128500
20
58.039500
11
14.128500
21
57.211300
0
LINE
8
Layer 1
10
14.128500
20
57.211300
11
14.224500
21
57.211300
0
LINE
8
Layer 1
10
14.224500
20
57.211300
11
14.224500
21
57.657400
0
LINE
8
Layer 1
10
15.556300
20
57.657400
11
15.610661
21
57.881239
0
LINE
8
Layer 1
10
15.610661
20
57.881239
11
15.797727
21
57.975571
0
LINE
8
Layer 1
10
15.797727
20
57.975571
11
15.975199
21
57.783709
0
LINE
8
Layer 1
10
15.975199
20
57.783709
11
15.975200
21
57.211300
0
LINE
8
Layer 1
10
15.975200
20
57.211300
11
16.071100
21
57.211300
0
LINE
8
Layer 1
10
16.071100
20
57.211300
11
16.071100
21
57.657400
0
LINE
8
Layer 1
10
16.071100
20
57.657400
11
16.125461
21
57.881239
0
LINE
8
Layer 1
10
16.125461
20
57.881239
11
16.312527
21
57.975571
0
LINE
8
Layer 1
10
16.312527
20
57.975571
11
16.489999
21
57.783709
0
LINE
8
Layer 1
10
16.489999
20
57.783709
11
16.490000
21
57.211300
0
LINE
8
Layer 1
10
16.490000
20
57.211300
11
16.586000
21
57.211300
0
LINE
8
Layer 1
10
16.586000
20
57.211300
11
16.586000
21
57.734100
0
LINE
8
Layer 1
10
16.586000
20
57.734100
11
16.541832
21
57.960338
0
LINE
8
Layer 1
10
16.541832
20
57.960338
11
16.328585
21
58.061865
0
LINE
8
Layer 1
10
16.328585
20
58.061865
11
16.058379
21
57.901980
0
LINE
8
Layer 1
10
16.058379
20
57.901980
11
15.815354
21
58.061865
0
LINE
8
Layer 1
10
15.815354
20
58.061865
11
15.559538
21
57.914771
0
LINE
8
Layer 1
10
15.559538
20
57.914771
11
15.556300
21
57.914800
0
LINE
8
Layer 1
10
15.556300
20
57.914800
11
15.556300
21
58.039500
0
LINE
8
Layer 1
10
15.556300
20
58.039500
11
15.460400
21
58.039500
0
LINE
8
Layer 1
10
15.460400
20
58.039500
11
15.460400
21
57.211300
0
LINE
8
Layer 1
10
15.460400
20
57.211300
11
15.556300
21
57.211300
0
LINE
8
Layer 1
10
15.556300
20
57.211300
11
15.556300
21
57.657400
0
LINE
8
Layer 1
10
14.377900
20
56.325100
11
14.186078
21
56.483018
0
LINE
8
Layer 1
10
14.186078
20
56.483018
11
14.028048
21
56.408966
0
LINE
8
Layer 1
10
14.028048
20
56.408966
11
13.973736
21
56.238557
0
LINE
8
Layer 1
10
13.973736
20
56.238557
11
14.024703
21
56.066029
0
LINE
8
Layer 1
10
14.024703
20
56.066029
11
14.186078
21
55.995880
0
LINE
8
Layer 1
10
14.186078
20
55.995880
11
14.385037
21
56.168074
0
LINE
8
Layer 1
10
14.385037
20
56.168074
11
14.328000
21
56.168100
0
LINE
8
Layer 1
10
14.328000
20
56.168100
11
14.186141
21
56.044085
0
LINE
8
Layer 1
10
14.186141
20
56.044085
11
14.030899
21
56.238583
0
LINE
8
Layer 1
10
14.030899
20
56.238583
11
14.186141
21
56.434866
0
LINE
8
Layer 1
10
14.186141
20
56.434866
11
14.323539
21
56.325126
0
LINE
8
Layer 1
10
14.323539
20
56.325126
11
14.377900
21
56.325100
0
LINE
8
Layer 1
10
14.553700
20
56.008400
11
14.553700
21
56.650700
0
LINE
8
Layer 1
10
14.553700
20
56.650700
11
14.500200
21
56.650700
0
LINE
8
Layer 1
10
14.500200
20
56.650700
11
14.500200
21
56.008400
0
LINE
8
Layer 1
10
14.500200
20
56.008400
11
14.553700
21
56.008400
0
LINE
8
Layer 1
10
14.723200
20
56.271600
11
14.878442
21
56.434872
0
LINE
8
Layer 1
10
14.878442
20
56.434872
11
15.024762
21
56.271600
0
LINE
8
Layer 1
10
15.024762
20
56.271600
11
14.723200
21
56.271600
0
LINE
8
Layer 1
10
15.081862
20
56.226990
11
15.028000
21
56.417251
0
LINE
8
Layer 1
10
15.028000
20
56.417251
11
14.878442
21
56.483050
0
LINE
8
Layer 1
10
14.878442
20
56.483050
11
14.666100
21
56.237697
0
LINE
8
Layer 1
10
14.666100
20
56.237697
11
14.716732
21
56.065615
0
LINE
8
Layer 1
10
14.716732
20
56.065615
11
14.878442
21
55.995912
0
LINE
8
Layer 1
10
14.878442
20
55.995912
11
15.078293
21
56.150262
0
LINE
8
Layer 1
10
15.078293
20
56.150262
11
15.018500
21
56.150200
0
LINE
8
Layer 1
10
15.018500
20
56.150200
11
14.878426
21
56.044029
0
LINE
8
Layer 1
10
14.878426
20
56.044029
11
14.723184
21
56.226929
0
LINE
8
Layer 1
10
14.723184
20
56.226929
11
15.081862
21
56.226990
0
LINE
8
Layer 1
10
15.488700
20
56.178800
11
15.320075
21
56.044079
0
LINE
8
Layer 1
10
15.320075
20
56.044079
11
15.220149
21
56.127053
0
LINE
8
Layer 1
10
15.220149
20
56.127053
11
15.350409
21
56.225194
0
LINE
8
Layer 1
10
15.350409
20
56.225194
11
15.488699
21
56.251069
0
LINE
8
Layer 1
10
15.488699
20
56.251069
11
15.488700
21
56.178800
0
LINE
8
Layer 1
10
15.324600
20
56.268000
11
15.163113
21
56.128818
0
LINE
8
Layer 1
10
15.163113
20
56.128818
11
15.317462
21
55.995881
0
LINE
8
Layer 1
10
15.317462
20
55.995881
11
15.489656
21
56.072610
0
LINE
8
Layer 1
10
15.489656
20
56.072610
11
15.532481
21
56.003911
0
LINE
8
Layer 1
10
15.532481
20
56.003911
11
15.556569
21
56.001230
0
LINE
8
Layer 1
10
15.556569
20
56.001230
11
15.598502
21
56.010151
0
LINE
8
Layer 1
10
15.598502
20
56.010151
11
15.598500
21
56.052100
0
LINE
8
Layer 1
10
15.598500
20
56.052100
11
15.542292
21
56.087788
0
LINE
8
Layer 1
10
15.542292
20
56.087788
11
15.542300
21
56.339400
0
LINE
8
Layer 1
10
15.542300
20
56.339400
11
15.374568
21
56.483043
0
LINE
8
Layer 1
10
15.374568
20
56.483043
11
15.184531
21
56.330478
0
LINE
8
Layer 1
10
15.184531
20
56.330478
11
15.238900
21
56.330400
0
LINE
8
Layer 1
10
15.238900
20
56.330400
11
15.373621
21
56.434787
0
LINE
8
Layer 1
10
15.373621
20
56.434787
11
15.488714
21
56.341107
0
LINE
8
Layer 1
10
15.488714
20
56.341107
11
15.469086
21
56.292928
0
LINE
8
Layer 1
10
15.469086
20
56.292928
11
15.398602
21
56.277762
0
LINE
8
Layer 1
10
15.398602
20
56.277762
11
15.324600
21
56.268000
0
LINE
8
Layer 1
10
15.738500
20
56.235000
11
15.891065
21
56.425037
0
LINE
8
Layer 1
10
15.891065
20
56.425037
11
15.891100
21
56.483000
0
LINE
8
Layer 1
10
15.891100
20
56.483000
11
15.740319
21
56.383967
0
LINE
8
Layer 1
10
15.740319
20
56.383967
11
15.738500
21
56.384000
0
LINE
8
Layer 1
10
15.738500
20
56.384000
11
15.738500
21
56.470500
0
LINE
8
Layer 1
10
15.738500
20
56.470500
11
15.685000
21
56.470500
0
LINE
8
Layer 1
10
15.685000
20
56.470500
11
15.685000
21
56.008400
0
LINE
8
Layer 1
10
15.685000
20
56.008400
11
15.738500
21
56.008400
0
LINE
8
Layer 1
10
15.738500
20
56.008400
11
15.738500
21
56.235000
0
LINE
8
Layer 1
10
16.281900
20
56.178800
11
16.113275
21
56.044079
0
LINE
8
Layer 1
10
16.113275
20
56.044079
11
16.013349
21
56.127053
0
LINE
8
Layer 1
10
16.013349
20
56.127053
11
16.143609
21
56.225194
0
LINE
8
Layer 1
10
16.143609
20
56.225194
11
16.281899
21
56.251069
0
LINE
8
Layer 1
10
16.281899
20
56.251069
11
16.281900
21
56.178800
0
LINE
8
Layer 1
10
16.117736
20
56.268019
11
15.956249
21
56.128837
0
LINE
8
Layer 1
10
15.956249
20
56.128837
11
16.110599
21
55.995900
0
LINE
8
Layer 1
10
16.110599
20
55.995900
11
16.282793
21
56.072629
0
LINE
8
Layer 1
10
16.282793
20
56.072629
11
16.325618
21
56.003930
0
LINE
8
Layer 1
10
16.325618
20
56.003930
11
16.349709
21
56.001249
0
LINE
8
Layer 1
10
16.349709
20
56.001249
11
16.391642
21
56.010170
0
LINE
8
Layer 1
10
16.391642
20
56.010170
11
16.391600
21
56.052100
0
LINE
8
Layer 1
10
16.391600
20
56.052100
11
16.335392
21
56.087788
0
LINE
8
Layer 1
10
16.335392
20
56.087788
11
16.335400
21
56.339400
0
LINE
8
Layer 1
10
16.335400
20
56.339400
11
16.167668
21
56.483043
0
LINE
8
Layer 1
10
16.167668
20
56.483043
11
15.977631
21
56.330478
0
LINE
8
Layer 1
10
15.977631
20
56.330478
11
16.032100
21
56.330400
0
LINE
8
Layer 1
10
16.032100
20
56.330400
11
16.166821
21
56.434787
0
LINE
8
Layer 1
10
16.166821
20
56.434787
11
16.281914
21
56.341107
0
LINE
8
Layer 1
10
16.281914
20
56.341107
11
16.262286
21
56.292928
0
LINE
8
Layer 1
10
16.262286
20
56.292928
11
16.191802
21
56.277762
0
LINE
8
Layer 1
10
16.191802
20
56.277762
11
16.117736
21
56.268019
0
LINE
8
Layer 1
10
16.529000
20
56.257300
11
16.540599
21
56.344735
0
LINE
8
Layer 1
10
16.540599
20
56.344735
11
16.669075
21
56.434847
0
LINE
8
Layer 1
10
16.669075
20
56.434847
11
16.788629
21
56.309940
0
LINE
8
Layer 1
10
16.788629
20
56.309940
11
16.788700
21
56.008400
0
LINE
8
Layer 1
10
16.788700
20
56.008400
11
16.842200
21
56.008400
0
LINE
8
Layer 1
10
16.842200
20
56.008400
11
16.842200
21
56.310800
0
LINE
8
Layer 1
10
16.842200
20
56.310800
11
16.819004
21
56.416971
0
LINE
8
Layer 1
10
16.819004
20
56.416971
11
16.678037
21
56.482994
0
LINE
8
Layer 1
10
16.678037
20
56.482994
11
16.529041
21
56.406265
0
LINE
8
Layer 1
10
16.529041
20
56.406265
11
16.529000
21
56.470500
0
LINE
8
Layer 1
10
16.529000
20
56.470500
11
16.475500
21
56.470500
0
LINE
8
Layer 1
10
16.475500
20
56.470500
11
16.475500
21
56.008400
0
LINE
8
Layer 1
10
16.475500
20
56.008400
11
16.529000
21
56.008400
0
LINE
8
Layer 1
10
16.529000
20
56.008400
11
16.529000
21
56.257300
0
LINE
8
Layer 1
10
17.353400
20
56.325100
11
17.161578
21
56.483018
0
LINE
8
Layer 1
10
17.161578
20
56.483018
11
17.003548
21
56.408966
0
LINE
8
Layer 1
10
17.003548
20
56.408966
11
16.949236
21
56.238557
0
LINE
8
Layer 1
10
16.949236
20
56.238557
11
17.000203
21
56.066029
0
LINE
8
Layer 1
10
17.000203
20
56.066029
11
17.161578
21
55.995880
0
LINE
8
Layer 1
10
17.161578
20
55.995880
11
17.360537
21
56.168074
0
LINE
8
Layer 1
10
17.360537
20
56.168074
11
17.303500
21
56.168100
0
LINE
8
Layer 1
10
17.303500
20
56.168100
11
17.161641
21
56.044085
0
LINE
8
Layer 1
10
17.161641
20
56.044085
11
17.006399
21
56.238583
0
LINE
8
Layer 1
10
17.006399
20
56.238583
11
17.161641
21
56.434866
0
LINE
8
Layer 1
10
17.161641
20
56.434866
11
17.299039
21
56.325126
0
LINE
8
Layer 1
10
17.299039
20
56.325126
11
17.353400
21
56.325100
0
LINE
8
Layer 1
10
17.500600
20
56.271600
11
17.655842
21
56.434872
0
LINE
8
Layer 1
10
17.655842
20
56.434872
11
17.802162
21
56.271600
0
LINE
8
Layer 1
10
17.802162
20
56.271600
11
17.500600
21
56.271600
0
LINE
8
Layer 1
10
17.859262
20
56.226990
11
17.805400
21
56.417251
0
LINE
8
Layer 1
10
17.805400
20
56.417251
11
17.655842
21
56.483050
0
LINE
8
Layer 1
10
17.655842
20
56.483050
11
17.443500
21
56.237697
0
LINE
8
Layer 1
10
17.443500
20
56.237697
11
17.494132
21
56.065615
0
LINE
8
Layer 1
10
17.494132
20
56.065615
11
17.655842
21
55.995912
0
LINE
8
Layer 1
10
17.655842
20
55.995912
11
17.855693
21
56.150262
0
LINE
8
Layer 1
10
17.855693
20
56.150262
11
17.795900
21
56.150200
0
LINE
8
Layer 1
10
17.795900
20
56.150200
11
17.655826
21
56.044029
0
LINE
8
Layer 1
10
17.655826
20
56.044029
11
17.500584
21
56.226929
0
LINE
8
Layer 1
10
17.500584
20
56.226929
11
17.859262
21
56.226990
0
LINE
8
Capa 1
10
23.088900
20
35.476200
11
25.911100
21
35.476200
0
LINE
8
Capa 1
10
25.911100
20
35.476200
11
25.911100
21
21.365600
0
LINE
8
Capa 1
10
25.911100
20
21.365600
11
26.701400
21
21.365600
0
LINE
8
Capa 1
10
26.701400
20
21.365600
11
26.701400
21
35.476200
0
LINE
8
Capa 1
10
26.701400
20
35.476200
11
29.523600
21
35.476200
0
LINE
8
Capa 1
10
29.523600
20
35.476200
11
29.523600
21
21.365600
0
LINE
8
Capa 1
10
29.523600
20
21.365600
11
30.342000
21
21.365600
0
LINE
8
Capa 1
10
30.342000
20
21.365600
11
30.342000
21
35.476200
0
LINE
8
Capa 1
10
30.342000
20
35.476200
11
33.164300
21
35.476200
0
LINE
8
Capa 1
10
33.164300
20
35.476200
11
33.164300
21
21.365600
0
LINE
8
Capa 1
10
33.164300
20
21.365600
11
34.010900
21
21.365600
0
LINE
8
Capa 1
10
34.010900
20
21.365600
11
34.010900
21
35.476200
0
LINE
8
Capa 1
10
34.010900
20
35.476200
11
36.833200
21
35.476200
0
LINE
8
Capa 1
10
36.833200
20
35.476200
11
36.833200
21
21.365600
0
LINE
8
Capa 1
10
36.833200
20
21.365600
11
37.708000
21
21.365600
0
LINE
8
Capa 1
10
37.708000
20
21.365600
11
37.708000
21
35.476200
0
LINE
8
Capa 1
10
23.162400
20
21.365600
11
22.400378
21
21.361113
0
LINE
8
Capa 1
10
22.400300
20
21.361100
11
22.400300
21
35.472500
0
LINE
8
Capa 1
10
22.400300
20
35.472500
11
19.578100
21
35.472500
0
LINE
8
Capa 1
10
19.578100
20
35.472500
11
19.578100
21
21.361100
0
LINE
8
Capa 1
10
19.578100
20
21.361100
11
18.844300
21
21.361100
0
LINE
8
Capa 1
10
18.844300
20
21.361100
11
18.844300
21
35.472500
0
LINE
8
Capa 1
10
18.844300
20
35.472500
11
16.022100
21
35.472500
0
LINE
8
Capa 1
10
16.022100
20
35.472500
11
16.022100
21
21.361100
0
LINE
8
Capa 1
10
16.022100
20
21.361100
11
15.316600
21
21.361100
0
LINE
8
Capa 1
10
15.316600
20
21.361100
11
15.316600
21
35.472500
0
LINE
8
Capa 1
10
37.708000
20
35.476200
11
40.530200
21
35.476200
0
LINE
8
Capa 1
10
15.316600
20
35.472500
11
9.672170
21
35.472500
0
LINE
8
Capa 1
10
9.672170
20
35.472500
11
9.672170
21
7.602910
0
LINE
8
Capa 1
10
50.831300
20
7.602910
11
9.672170
21
7.602910
0
LINE
8
Capa 1
10
23.088900
20
35.476200
11
23.162303
21
21.365600
0
LINE
8
Capa 1
10
40.530200
20
35.476200
11
40.530200
21
21.365600
0
LINE
8
Capa 1
10
40.530200
20
21.365600
11
41.433400
21
21.365600
0
LINE
8
Capa 1
10
41.433400
20
21.365600
11
41.433400
21
35.476200
0
LINE
8
Capa 1
10
41.433400
20
35.476200
11
44.255600
21
35.476200
0
LINE
8
Capa 1
10
44.255600
20
35.476200
11
44.255600
21
21.365600
0
LINE
8
Capa 1
10
44.255600
20
21.365600
11
45.186900
21
21.365600
0
LINE
8
Capa 1
10
45.186900
20
21.365600
11
45.186900
21
35.476200
0
LINE
8
Capa 1
10
45.186900
20
35.476200
11
50.831300
21
35.476200
0
LINE
8
Capa 1
10
50.831300
20
35.476200
11
50.831300
21
7.602910
0
LINE
8
Layer 1
10
13.210900
20
76.512800
11
13.210900
21
77.054300
0
LINE
8
Layer 1
10
13.210900
20
77.054300
11
13.473100
21
77.054300
0
LINE
8
Layer 1
10
13.473100
20
77.054300
11
13.793030
21
77.122628
0
LINE
8
Layer 1
10
13.793030
20
77.122628
11
13.943097
21
77.396581
0
LINE
8
Layer 1
10
13.943097
20
77.396581
11
13.862423
21
77.636688
0
LINE
8
Layer 1
10
13.862423
20
77.636688
11
13.542918
21
77.738862
0
LINE
8
Layer 1
10
13.542918
20
77.738862
11
13.095100
21
77.738900
0
LINE
8
Layer 1
10
13.095100
20
77.738900
11
13.095100
21
76.512800
0
LINE
8
Layer 1
10
13.095100
20
76.512800
11
13.210900
21
76.512800
0
LINE
8
Layer 1
10
13.210900
20
77.153086
11
13.210900
21
77.640100
0
LINE
8
Layer 1
10
13.210900
20
77.640100
11
13.510600
21
77.640100
0
LINE
8
Layer 1
10
13.510600
20
77.640100
11
13.750707
21
77.580073
0
LINE
8
Layer 1
10
13.750707
20
77.580073
11
13.827337
21
77.405101
0
LINE
8
Layer 1
10
13.827337
20
77.405101
11
13.733040
21
77.201180
0
LINE
8
Layer 1
10
13.733040
20
77.201180
11
13.476542
21
77.153074
0
LINE
8
Layer 1
10
13.476542
20
77.153074
11
13.210900
21
77.153086
0
LINE
8
Layer 1
10
14.232600
20
76.945400
11
14.291988
21
77.202749
0
LINE
8
Layer 1
10
14.291988
20
77.202749
11
14.523794
21
77.308115
0
LINE
8
Layer 1
10
14.523794
20
77.308115
11
14.523800
21
77.418800
0
LINE
8
Layer 1
10
14.523800
20
77.418800
11
14.236012
21
77.229780
0
LINE
8
Layer 1
10
14.236012
20
77.229780
11
14.232600
21
77.229700
0
LINE
8
Layer 1
10
14.232600
20
77.229700
11
14.232600
21
77.394900
0
LINE
8
Layer 1
10
14.232600
20
77.394900
11
14.130400
21
77.394900
0
LINE
8
Layer 1
10
14.130400
20
77.394900
11
14.130400
21
76.512800
0
LINE
8
Layer 1
10
14.130400
20
76.512800
11
14.232600
21
76.512800
0
LINE
8
Layer 1
10
14.232600
20
76.512800
11
14.232600
21
76.945400
0
LINE
8
Layer 1
10
14.724700
20
77.015200
11
14.812825
21
77.233596
0
LINE
8
Layer 1
10
14.812825
20
77.233596
11
15.021003
21
77.326829
0
LINE
8
Layer 1
10
15.021003
20
77.326829
11
15.229607
21
77.235512
0
LINE
8
Layer 1
10
15.229607
20
77.235512
11
15.300277
21
77.015200
0
LINE
8
Layer 1
10
15.300277
20
77.015200
11
14.724700
21
77.015200
0
LINE
8
Layer 1
10
15.409261
20
76.930056
11
15.306446
21
77.293196
0
LINE
8
Layer 1
10
15.306446
20
77.293196
11
15.021003
21
77.418785
0
LINE
8
Layer 1
10
15.021003
20
77.418785
11
14.723849
21
77.281064
0
LINE
8
Layer 1
10
14.723849
20
77.281064
11
14.615716
21
76.950491
0
LINE
8
Layer 1
10
14.615716
20
76.950491
11
14.712355
21
76.622046
0
LINE
8
Layer 1
10
14.712355
20
76.622046
11
15.021003
21
76.489008
0
LINE
8
Layer 1
10
15.021003
20
76.489008
11
15.276862
21
76.573726
0
LINE
8
Layer 1
10
15.276862
20
76.573726
11
15.402450
21
76.783608
0
LINE
8
Layer 1
10
15.402450
20
76.783608
11
15.288400
21
76.783600
0
LINE
8
Layer 1
10
15.288400
20
76.783600
11
15.021047
21
76.580956
0
LINE
8
Layer 1
10
15.021047
20
76.580956
11
14.798820
21
76.683981
0
LINE
8
Layer 1
10
14.798820
20
76.683981
11
14.724744
21
76.930048
0
LINE
8
Layer 1
10
14.724744
20
76.930048
11
15.409261
21
76.930056
0
LINE
8
Layer 1
10
15.564300
20
76.788700
11
15.657320
21
76.576265
0
LINE
8
Layer 1
10
15.657320
20
76.576265
11
15.899769
21
76.488992
0
LINE
8
Layer 1
10
15.899769
20
76.488992
11
16.157331
21
76.554340
0
LINE
8
Layer 1
10
16.157331
20
76.554340
11
16.259079
21
76.746128
0
LINE
8
Layer 1
10
16.259079
20
76.746128
11
16.170742
21
76.922377
0
LINE
8
Layer 1
10
16.170742
20
76.922377
11
15.976399
21
76.997730
0
LINE
8
Layer 1
10
15.976399
20
76.997730
11
15.782057
21
77.054564
0
LINE
8
Layer 1
10
15.782057
20
77.054564
11
15.693720
21
77.175256
0
LINE
8
Layer 1
10
15.693720
20
77.175256
11
15.892958
21
77.326813
0
LINE
8
Layer 1
10
15.892958
20
77.326813
11
16.131362
21
77.141198
0
LINE
8
Layer 1
10
16.131362
20
77.141198
11
16.235200
21
77.141200
0
LINE
8
Layer 1
10
16.235200
20
77.141200
11
16.126854
21
77.354700
0
LINE
8
Layer 1
10
16.126854
20
77.354700
11
15.894622
21
77.418771
0
LINE
8
Layer 1
10
15.894622
20
77.418771
11
15.666222
21
77.347675
0
LINE
8
Layer 1
10
15.666222
20
77.347675
11
15.584696
21
77.166744
0
LINE
8
Layer 1
10
15.584696
20
77.166744
11
15.673033
21
76.990123
0
LINE
8
Layer 1
10
15.673033
20
76.990123
11
15.867375
21
76.921102
0
LINE
8
Layer 1
10
15.867375
20
76.921102
11
16.061718
21
76.869324
0
LINE
8
Layer 1
10
16.061718
20
76.869324
11
16.150055
21
76.744428
0
LINE
8
Layer 1
10
16.150055
20
76.744428
11
15.932085
21
76.580951
0
LINE
8
Layer 1
10
15.932085
20
76.580951
11
15.668137
21
76.788703
0
LINE
8
Layer 1
10
15.668137
20
76.788703
11
15.564300
21
76.788700
0
LINE
8
Layer 1
10
16.415700
20
76.788700
11
16.508720
21
76.576265
0
LINE
8
Layer 1
10
16.508720
20
76.576265
11
16.751169
21
76.488992
0
LINE
8
Layer 1
10
16.751169
20
76.488992
11
17.008731
21
76.554340
0
LINE
8
Layer 1
10
17.008731
20
76.554340
11
17.110478
21
76.746128
0
LINE
8
Layer 1
10
17.110478
20
76.746128
11
17.022141
21
76.922377
0
LINE
8
Layer 1
10
17.022141
20
76.922377
11
16.827799
21
76.997730
0
LINE
8
Layer 1
10
16.827799
20
76.997730
11
16.633456
21
77.054564
0
LINE
8
Layer 1
10
16.633456
20
77.054564
11
16.545119
21
77.175256
0
LINE
8
Layer 1
10
16.545119
20
77.175256
11
16.744357
21
77.326813
0
LINE
8
Layer 1
10
16.744357
20
77.326813
11
16.982761
21
77.141198
0
LINE
8
Layer 1
10
16.982761
20
77.141198
11
17.086600
21
77.141200
0
LINE
8
Layer 1
10
17.086600
20
77.141200
11
16.978254
21
77.354700
0
LINE
8
Layer 1
10
16.978254
20
77.354700
11
16.746022
21
77.418771
0
LINE
8
Layer 1
10
16.746022
20
77.418771
11
16.517623
21
77.347675
0
LINE
8
Layer 1
10
16.517623
20
77.347675
11
16.436097
21
77.166744
0
LINE
8
Layer 1
10
16.436097
20
77.166744
11
16.524434
21
76.990123
0
LINE
8
Layer 1
10
16.524434
20
76.990123
11
16.718777
21
76.921102
0
LINE
8
Layer 1
10
16.718777
20
76.921102
11
16.913119
21
76.869324
0
LINE
8
Layer 1
10
16.913119
20
76.869324
11
17.001456
21
76.744428
0
LINE
8
Layer 1
10
17.001456
20
76.744428
11
16.783486
21
76.580951
0
LINE
8
Layer 1
10
16.783486
20
76.580951
11
16.519538
21
76.788703
0
LINE
8
Layer 1
10
16.519538
20
76.788703
11
16.415700
21
76.788700
0
LINE
8
Layer 1
10
17.827400
20
77.309800
11
17.827400
21
76.512800
0
LINE
8
Layer 1
10
17.827400
20
76.512800
11
17.929600
21
76.512800
0
LINE
8
Layer 1
10
17.929600
20
76.512800
11
17.929600
21
77.309800
0
LINE
8
Layer 1
10
17.929600
20
77.309800
11
18.099900
21
77.309800
0
LINE
8
Layer 1
10
18.099900
20
77.309800
11
18.099900
21
77.394900
0
LINE
8
Layer 1
10
18.099900
20
77.394900
11
17.929600
21
77.394900
0
LINE
8
Layer 1
10
17.929600
20
77.394900
11
17.929600
21
77.503900
0
LINE
8
Layer 1
10
17.929600
20
77.503900
11
18.038585
21
77.670783
0
LINE
8
Layer 1
10
18.038585
20
77.670783
11
18.099889
21
77.662268
0
LINE
8
Layer 1
10
18.099889
20
77.662268
11
18.099900
21
77.755900
0
LINE
8
Layer 1
10
18.099900
20
77.755900
11
18.014756
21
77.762713
0
LINE
8
Layer 1
10
18.014756
20
77.762713
11
17.870010
21
77.700983
0
LINE
8
Layer 1
10
17.870010
20
77.700983
11
17.827438
21
77.534526
0
LINE
8
Layer 1
10
17.827438
20
77.534526
11
17.827400
21
77.394900
0
LINE
8
Layer 1
10
17.827400
20
77.394900
11
17.696300
21
77.394900
0
LINE
8
Layer 1
10
17.696300
20
77.394900
11
17.696300
21
77.309800
0
LINE
8
Layer 1
10
17.696300
20
77.309800
11
17.827400
21
77.309800
0
LINE
8
Layer 1
10
18.375700
20
76.512800
11
18.375700
21
77.394900
0
LINE
8
Layer 1
10
18.375700
20
77.394900
11
18.273600
21
77.394900
0
LINE
8
Layer 1
10
18.273600
20
77.394900
11
18.273600
21
76.512800
0
LINE
8
Layer 1
10
18.273600
20
76.512800
11
18.375700
21
76.512800
0
LINE
8
Layer 1
10
18.380808
20
77.587320
11
18.380800
21
77.738900
0
LINE
8
Layer 1
10
18.380800
20
77.738900
11
18.268500
21
77.738900
0
LINE
8
Layer 1
10
18.268500
20
77.738900
11
18.268500
21
77.587300
0
LINE
8
Layer 1
10
18.268500
20
77.587300
11
18.380808
21
77.587320
0
LINE
8
Layer 1
10
18.946200
20
76.592900
11
18.862759
21
76.580979
0
LINE
8
Layer 1
10
18.862759
20
76.580979
11
18.774208
21
76.705290
0
LINE
8
Layer 1
10
18.774208
20
76.705290
11
18.774200
21
77.309800
0
LINE
8
Layer 1
10
18.774200
20
77.309800
11
18.939400
21
77.309800
0
LINE
8
Layer 1
10
18.939400
20
77.309800
11
18.939400
21
77.394900
0
LINE
8
Layer 1
10
18.939400
20
77.394900
11
18.774200
21
77.394900
0
LINE
8
Layer 1
10
18.774200
20
77.394900
11
18.774200
21
77.640100
0
LINE
8
Layer 1
10
18.774200
20
77.640100
11
18.672000
21
77.640100
0
LINE
8
Layer 1
10
18.672000
20
77.640100
11
18.672000
21
77.394900
0
LINE
8
Layer 1
10
18.672000
20
77.394900
11
18.547700
21
77.394900
0
LINE
8
Layer 1
10
18.547700
20
77.394900
11
18.547700
21
77.309800
0
LINE
8
Layer 1
10
18.547700
20
77.309800
11
18.672000
21
77.309800
0
LINE
8
Layer 1
10
18.672000
20
77.309800
11
18.672000
21
76.664400
0
LINE
8
Layer 1
10
18.672000
20
76.664400
11
18.828666
21
76.489002
0
LINE
8
Layer 1
10
18.828666
20
76.489002
11
18.946165
21
76.509438
0
LINE
8
Layer 1
10
18.946165
20
76.509438
11
18.946200
21
76.592900
0
LINE
8
Layer 1
10
19.893000
20
76.592900
11
19.809559
21
76.580979
0
LINE
8
Layer 1
10
19.809559
20
76.580979
11
19.721008
21
76.705290
0
LINE
8
Layer 1
10
19.721008
20
76.705290
11
19.721000
21
77.309800
0
LINE
8
Layer 1
10
19.721000
20
77.309800
11
19.886200
21
77.309800
0
LINE
8
Layer 1
10
19.886200
20
77.309800
11
19.886200
21
77.394900
0
LINE
8
Layer 1
10
19.886200
20
77.394900
11
19.721000
21
77.394900
0
LINE
8
Layer 1
10
19.721000
20
77.394900
11
19.721000
21
77.640100
0
LINE
8
Layer 1
10
19.721000
20
77.640100
11
19.618800
21
77.640100
0
LINE
8
Layer 1
10
19.618800
20
77.640100
11
19.618800
21
77.394900
0
LINE
8
Layer 1
10
19.618800
20
77.394900
11
19.494500
21
77.394900
0
LINE
8
Layer 1
10
19.494500
20
77.394900
11
19.494500
21
77.309800
0
LINE
8
Layer 1
10
19.494500
20
77.309800
11
19.618800
21
77.309800
0
LINE
8
Layer 1
10
19.618800
20
77.309800
11
19.618800
21
76.664400
0
LINE
8
Layer 1
10
19.618800
20
76.664400
11
19.775466
21
76.489002
0
LINE
8
Layer 1
10
19.775466
20
76.489002
11
19.892965
21
76.509438
0
LINE
8
Layer 1
10
19.892965
20
76.509438
11
19.893000
21
76.592900
0
LINE
8
Layer 1
10
20.119500
20
77.015200
11
20.207625
21
77.233596
0
LINE
8
Layer 1
10
20.207625
20
77.233596
11
20.415802
21
77.326829
0
LINE
8
Layer 1
10
20.415802
20
77.326829
11
20.624406
21
77.235512
0
LINE
8
Layer 1
10
20.624406
20
77.235512
11
20.695076
21
77.015200
0
LINE
8
Layer 1
10
20.695076
20
77.015200
11
20.119500
21
77.015200
0
LINE
8
Layer 1
10
20.804061
20
76.930056
11
20.701246
21
77.293196
0
LINE
8
Layer 1
10
20.701246
20
77.293196
11
20.415803
21
77.418785
0
LINE
8
Layer 1
10
20.415803
20
77.418785
11
20.118649
21
77.281064
0
LINE
8
Layer 1
10
20.118649
20
77.281064
11
20.010516
21
76.950491
0
LINE
8
Layer 1
10
20.010516
20
76.950491
11
20.107155
21
76.622046
0
LINE
8
Layer 1
10
20.107155
20
76.622046
11
20.415803
21
76.489008
0
LINE
8
Layer 1
10
20.415803
20
76.489008
11
20.671662
21
76.573726
0
LINE
8
Layer 1
10
20.671662
20
76.573726
11
20.797250
21
76.783608
0
LINE
8
Layer 1
10
20.797250
20
76.783608
11
20.683100
21
76.783600
0
LINE
8
Layer 1
10
20.683100
20
76.783600
11
20.415747
21
76.580956
0
LINE
8
Layer 1
10
20.415747
20
76.580956
11
20.193520
21
76.683981
0
LINE
8
Layer 1
10
20.193520
20
76.683981
11
20.119445
21
76.930048
0
LINE
8
Layer 1
10
20.119445
20
76.930048
11
20.804061
21
76.930056
0
LINE
8
Layer 1
10
20.959000
20
76.788700
11
21.052020
21
76.576265
0
LINE
8
Layer 1
10
21.052020
20
76.576265
11
21.294469
21
76.488992
0
LINE
8
Layer 1
10
21.294469
20
76.488992
11
21.552030
21
76.554340
0
LINE
8
Layer 1
10
21.552030
20
76.554340
11
21.653778
21
76.746128
0
LINE
8
Layer 1
10
21.653778
20
76.746128
11
21.565441
21
76.922377
0
LINE
8
Layer 1
10
21.565441
20
76.922377
11
21.371098
21
76.997730
0
LINE
8
Layer 1
10
21.371098
20
76.997730
11
21.176756
21
77.054564
0
LINE
8
Layer 1
10
21.176756
20
77.054564
11
21.088419
21
77.175256
0
LINE
8
Layer 1
10
21.088419
20
77.175256
11
21.287657
21
77.326813
0
LINE
8
Layer 1
10
21.287657
20
77.326813
11
21.526061
21
77.141198
0
LINE
8
Layer 1
10
21.526061
20
77.141198
11
21.630000
21
77.141200
0
LINE
8
Layer 1
10
21.630000
20
77.141200
11
21.521654
21
77.354700
0
LINE
8
Layer 1
10
21.521654
20
77.354700
11
21.289422
21
77.418771
0
LINE
8
Layer 1
10
21.289422
20
77.418771
11
21.061022
21
77.347675
0
LINE
8
Layer 1
10
21.061022
20
77.347675
11
20.979497
21
77.166744
0
LINE
8
Layer 1
10
20.979497
20
77.166744
11
21.067834
21
76.990123
0
LINE
8
Layer 1
10
21.067834
20
76.990123
11
21.262176
21
76.921102
0
LINE
8
Layer 1
10
21.262176
20
76.921102
11
21.456519
21
76.869324
0
LINE
8
Layer 1
10
21.456519
20
76.869324
11
21.544856
21
76.744428
0
LINE
8
Layer 1
10
21.544856
20
76.744428
11
21.326886
21
76.580951
0
LINE
8
Layer 1
10
21.326886
20
76.580951
11
21.062938
21
76.788703
0
LINE
8
Layer 1
10
21.062938
20
76.788703
11
20.959000
21
76.788700
0
LINE
8
Layer 1
10
22.164700
20
76.592900
11
22.081259
21
76.580979
0
LINE
8
Layer 1
10
22.081259
20
76.580979
11
21.992708
21
76.705290
0
LINE
8
Layer 1
10
21.992708
20
76.705290
11
21.992700
21
77.309800
0
LINE
8
Layer 1
10
21.992700
20
77.309800
11
22.157800
21
77.309800
0
LINE
8
Layer 1
10
22.157800
20
77.309800
11
22.157800
21
77.394900
0
LINE
8
Layer 1
10
22.157800
20
77.394900
11
21.992700
21
77.394900
0
LINE
8
Layer 1
10
21.992700
20
77.394900
11
21.992700
21
77.640100
0
LINE
8
Layer 1
10
21.992700
20
77.640100
11
21.890500
21
77.640100
0
LINE
8
Layer 1
10
21.890500
20
77.640100
11
21.890500
21
77.394900
0
LINE
8
Layer 1
10
21.890500
20
77.394900
11
21.766200
21
77.394900
0
LINE
8
Layer 1
10
21.766200
20
77.394900
11
21.766200
21
77.309800
0
LINE
8
Layer 1
10
21.766200
20
77.309800
11
21.890500
21
77.309800
0
LINE
8
Layer 1
10
21.890500
20
77.309800
11
21.890500
21
76.664400
0
LINE
8
Layer 1
10
21.890500
20
76.664400
11
22.047166
21
76.489002
0
LINE
8
Layer 1
10
22.047166
20
76.489002
11
22.164665
21
76.509438
0
LINE
8
Layer 1
10
22.164665
20
76.509438
11
22.164700
21
76.592900
 0 
ENDSEC
 0 
EOF