0
SECTION
2
HEADER
9
$INSUNITS
70
4
9
$ACADVER
1
AC1014
9
$HANDSEED
5
FFFF
0
ENDSEC
0
SECTION
2
TABLES
0
TABLE
2
VPORT
5
8
100
AcDbSymbolTable
0
ENDTAB
0
TABLE
2
LTYPE
5
5
100
AcDbSymbolTable
0
LTYPE
5
14
100
AcDbSymbolTableRecord
100
AcDbLinetypeTableRecord
2
BYBLOCK
70
0
0
LTYPE
5
15
100
AcDbSymbolTableRecord
100
AcDbLinetypeTableRecord
2
BYLAYER
70
0
0
ENDTAB
0
TABLE
2
LAYER
5
2
100
AcDbSymbolTable
70
2
0
LAYER
5
50
100
AcDbSymbolTableRecord
100
AcDbLayerTableRecord
2
0
70
0
6
CONTINUOUS
0
ENDTAB
0
TABLE
2
STYLE
5
3
100
AcDbSymbolTable
70
1
0
STYLE
5
11
100
AcDbSymbolTableRecord
100
AcDbTextStyleTableRecord
2
STANDARD
70
0
0
ENDTAB
0
TABLE
2
VIEW
5
6
100
AcDbSymbolTable
70
0
0
ENDTAB
0
TABLE
2
UCS
5
7
100
AcDbSymbolTable
70
0
0
ENDTAB
0
TABLE
2
APPID
5
9
100
AcDbSymbolTable
70
2
0
APPID
5
12
100
AcDbSymbolTableRecord
100
AcDbRegAppTableRecord
2
ACAD
70
0
0
ENDTAB
0
TABLE
2
DIMSTYLE
5
A
100
AcDbSymbolTable
70
1
0
ENDTAB
0
TABLE
2
BLOCK_RECORD
5
1
100
AcDbSymbolTable
70
1
0
BLOCK_RECORD
5
1F
100
AcDbSymbolTableRecord
100
AcDbBlockTableRecord
2
*MODEL_SPACE
0
BLOCK_RECORD
5
1B
100
AcDbSymbolTableRecord
100
AcDbBlockTableRecord
2
*PAPER_SPACE
0
ENDTAB
0
ENDSEC
0
SECTION
2
BLOCKS
0
BLOCK
5
20
100
AcDbEntity
100
AcDbBlockBegin
2
*MODEL_SPACE
0
ENDBLK
5
21
100
AcDbEntity
100
AcDbBlockEnd
0
BLOCK
5
1C
100
AcDbEntity
100
AcDbBlockBegin
2
*PAPER_SPACE
0
ENDBLK
5
1D
100
AcDbEntity
100
AcDbBlockEnd
0
ENDSEC
0
SECTION
2
ENTITIES
0
LINE
5
100
100
AcDbEntity
8
0
100
AcDbLine
10
-191.80000000000018
20
-127.83834366628797
30
0
11
-181.80000000000018
21
-127.83834366628797
31
0
0
LINE
5
101
100
AcDbEntity
8
0
100
AcDbLine
10
-181.80000000000018
20
-127.83834366628797
30
0
11
-181.80000000000013
21
-177.83834366628795
31
0
0
LINE
5
102
100
AcDbEntity
8
0
100
AcDbLine
10
-181.80000000000013
20
-177.83834366628795
30
0
11
-179.00000000000011
21
-177.83834366628795
31
0
0
LINE
5
103
100
AcDbEntity
8
0
100
AcDbLine
10
-179.00000000000011
20
-177.83834366628795
30
0
11
-179.00000000000011
21
-127.83834366628797
31
0
0
LINE
5
104
100
AcDbEntity
8
0
100
AcDbLine
10
-179.00000000000011
20
-127.83834366628797
30
0
11
-169.00000000000011
21
-127.83834366628797
31
0
0
LINE
5
105
100
AcDbEntity
8
0
100
AcDbLine
10
-169.00000000000011
20
-127.83834366628797
30
0
11
-169.00000000000009
21
-177.83834366628795
31
0
0
LINE
5
106
100
AcDbEntity
8
0
100
AcDbLine
10
-169.00000000000009
20
-177.83834366628795
30
0
11
-166.10000000000011
21
-177.83834366628795
31
0
0
LINE
5
107
100
AcDbEntity
8
0
100
AcDbLine
10
-166.10000000000011
20
-177.83834366628795
30
0
11
-166.10000000000011
21
-127.83834366628797
31
0
0
LINE
5
108
100
AcDbEntity
8
0
100
AcDbLine
10
-166.10000000000011
20
-127.83834366628797
30
0
11
-156.10000000000011
21
-127.83834366628797
31
0
0
LINE
5
109
100
AcDbEntity
8
0
100
AcDbLine
10
-156.10000000000011
20
-127.83834366628797
30
0
11
-156.10000000000008
21
-177.83834366628795
31
0
0
LINE
5
110
100
AcDbEntity
8
0
100
AcDbLine
10
-156.10000000000008
20
-177.83834366628795
30
0
11
-153.10000000000005
21
-177.83834366628795
31
0
0
LINE
5
111
100
AcDbEntity
8
0
100
AcDbLine
10
-153.10000000000005
20
-177.83834366628795
30
0
11
-153.10000000000005
21
-127.83834366628797
31
0
0
LINE
5
112
100
AcDbEntity
8
0
100
AcDbLine
10
-153.10000000000005
20
-127.83834366628797
30
0
11
-143.10000000000005
21
-127.83834366628797
31
0
0
LINE
5
113
100
AcDbEntity
8
0
100
AcDbLine
10
-143.10000000000005
20
-127.83834366628797
30
0
11
-143.10000000000002
21
-177.83834366628795
31
0
0
LINE
5
114
100
AcDbEntity
8
0
100
AcDbLine
10
-143.10000000000002
20
-177.83834366628795
30
0
11
-140.00000000000003
21
-177.83834366628795
31
0
0
LINE
5
115
100
AcDbEntity
8
0
100
AcDbLine
10
-140.00000000000003
20
-177.83834366628795
30
0
11
-140
21
-127.83834366628795
31
0
0
LINE
5
116
100
AcDbEntity
8
0
100
AcDbLine
10
-191.53982957762287
20
-177.83766677521936
30
0
11
-194.23979302550518
21
-177.8517159780277
31
0
0
LINE
5
117
100
AcDbEntity
8
0
100
AcDbLine
10
-194.23979302550518
20
-177.8517159780277
30
0
11
-194.23979302550518
21
-127.85171597802771
31
0
0
LINE
5
118
100
AcDbEntity
8
0
100
AcDbLine
10
-194.23979302550518
20
-127.85171597802771
30
0
11
-204.23979302550518
21
-127.85171597802773
31
0
0
LINE
5
119
100
AcDbEntity
8
0
100
AcDbLine
10
-204.23979302550518
20
-127.85171597802773
30
0
11
-204.23979302550515
21
-177.8517159780277
31
0
0
LINE
5
120
100
AcDbEntity
8
0
100
AcDbLine
10
-204.23979302550515
20
-177.8517159780277
30
0
11
-206.83979302550514
21
-177.8517159780277
31
0
0
LINE
5
121
100
AcDbEntity
8
0
100
AcDbLine
10
-206.83979302550514
20
-177.8517159780277
30
0
11
-206.83979302550514
21
-127.85171597802773
31
0
0
LINE
5
122
100
AcDbEntity
8
0
100
AcDbLine
10
-206.83979302550514
20
-127.85171597802773
30
0
11
-216.83979302550514
21
-127.85171597802776
31
0
0
LINE
5
123
100
AcDbEntity
8
0
100
AcDbLine
10
-216.83979302550514
20
-127.85171597802776
30
0
11
-216.83979302550512
21
-177.85171597802773
31
0
0
LINE
5
124
100
AcDbEntity
8
0
100
AcDbLine
10
-216.83979302550512
20
-177.85171597802773
30
0
11
-219.33979302550512
21
-177.85171597802773
31
0
0
LINE
5
125
100
AcDbEntity
8
0
100
AcDbLine
10
-219.33979302550512
20
-177.85171597802773
30
0
11
-219.33979302550517
21
-127.85171597802773
31
0
0
LINE
5
126
100
AcDbEntity
8
0
100
AcDbLine
10
-140
20
-127.83834366628795
30
0
11
-120
21
-127.83834366628795
31
0
0
LINE
5
127
100
AcDbEntity
8
0
100
AcDbLine
10
-219.33979302550517
20
-127.85171597802773
30
0
11
-239.33979302550517
21
-127.85171597802776
31
0
0
LINE
5
128
100
AcDbEntity
8
0
100
AcDbLine
10
-239.33979302550517
20
-127.85171597802776
30
0
11
-239.339793025505
21
-226.60299793569914
31
0
0
LINE
5
129
100
AcDbEntity
8
0
100
AcDbLine
10
-93.499999999999815
20
-226.60299793569891
30
0
11
-239.339793025505
21
-226.60299793569914
31
0
0
LINE
5
130
100
AcDbEntity
8
0
100
AcDbLine
10
-191.80000000000018
20
-127.83834366628797
30
0
11
-191.53982957762287
21
-177.83766677521936
31
0
0
LINE
5
131
100
AcDbEntity
8
0
100
AcDbLine
10
-130
20
-127.83834366628795
30
0
11
-130
21
-177.83834366628795
31
0
0
LINE
5
132
100
AcDbEntity
8
0
100
AcDbLine
10
-130
20
-177.83834366628795
30
0
11
-126.8
21
-177.83834366628795
31
0
0
LINE
5
133
100
AcDbEntity
8
0
100
AcDbLine
10
-126.8
20
-177.83834366628795
30
0
11
-126.8
21
-127.83834366628795
31
0
0
LINE
5
134
100
AcDbEntity
8
0
100
AcDbLine
10
-126.8
20
-127.83834366628795
30
0
11
-116.8
21
-127.83834366628795
31
0
0
LINE
5
135
100
AcDbEntity
8
0
100
AcDbLine
10
-116.8
20
-127.83834366628795
30
0
11
-116.8
21
-177.83834366628795
31
0
0
LINE
5
136
100
AcDbEntity
8
0
100
AcDbLine
10
-116.8
20
-177.83834366628795
30
0
11
-113.5
21
-177.83834366628795
31
0
0
LINE
5
137
100
AcDbEntity
8
0
100
AcDbLine
10
-113.5
20
-177.83834366628795
30
0
11
-113.5
21
-127.83834366628795
31
0
0
LINE
5
138
100
AcDbEntity
8
0
100
AcDbLine
10
-113.5
20
-127.83834366628795
30
0
11
-93.5
21
-127.83834366628795
31
0
0
LINE
5
139
100
AcDbEntity
8
0
100
AcDbLine
10
-93.5
20
-127.83834366628795
30
0
11
-93.499999999999815
21
-226.60299793569891
31
0
0
ENDSEC
0
SECTION
2
OBJECTS
0
DICTIONARY
5
C
100
AcDbDictionary
3
ACAD_GROUP
350
D
3
ACAD_MLINESTYLE
350
17
0
DICTIONARY
5
D
100
AcDbDictionary
0
DICTIONARY
5
1A
330
C
100
AcDbDictionary
0
DICTIONARY
5
17
100
AcDbDictionary
0
ENDSEC
0
EOF
