999
"DXF R12 Output" (www.mydxf.blogspot.com)
 0 
SECTION
 2 
HEADER
 9 
$ACADVER
 1 
AC1009
 9 
$EXTMIN
 10 
 0 
 20 
 0 
 9 
$EXTMAX
 10 
 8.5 
 20 
 11 
 0 
ENDSEC
 0 
SECTION
 2 
ENTITIES
0
LINE
8
Capa 1
10
24.046900
20
23.395500
11
20.811150
21
24.192904
0
LINE
8
Capa 1
10
20.811150
20
24.192904
11
19.336421
21
24.824211
0
LINE
8
Capa 1
10
19.336421
20
24.824211
11
17.987090
21
25.591650
0
LINE
8
Capa 1
10
17.987090
20
25.591650
11
16.717357
21
26.524964
0
LINE
8
Capa 1
10
16.717357
20
26.524964
11
15.481420
21
27.653894
0
LINE
8
Capa 1
10
15.481420
20
27.653894
11
13.818882
21
29.605408
0
LINE
8
Capa 1
10
13.818882
20
29.605408
11
12.570941
21
31.735785
0
LINE
8
Capa 1
10
12.570941
20
31.735785
11
11.707617
21
34.108977
0
LINE
8
Capa 1
10
11.707617
20
34.108977
11
11.198930
21
36.788934
0
LINE
8
Capa 1
10
11.198930
20
36.788934
11
11.110388
21
37.172623
0
LINE
8
Capa 1
10
11.110388
20
37.172623
11
10.931890
21
37.323838
0
LINE
8
Capa 1
10
10.931890
20
37.323838
11
10.185198
21
37.898458
0
LINE
8
Capa 1
10
10.185198
20
37.898458
11
9.354200
21
38.871378
0
LINE
8
Capa 1
10
9.354200
20
38.871378
11
8.713136
21
39.639362
0
LINE
8
Capa 1
10
8.713136
20
39.639362
11
8.209250
21
39.955028
0
LINE
8
Capa 1
10
8.209250
20
39.955028
11
7.673525
21
40.314325
0
LINE
8
Capa 1
10
7.673525
20
40.314325
11
7.270766
21
40.792240
0
LINE
8
Capa 1
10
7.270766
20
40.792240
11
7.782424
21
41.038509
0
LINE
8
Capa 1
10
7.782424
20
41.038509
11
8.914966
21
41.149770
0
LINE
8
Capa 1
10
8.914966
20
41.149770
11
9.660250
21
41.227892
0
LINE
8
Capa 1
10
9.660250
20
41.227892
11
9.455861
21
41.887535
0
LINE
8
Capa 1
10
9.455861
20
41.887535
11
9.284383
21
42.787310
0
LINE
8
Capa 1
10
9.284383
20
42.787310
11
9.333877
21
43.086098
0
LINE
8
Capa 1
10
9.333877
20
43.086098
11
9.472710
21
43.219585
0
LINE
8
Capa 1
10
9.472710
20
43.219585
11
10.329077
21
42.772406
0
LINE
8
Capa 1
10
10.329077
20
42.772406
11
11.205360
21
41.873025
0
LINE
8
Capa 1
10
11.205360
20
41.873025
11
11.512637
21
41.361309
0
LINE
8
Capa 1
10
11.512637
20
41.361309
11
11.794421
21
42.299260
0
LINE
8
Capa 1
10
11.794421
20
42.299260
11
12.610558
21
44.345190
0
LINE
8
Capa 1
10
12.610558
20
44.345190
11
13.144911
21
45.543970
0
LINE
8
Capa 1
10
13.144911
20
45.543970
11
12.298637
21
46.496418
0
LINE
8
Capa 1
10
12.298637
20
46.496418
11
11.452363
21
47.530628
0
LINE
8
Capa 1
10
11.452363
20
47.530628
11
11.546465
21
47.655551
0
LINE
8
Capa 1
10
11.546465
20
47.655551
11
12.074623
21
47.560758
0
LINE
8
Capa 1
10
12.074623
20
47.560758
11
13.415033
21
47.159342
0
LINE
8
Capa 1
10
13.415033
20
47.159342
11
14.133187
21
46.900355
0
LINE
8
Capa 1
10
14.133187
20
46.900355
11
14.400816
21
47.235928
0
LINE
8
Capa 1
10
14.400816
20
47.235928
11
15.941796
21
48.812837
0
LINE
8
Capa 1
10
15.941796
20
48.812837
11
17.631666
21
50.198178
0
LINE
8
Capa 1
10
17.631666
20
50.198178
11
19.720694
21
51.376065
0
LINE
8
Capa 1
10
19.720694
20
51.376065
11
21.850896
21
52.168455
0
LINE
8
Capa 1
10
21.850896
20
52.168455
11
24.085107
21
52.592870
0
LINE
8
Capa 1
10
24.085107
20
52.592870
11
26.486166
21
52.666828
0
LINE
8
Capa 1
10
26.486166
20
52.666828
11
28.076788
21
52.543569
0
LINE
8
Capa 1
10
28.076788
20
52.543569
11
29.486214
21
52.282454
0
LINE
8
Capa 1
10
29.486214
20
52.282454
11
30.851704
21
51.849134
0
LINE
8
Capa 1
10
30.851704
20
51.849134
11
32.310516
21
51.209258
0
LINE
8
Capa 1
10
32.310516
20
51.209258
11
33.889182
21
50.322123
0
LINE
8
Capa 1
10
33.889182
20
50.322123
11
35.323196
21
49.271751
0
LINE
8
Capa 1
10
35.323196
20
49.271751
11
36.604373
21
48.069276
0
LINE
8
Capa 1
10
36.604373
20
48.069276
11
37.724528
21
46.725828
0
LINE
8
Capa 1
10
37.724528
20
46.725828
11
38.675477
21
45.252540
0
LINE
8
Capa 1
10
38.675477
20
45.252540
11
39.449034
21
43.660544
0
LINE
8
Capa 1
10
39.449034
20
43.660544
11
40.037016
21
41.960973
0
LINE
8
Capa 1
10
40.037016
20
41.960973
11
40.431236
21
40.164958
0
LINE
8
Capa 1
10
40.431236
20
40.164958
11
40.529681
21
38.106893
0
LINE
8
Capa 1
10
40.529681
20
38.106893
11
40.476549
21
36.135358
0
LINE
8
Capa 1
10
40.476549
20
36.135358
11
40.484775
21
35.929906
0
LINE
8
Capa 1
10
40.484775
20
35.929906
11
40.719585
21
35.664428
0
LINE
8
Capa 1
10
40.719585
20
35.664428
11
42.662149
21
34.280068
0
LINE
8
Capa 1
10
42.662149
20
34.280068
11
44.752278
21
32.714283
0
LINE
8
Capa 1
10
44.752278
20
32.714283
11
44.825385
21
32.388552
0
LINE
8
Capa 1
10
44.825385
20
32.388552
11
44.457039
21
32.118938
0
LINE
8
Capa 1
10
44.457039
20
32.118938
11
43.634037
21
31.760360
0
LINE
8
Capa 1
10
43.634037
20
31.760360
11
42.611511
21
31.505293
0
LINE
8
Capa 1
10
42.611511
20
31.505293
11
39.917529
21
31.296568
0
LINE
8
Capa 1
10
39.917529
20
31.296568
11
39.020899
21
31.188216
0
LINE
8
Capa 1
10
39.020899
20
31.188216
11
38.486999
21
30.446941
0
LINE
8
Capa 1
10
38.486999
20
30.446941
11
37.658993
21
29.207156
0
LINE
8
Capa 1
10
37.658993
20
29.207156
11
36.583945
21
27.952963
0
LINE
8
Capa 1
10
36.583945
20
27.952963
11
35.362939
21
26.790747
0
LINE
8
Capa 1
10
35.362939
20
26.790747
11
34.097059
21
25.826891
0
LINE
8
Capa 1
10
34.097059
20
25.826891
11
32.123409
21
24.701131
0
LINE
8
Capa 1
10
32.123409
20
24.701131
11
30.115281
21
23.921480
0
LINE
8
Capa 1
10
30.115281
20
23.921480
11
28.024834
21
23.473612
0
LINE
8
Capa 1
10
28.024834
20
23.473612
11
25.804229
21
23.343201
0
LINE
8
Capa 1
10
25.804229
20
23.343201
11
24.046899
21
23.395553
0
LINE
8
Capa 1
10
24.046899
20
23.395553
11
24.046900
21
23.395500
0
LINE
8
Capa 1
10
28.726300
20
24.163756
11
30.740062
21
24.755575
0
LINE
8
Capa 1
10
30.740062
20
24.755575
11
32.561662
21
25.585104
0
LINE
8
Capa 1
10
32.561662
20
25.585104
11
34.234407
21
26.676141
0
LINE
8
Capa 1
10
34.234407
20
26.676141
11
35.801600
21
28.052486
0
LINE
8
Capa 1
10
35.801600
20
28.052486
11
37.442914
21
29.940351
0
LINE
8
Capa 1
10
37.442914
20
29.940351
11
38.234440
21
31.246396
0
LINE
8
Capa 1
10
38.234440
20
31.246396
11
38.055011
21
31.471306
0
LINE
8
Capa 1
10
38.055011
20
31.471306
11
37.525687
21
31.619389
0
LINE
8
Capa 1
10
37.525687
20
31.619389
11
37.165397
21
31.674640
0
LINE
8
Capa 1
10
37.165397
20
31.674640
11
37.111481
21
31.080024
0
LINE
8
Capa 1
10
37.111481
20
31.080024
11
36.760257
21
29.887018
0
LINE
8
Capa 1
10
36.760257
20
29.887018
11
35.873391
21
28.936224
0
LINE
8
Capa 1
10
35.873391
20
28.936224
11
34.975374
21
28.320520
0
LINE
8
Capa 1
10
34.975374
20
28.320520
11
34.264730
21
28.000126
0
LINE
8
Capa 1
10
34.264730
20
28.000126
11
33.645434
21
27.948161
0
LINE
8
Capa 1
10
33.645434
20
27.948161
11
33.021461
21
28.137742
0
LINE
8
Capa 1
10
33.021461
20
28.137742
11
32.434987
21
28.336751
0
LINE
8
Capa 1
10
32.434987
20
28.336751
11
31.695681
21
28.338340
0
LINE
8
Capa 1
10
31.695681
20
28.338340
11
30.838820
21
28.358490
0
LINE
8
Capa 1
10
30.838820
20
28.358490
11
29.672131
21
28.656701
0
LINE
8
Capa 1
10
29.672131
20
28.656701
11
27.133311
21
29.403915
0
LINE
8
Capa 1
10
27.133311
20
29.403915
11
25.142081
21
30.099635
0
LINE
8
Capa 1
10
25.142081
20
30.099635
11
23.907194
21
30.466888
0
LINE
8
Capa 1
10
23.907194
20
30.466888
11
23.045261
21
30.352531
0
LINE
8
Capa 1
10
23.045261
20
30.352531
11
22.275642
21
30.214541
0
LINE
8
Capa 1
10
22.275642
20
30.214541
11
21.822912
21
30.201015
0
LINE
8
Capa 1
10
21.822912
20
30.201015
11
21.697600
21
29.912177
0
LINE
8
Capa 1
10
21.697600
20
29.912177
11
21.489762
21
29.432618
0
LINE
8
Capa 1
10
21.489762
20
29.432618
11
20.921070
21
29.154304
0
LINE
8
Capa 1
10
20.921070
20
29.154304
11
17.525610
21
28.922580
0
LINE
8
Capa 1
10
17.525610
20
28.922580
11
15.086350
21
28.853895
0
LINE
8
Capa 1
10
15.086350
20
28.853895
11
15.886344
21
28.057402
0
LINE
8
Capa 1
10
15.886344
20
28.057402
11
17.551617
21
26.616999
0
LINE
8
Capa 1
10
17.551617
20
26.616999
11
19.356238
21
25.486123
0
LINE
8
Capa 1
10
19.356238
20
25.486123
11
21.341600
21
24.643220
0
LINE
8
Capa 1
10
21.341600
20
24.643220
11
23.549094
21
24.066732
0
LINE
8
Capa 1
10
23.549094
20
24.066732
11
26.130462
21
23.964822
0
LINE
8
Capa 1
10
26.130462
20
23.964822
11
28.726304
21
24.163752
0
LINE
8
Capa 1
10
28.726304
20
24.163752
11
28.726300
21
24.163756
0
LINE
8
Capa 1
10
34.563390
20
28.654056
11
35.351143
21
29.207424
0
LINE
8
Capa 1
10
35.351143
20
29.207424
11
35.730430
21
29.752976
0
LINE
8
Capa 1
10
35.730430
20
29.752976
11
35.578998
21
29.971410
0
LINE
8
Capa 1
10
35.578998
20
29.971410
11
35.518603
21
29.795239
0
LINE
8
Capa 1
10
35.518603
20
29.795239
11
35.438565
21
29.502640
0
LINE
8
Capa 1
10
35.438565
20
29.502640
11
34.994875
21
29.403021
0
LINE
8
Capa 1
10
34.994875
20
29.403021
11
34.677421
21
29.308746
0
LINE
8
Capa 1
10
34.677421
20
29.308746
11
34.317881
21
28.953470
0
LINE
8
Capa 1
10
34.317881
20
28.953470
11
34.073177
21
28.528227
0
LINE
8
Capa 1
10
34.073177
20
28.528227
11
34.563389
21
28.654061
0
LINE
8
Capa 1
10
34.563389
20
28.654061
11
34.563390
21
28.654056
0
LINE
8
Capa 1
10
33.479730
20
28.808821
11
34.065301
21
29.501055
0
LINE
8
Capa 1
10
34.065301
20
29.501055
11
34.713634
21
30.350980
0
LINE
8
Capa 1
10
34.713634
20
30.350980
11
34.849348
21
30.952595
0
LINE
8
Capa 1
10
34.849348
20
30.952595
11
34.524702
21
31.988946
0
LINE
8
Capa 1
10
34.524702
20
31.988946
11
33.963910
21
32.926325
0
LINE
8
Capa 1
10
33.963910
20
32.926325
11
33.182355
21
33.232681
0
LINE
8
Capa 1
10
33.182355
20
33.232681
11
31.862500
21
33.521373
0
LINE
8
Capa 1
10
31.862500
20
33.521373
11
29.546960
21
33.977864
0
LINE
8
Capa 1
10
29.546960
20
33.977864
11
27.253250
21
34.379579
0
LINE
8
Capa 1
10
27.253250
20
34.379579
11
26.482378
21
34.155565
0
LINE
8
Capa 1
10
26.482378
20
34.155565
11
26.069340
21
33.856528
0
LINE
8
Capa 1
10
26.069340
20
33.856528
11
25.779653
21
33.421595
0
LINE
8
Capa 1
10
25.779653
20
33.421595
11
25.511819
21
32.014995
0
LINE
8
Capa 1
10
25.511819
20
32.014995
11
25.444485
21
31.094048
0
LINE
8
Capa 1
10
25.444485
20
31.094048
11
24.868713
21
31.284463
0
LINE
8
Capa 1
10
24.868713
20
31.284463
11
24.372555
21
31.418901
0
LINE
8
Capa 1
10
24.372555
20
31.418901
11
24.106414
21
31.328600
0
LINE
8
Capa 1
10
24.106414
20
31.328600
11
23.910203
21
31.085899
0
LINE
8
Capa 1
10
23.910203
20
31.085899
11
24.171363
21
30.931773
0
LINE
8
Capa 1
10
24.171363
20
30.931773
11
25.440773
21
30.473089
0
LINE
8
Capa 1
10
25.440773
20
30.473089
11
27.384998
21
29.854630
0
LINE
8
Capa 1
10
27.384998
20
29.854630
11
27.985462
21
29.839567
0
LINE
8
Capa 1
10
27.985462
20
29.839567
11
28.477403
21
29.998871
0
LINE
8
Capa 1
10
28.477403
20
29.998871
11
28.921465
21
30.197993
0
LINE
8
Capa 1
10
28.921465
20
30.197993
11
28.962543
21
30.060567
0
LINE
8
Capa 1
10
28.962543
20
30.060567
11
28.751198
21
29.799385
0
LINE
8
Capa 1
10
28.751198
20
29.799385
11
28.593978
21
29.550699
0
LINE
8
Capa 1
10
28.593978
20
29.550699
11
29.860739
21
29.113952
0
LINE
8
Capa 1
10
29.860739
20
29.113952
11
31.059771
21
28.801679
0
LINE
8
Capa 1
10
31.059771
20
28.801679
11
32.254498
21
28.754009
0
LINE
8
Capa 1
10
32.254498
20
28.754009
11
33.479738
21
28.808828
0
LINE
8
Capa 1
10
33.479738
20
28.808828
11
33.479730
21
28.808821
0
LINE
8
Capa 1
10
18.620830
20
29.490048
11
20.331160
21
29.592399
0
LINE
8
Capa 1
10
20.331160
20
29.592399
11
20.611281
21
29.854636
0
LINE
8
Capa 1
10
20.611281
20
29.854636
11
20.711628
21
30.503781
0
LINE
8
Capa 1
10
20.711628
20
30.503781
11
20.639513
21
31.057975
0
LINE
8
Capa 1
10
20.639513
20
31.057975
11
20.388961
21
30.871395
0
LINE
8
Capa 1
10
20.388961
20
30.871395
11
20.238073
21
30.711261
0
LINE
8
Capa 1
10
20.238073
20
30.711261
11
20.075705
21
30.786037
0
LINE
8
Capa 1
10
20.075705
20
30.786037
11
19.730958
21
31.332261
0
LINE
8
Capa 1
10
19.730958
20
31.332261
11
19.551634
21
31.741192
0
LINE
8
Capa 1
10
19.551634
20
31.741192
11
19.490899
21
31.026837
0
LINE
8
Capa 1
10
19.490899
20
31.026837
11
19.300386
21
30.093234
0
LINE
8
Capa 1
10
19.300386
20
30.093234
11
19.002990
21
29.700177
0
LINE
8
Capa 1
10
19.002990
20
29.700177
11
18.961417
21
30.173096
0
LINE
8
Capa 1
10
18.961417
20
30.173096
11
19.075035
21
31.951156
0
LINE
8
Capa 1
10
19.075035
20
31.951156
11
19.000932
21
32.141271
0
LINE
8
Capa 1
10
19.000932
20
32.141271
11
18.914201
21
32.084461
0
LINE
8
Capa 1
10
18.914201
20
32.084461
11
18.821481
21
31.634805
0
LINE
8
Capa 1
10
18.821481
20
31.634805
11
18.567992
21
30.563518
0
LINE
8
Capa 1
10
18.567992
20
30.563518
11
18.356973
21
30.178016
0
LINE
8
Capa 1
10
18.356973
20
30.178016
11
18.180706
21
30.109125
0
LINE
8
Capa 1
10
18.180706
20
30.109125
11
18.288111
21
30.918001
0
LINE
8
Capa 1
10
18.288111
20
30.918001
11
18.352476
21
33.407041
0
LINE
8
Capa 1
10
18.352476
20
33.407041
11
18.254694
21
34.875675
0
LINE
8
Capa 1
10
18.254694
20
34.875675
11
18.073032
21
35.154861
0
LINE
8
Capa 1
10
18.073032
20
35.154861
11
17.877974
21
35.076643
0
LINE
8
Capa 1
10
17.877974
20
35.076643
11
17.695582
21
34.681944
0
LINE
8
Capa 1
10
17.695582
20
34.681944
11
17.495178
21
34.248292
0
LINE
8
Capa 1
10
17.495178
20
34.248292
11
17.367217
21
34.208174
0
LINE
8
Capa 1
10
17.367217
20
34.208174
11
17.423657
21
35.146270
0
LINE
8
Capa 1
10
17.423657
20
35.146270
11
17.756991
21
38.747410
0
LINE
8
Capa 1
10
17.756991
20
38.747410
11
17.152622
21
39.354236
0
LINE
8
Capa 1
10
17.152622
20
39.354236
11
16.509031
21
39.675150
0
LINE
8
Capa 1
10
16.509031
20
39.675150
11
16.669227
21
39.150906
0
LINE
8
Capa 1
10
16.669227
20
39.150906
11
16.979768
21
38.347098
0
LINE
8
Capa 1
10
16.979768
20
38.347098
11
16.992991
21
37.677599
0
LINE
8
Capa 1
10
16.992991
20
37.677599
11
16.831547
21
36.805695
0
LINE
8
Capa 1
10
16.831547
20
36.805695
11
16.008789
21
34.549048
0
LINE
8
Capa 1
10
16.008789
20
34.549048
11
14.969929
21
33.279638
0
LINE
8
Capa 1
10
14.969929
20
33.279638
11
14.121239
21
32.546440
0
LINE
8
Capa 1
10
14.121239
20
32.546440
11
13.968955
21
32.513680
0
LINE
8
Capa 1
10
13.968955
20
32.513680
11
13.970290
21
32.687025
0
LINE
8
Capa 1
10
13.970290
20
32.687025
11
13.939455
21
32.853068
0
LINE
8
Capa 1
10
13.939455
20
32.853068
11
13.575359
21
32.886147
0
LINE
8
Capa 1
10
13.575359
20
32.886147
11
13.182041
21
33.009785
0
LINE
8
Capa 1
10
13.182041
20
33.009785
11
13.859171
21
33.310609
0
LINE
8
Capa 1
10
13.859171
20
33.310609
11
14.799956
21
33.747952
0
LINE
8
Capa 1
10
14.799956
20
33.747952
11
15.086401
21
33.990262
0
LINE
8
Capa 1
10
15.086401
20
33.990262
11
14.762923
21
33.928122
0
LINE
8
Capa 1
10
14.762923
20
33.928122
11
14.523122
21
33.922445
0
LINE
8
Capa 1
10
14.523122
20
33.922445
11
14.490519
21
34.016467
0
LINE
8
Capa 1
10
14.490519
20
34.016467
11
14.978638
21
34.365264
0
LINE
8
Capa 1
10
14.978638
20
34.365264
11
15.555365
21
34.797552
0
LINE
8
Capa 1
10
15.555365
20
34.797552
11
16.090201
21
36.061897
0
LINE
8
Capa 1
10
16.090201
20
36.061897
11
16.485856
21
37.437302
0
LINE
8
Capa 1
10
16.485856
20
37.437302
11
16.473974
21
38.270914
0
LINE
8
Capa 1
10
16.473974
20
38.270914
11
16.223038
21
38.991659
0
LINE
8
Capa 1
10
16.223038
20
38.991659
11
15.758314
21
39.554230
0
LINE
8
Capa 1
10
15.758314
20
39.554230
11
15.105066
21
39.913322
0
LINE
8
Capa 1
10
15.105066
20
39.913322
11
14.324318
21
40.267722
0
LINE
8
Capa 1
10
14.324318
20
40.267722
11
13.557832
21
40.457385
0
LINE
8
Capa 1
10
13.557832
20
40.457385
11
12.805308
21
40.219914
0
LINE
8
Capa 1
10
12.805308
20
40.219914
11
12.579456
21
39.884425
0
LINE
8
Capa 1
10
12.579456
20
39.884425
11
13.195089
21
39.735121
0
LINE
8
Capa 1
10
13.195089
20
39.735121
11
13.693773
21
39.640820
0
LINE
8
Capa 1
10
13.693773
20
39.640820
11
14.040900
21
39.407532
0
LINE
8
Capa 1
10
14.040900
20
39.407532
11
14.426228
21
38.825753
0
LINE
8
Capa 1
10
14.426228
20
38.825753
11
14.482244
21
38.131910
0
LINE
8
Capa 1
10
14.482244
20
38.131910
11
14.208501
21
37.322920
0
LINE
8
Capa 1
10
14.208501
20
37.322920
11
13.604553
21
36.395702
0
LINE
8
Capa 1
10
13.604553
20
36.395702
11
13.097106
21
35.890999
0
LINE
8
Capa 1
10
13.097106
20
35.890999
11
12.982891
21
35.894071
0
LINE
8
Capa 1
10
12.982891
20
35.894071
11
13.000381
21
36.087188
0
LINE
8
Capa 1
10
13.000381
20
36.087188
11
13.022075
21
36.247620
0
LINE
8
Capa 1
10
13.022075
20
36.247620
11
12.882638
21
36.220930
0
LINE
8
Capa 1
10
12.882638
20
36.220930
11
12.280484
21
36.035445
0
LINE
8
Capa 1
10
12.280484
20
36.035445
11
12.004458
21
35.947892
0
LINE
8
Capa 1
10
12.004458
20
35.947892
11
11.915744
21
35.736181
0
LINE
8
Capa 1
10
11.915744
20
35.736181
11
12.314870
21
34.130675
0
LINE
8
Capa 1
10
12.314870
20
34.130675
11
13.140621
21
31.958870
0
LINE
8
Capa 1
10
13.140621
20
31.958870
11
14.241200
21
30.013325
0
LINE
8
Capa 1
10
14.241200
20
30.013325
11
14.757764
21
29.281072
0
LINE
8
Capa 1
10
14.757764
20
29.281072
11
15.867914
21
29.338496
0
LINE
8
Capa 1
10
15.867914
20
29.338496
11
18.620834
21
29.490052
0
LINE
8
Capa 1
10
18.620834
20
29.490052
11
18.620830
21
29.490048
0
LINE
8
Capa 1
10
14.638360
20
31.647418
11
16.491580
21
33.483528
0
LINE
8
Capa 1
10
16.491580
20
33.483528
11
16.530029
21
33.254172
0
LINE
8
Capa 1
10
16.530029
20
33.254172
11
16.270892
21
32.513197
0
LINE
8
Capa 1
10
16.270892
20
32.513197
11
15.782833
21
31.790522
0
LINE
8
Capa 1
10
15.782833
20
31.790522
11
15.534412
21
31.557141
0
LINE
8
Capa 1
10
15.534412
20
31.557141
11
15.534400
21
31.772200
0
LINE
8
Capa 1
10
15.534400
20
31.772200
11
15.534400
21
31.987200
0
LINE
8
Capa 1
10
15.534400
20
31.987200
11
15.210825
21
31.789913
0
LINE
8
Capa 1
10
15.210825
20
31.789913
11
14.806822
21
31.604383
0
LINE
8
Capa 1
10
14.806822
20
31.604383
11
14.638345
21
31.647447
0
LINE
8
Capa 1
10
14.638345
20
31.647447
11
14.638360
21
31.647418
0
LINE
8
Capa 1
10
22.535170
20
31.005524
11
23.716836
21
32.105689
0
LINE
8
Capa 1
10
23.716836
20
32.105689
11
24.792690
21
33.382074
0
LINE
8
Capa 1
10
24.792690
20
33.382074
11
25.193124
21
33.900283
0
LINE
8
Capa 1
10
25.193124
20
33.900283
11
25.811002
21
34.381209
0
LINE
8
Capa 1
10
25.811002
20
34.381209
11
26.567116
21
34.774457
0
LINE
8
Capa 1
10
26.567116
20
34.774457
11
27.382260
21
35.029634
0
LINE
8
Capa 1
10
27.382260
20
35.029634
11
27.929849
21
35.142960
0
LINE
8
Capa 1
10
27.929849
20
35.142960
11
27.282698
21
35.788625
0
LINE
8
Capa 1
10
27.282698
20
35.788625
11
26.491042
21
36.447124
0
LINE
8
Capa 1
10
26.491042
20
36.447124
11
25.226838
21
37.147595
0
LINE
8
Capa 1
10
25.226838
20
37.147595
11
23.084067
21
38.318778
0
LINE
8
Capa 1
10
23.084067
20
38.318778
11
21.022168
21
39.679145
0
LINE
8
Capa 1
10
21.022168
20
39.679145
11
19.331286
21
40.698326
0
LINE
8
Capa 1
10
19.331286
20
40.698326
11
18.040888
21
40.984415
0
LINE
8
Capa 1
10
18.040888
20
40.984415
11
17.402971
21
40.902298
0
LINE
8
Capa 1
10
17.402971
20
40.902298
11
17.228506
21
40.582785
0
LINE
8
Capa 1
10
17.228506
20
40.582785
11
17.688910
21
40.035195
0
LINE
8
Capa 1
10
17.688910
20
40.035195
11
18.138216
21
39.534518
0
LINE
8
Capa 1
10
18.138216
20
39.534518
11
18.437656
21
38.976249
0
LINE
8
Capa 1
10
18.437656
20
38.976249
11
18.690470
21
37.416215
0
LINE
8
Capa 1
10
18.690470
20
37.416215
11
18.922679
21
35.916285
0
LINE
8
Capa 1
10
18.922679
20
35.916285
11
19.205487
21
34.843010
0
LINE
8
Capa 1
10
19.205487
20
34.843010
11
19.315806
21
33.359075
0
LINE
8
Capa 1
10
19.315806
20
33.359075
11
19.417340
21
32.587472
0
LINE
8
Capa 1
10
19.417340
20
32.587472
11
19.516902
21
32.736815
0
LINE
8
Capa 1
10
19.516902
20
32.736815
11
19.615078
21
32.878296
0
LINE
8
Capa 1
10
19.615078
20
32.878296
11
19.761183
21
32.608520
0
LINE
8
Capa 1
10
19.761183
20
32.608520
11
20.105775
21
32.169514
0
LINE
8
Capa 1
10
20.105775
20
32.169514
11
20.814274
21
31.604741
0
LINE
8
Capa 1
10
20.814274
20
31.604741
11
21.602612
21
31.114432
0
LINE
8
Capa 1
10
21.602612
20
31.114432
11
22.186723
21
30.898820
0
LINE
8
Capa 1
10
22.186723
20
30.898820
11
22.535189
21
31.005528
0
LINE
8
Capa 1
10
22.535189
20
31.005528
11
22.535170
21
31.005524
0
LINE
8
Capa 1
10
22.690809
20
35.837114
11
21.707241
21
37.455354
0
LINE
8
Capa 1
10
21.707241
20
37.455354
11
21.902896
21
37.467828
0
LINE
8
Capa 1
10
21.902896
20
37.467828
11
22.505136
21
36.673010
0
LINE
8
Capa 1
10
22.505136
20
36.673010
11
22.885380
21
35.817358
0
LINE
8
Capa 1
10
22.885380
20
35.817358
11
22.831381
21
35.708824
0
LINE
8
Capa 1
10
22.831381
20
35.708824
11
22.690808
21
35.837114
0
LINE
8
Capa 1
10
22.690808
20
35.837114
11
22.690809
21
35.837114
0
LINE
8
Capa 1
10
18.979949
20
37.723034
11
18.924425
21
38.148535
0
LINE
8
Capa 1
10
18.924425
20
38.148535
11
19.057247
21
38.362041
0
LINE
8
Capa 1
10
19.057247
20
38.362041
11
19.240790
21
38.168789
0
LINE
8
Capa 1
10
19.240790
20
38.168789
11
19.247049
21
37.764670
0
LINE
8
Capa 1
10
19.247049
20
37.764670
11
19.121192
21
37.573055
0
LINE
8
Capa 1
10
19.121192
20
37.573055
11
18.979949
21
37.723034
0
LINE
8
Capa 1
10
18.979949
20
37.723034
11
18.979949
21
37.723034
0
LINE
8
Capa 1
10
21.075519
20
37.747615
11
20.914773
21
38.091835
0
LINE
8
Capa 1
10
20.914773
20
38.091835
11
21.011015
21
38.212254
0
LINE
8
Capa 1
10
21.011015
20
38.212254
11
21.262108
21
37.855010
0
LINE
8
Capa 1
10
21.262108
20
37.855010
11
21.326980
21
37.565542
0
LINE
8
Capa 1
10
21.326980
20
37.565542
11
21.075519
21
37.747615
0
LINE
8
Capa 1
10
21.075519
20
37.747615
11
21.075519
21
37.747615
0
LINE
8
Capa 1
10
18.595900
20
39.146200
11
18.332824
21
39.633991
0
LINE
8
Capa 1
10
18.332824
20
39.633991
11
18.719013
21
39.478378
0
LINE
8
Capa 1
10
18.719013
20
39.478378
11
18.904275
21
39.060105
0
LINE
8
Capa 1
10
18.904275
20
39.060105
11
18.839217
21
38.892040
0
LINE
8
Capa 1
10
18.839217
20
38.892040
11
18.595900
21
39.146200
0
LINE
8
Capa 1
10
18.595900
20
39.146200
11
18.595900
21
39.146200
0
LINE
8
Capa 1
10
42.582400
20
31.952580
11
43.027556
21
32.142910
0
LINE
8
Capa 1
10
43.027556
20
32.142910
11
43.108624
21
32.307957
0
LINE
8
Capa 1
10
43.108624
20
32.307957
11
42.050079
21
32.756007
0
LINE
8
Capa 1
10
42.050079
20
32.756007
11
40.885856
21
33.074844
0
LINE
8
Capa 1
10
40.885856
20
33.074844
11
39.777629
21
33.135107
0
LINE
8
Capa 1
10
39.777629
20
33.135107
11
38.716808
21
33.214022
0
LINE
8
Capa 1
10
38.716808
20
33.214022
11
38.650632
21
33.301282
0
LINE
8
Capa 1
10
38.650632
20
33.301282
11
38.925282
21
33.410293
0
LINE
8
Capa 1
10
38.925282
20
33.410293
11
39.223268
21
33.581854
0
LINE
8
Capa 1
10
39.223268
20
33.581854
11
38.931350
21
33.617980
0
LINE
8
Capa 1
10
38.931350
20
33.617980
11
38.659475
21
33.609486
0
LINE
8
Capa 1
10
38.659475
20
33.609486
11
38.667345
21
33.715775
0
LINE
8
Capa 1
10
38.667345
20
33.715775
11
39.304704
21
34.031613
0
LINE
8
Capa 1
10
39.304704
20
34.031613
11
39.523357
21
34.192618
0
LINE
8
Capa 1
10
39.523357
20
34.192618
11
39.205144
21
34.229928
0
LINE
8
Capa 1
10
39.205144
20
34.229928
11
38.293502
21
34.374759
0
LINE
8
Capa 1
10
38.293502
20
34.374759
11
37.476802
21
34.578749
0
LINE
8
Capa 1
10
37.476802
20
34.578749
11
36.959310
21
34.722820
0
LINE
8
Capa 1
10
36.959310
20
34.722820
11
36.649031
21
35.097552
0
LINE
8
Capa 1
10
36.649031
20
35.097552
11
36.520858
21
35.321416
0
LINE
8
Capa 1
10
36.520858
20
35.321416
11
36.320499
21
35.357625
0
LINE
8
Capa 1
10
36.320499
20
35.357625
11
36.062026
21
35.101449
0
LINE
8
Capa 1
10
36.062026
20
35.101449
11
35.942254
21
34.877435
0
LINE
8
Capa 1
10
35.942254
20
34.877435
11
35.646370
21
35.848160
0
LINE
8
Capa 1
10
35.646370
20
35.848160
11
35.599655
21
36.018233
0
LINE
8
Capa 1
10
35.599655
20
36.018233
11
35.453401
21
36.072174
0
LINE
8
Capa 1
10
35.453401
20
36.072174
11
35.203321
21
35.864952
0
LINE
8
Capa 1
10
35.203321
20
35.864952
11
35.190745
21
35.296374
0
LINE
8
Capa 1
10
35.190745
20
35.296374
11
35.121203
21
34.678311
0
LINE
8
Capa 1
10
35.121203
20
34.678311
11
34.918486
21
34.470182
0
LINE
8
Capa 1
10
34.918486
20
34.470182
11
34.423271
21
34.422471
0
LINE
8
Capa 1
10
34.423271
20
34.422471
11
33.902016
21
34.446225
0
LINE
8
Capa 1
10
33.902016
20
34.446225
11
33.947273
21
34.667112
0
LINE
8
Capa 1
10
33.947273
20
34.667112
11
33.944200
21
34.811898
0
LINE
8
Capa 1
10
33.944200
20
34.811898
11
33.549094
21
34.834800
0
LINE
8
Capa 1
10
33.549094
20
34.834800
11
33.120613
21
34.786940
0
LINE
8
Capa 1
10
33.120613
20
34.786940
11
33.057280
21
34.504078
0
LINE
8
Capa 1
10
33.057280
20
34.504078
11
32.926984
21
34.189649
0
LINE
8
Capa 1
10
32.926984
20
34.189649
11
32.622455
21
34.517258
0
LINE
8
Capa 1
10
32.622455
20
34.517258
11
32.201566
21
34.963149
0
LINE
8
Capa 1
10
32.201566
20
34.963149
11
31.962033
21
35.242794
0
LINE
8
Capa 1
10
31.962033
20
35.242794
11
31.937369
21
35.351933
0
LINE
8
Capa 1
10
31.937369
20
35.351933
11
31.815856
21
35.220047
0
LINE
8
Capa 1
10
31.815856
20
35.220047
11
31.656746
21
34.821607
0
LINE
8
Capa 1
10
31.656746
20
34.821607
11
31.791872
21
34.451931
0
LINE
8
Capa 1
10
31.791872
20
34.451931
11
32.211992
21
34.122647
0
LINE
8
Capa 1
10
32.211992
20
34.122647
11
32.907866
21
33.845387
0
LINE
8
Capa 1
10
32.907866
20
33.845387
11
36.633586
21
32.346487
0
LINE
8
Capa 1
10
36.633586
20
32.346487
11
38.184626
21
31.946240
0
LINE
8
Capa 1
10
38.184626
20
31.946240
11
39.429146
21
31.744290
0
LINE
8
Capa 1
10
39.429146
20
31.744290
11
41.022120
21
31.768934
0
LINE
8
Capa 1
10
41.022120
20
31.768934
11
42.582386
21
31.952587
0
LINE
8
Capa 1
10
42.582386
20
31.952587
11
42.582400
21
31.952580
0
LINE
8
Capa 1
10
37.338370
20
32.766728
11
37.487418
21
32.983847
0
LINE
8
Capa 1
10
37.487418
20
32.983847
11
37.806311
21
33.085326
0
LINE
8
Capa 1
10
37.806311
20
33.085326
11
38.026039
21
32.997902
0
LINE
8
Capa 1
10
38.026039
20
32.997902
11
37.781701
21
32.802621
0
LINE
8
Capa 1
10
37.781701
20
32.802621
11
37.448729
21
32.692261
0
LINE
8
Capa 1
10
37.448729
20
32.692261
11
37.338358
21
32.766728
0
LINE
8
Capa 1
10
37.338358
20
32.766728
11
37.338370
21
32.766728
0
LINE
8
Capa 1
10
34.625320
20
33.762752
11
34.152401
21
33.863274
0
LINE
8
Capa 1
10
34.152401
20
33.863274
11
35.730221
21
34.419816
0
LINE
8
Capa 1
10
35.730221
20
34.419816
11
36.293968
21
34.415469
0
LINE
8
Capa 1
10
36.293968
20
34.415469
11
36.513221
21
34.243295
0
LINE
8
Capa 1
10
36.513221
20
34.243295
11
35.867257
21
33.965778
0
LINE
8
Capa 1
10
35.867257
20
33.965778
11
35.178429
21
33.766589
0
LINE
8
Capa 1
10
35.178429
20
33.766589
11
34.625319
21
33.762751
0
LINE
8
Capa 1
10
34.625319
20
33.762751
11
34.625320
21
33.762752
0
LINE
8
Capa 1
10
43.262290
20
33.146969
11
37.935740
21
36.826019
0
LINE
8
Capa 1
10
37.935740
20
36.826019
11
35.695600
21
38.323099
0
LINE
8
Capa 1
10
35.695600
20
38.323099
11
34.680475
21
38.929852
0
LINE
8
Capa 1
10
34.680475
20
38.929852
11
34.248240
21
39.417269
0
LINE
8
Capa 1
10
34.248240
20
39.417269
11
33.912198
21
39.656390
0
LINE
8
Capa 1
10
33.912198
20
39.656390
11
33.653110
21
39.533438
0
LINE
8
Capa 1
10
33.653110
20
39.533438
11
33.348476
21
39.009241
0
LINE
8
Capa 1
10
33.348476
20
39.009241
11
33.058457
21
38.510753
0
LINE
8
Capa 1
10
33.058457
20
38.510753
11
32.835676
21
38.362089
0
LINE
8
Capa 1
10
32.835676
20
38.362089
11
32.685167
21
38.432396
0
LINE
8
Capa 1
10
32.685167
20
38.432396
11
32.710248
21
38.785227
0
LINE
8
Capa 1
10
32.710248
20
38.785227
11
32.739849
21
39.097469
0
LINE
8
Capa 1
10
32.739849
20
39.097469
11
32.657089
21
39.091689
0
LINE
8
Capa 1
10
32.657089
20
39.091689
11
32.397936
21
39.027673
0
LINE
8
Capa 1
10
32.397936
20
39.027673
11
32.260728
21
38.976593
0
LINE
8
Capa 1
10
32.260728
20
38.976593
11
32.164352
21
38.619376
0
LINE
8
Capa 1
10
32.164352
20
38.619376
11
32.029555
21
38.404905
0
LINE
8
Capa 1
10
32.029555
20
38.404905
11
31.896277
21
38.452584
0
LINE
8
Capa 1
10
31.896277
20
38.452584
11
31.667435
21
39.289662
0
LINE
8
Capa 1
10
31.667435
20
39.289662
11
31.477717
21
40.172250
0
LINE
8
Capa 1
10
31.477717
20
40.172250
11
31.169952
21
40.825692
0
LINE
8
Capa 1
10
31.169952
20
40.825692
11
30.699219
21
41.315987
0
LINE
8
Capa 1
10
30.699219
20
41.315987
11
30.020595
21
41.709132
0
LINE
8
Capa 1
10
30.020595
20
41.709132
11
29.534984
21
41.880081
0
LINE
8
Capa 1
10
29.534984
20
41.880081
11
29.096075
21
41.829542
0
LINE
8
Capa 1
10
29.096075
20
41.829542
11
28.608968
21
41.781545
0
LINE
8
Capa 1
10
28.608968
20
41.781545
11
28.697792
21
42.014354
0
LINE
8
Capa 1
10
28.697792
20
42.014354
11
29.104897
21
42.310364
0
LINE
8
Capa 1
10
29.104897
20
42.310364
11
29.430042
21
42.399898
0
LINE
8
Capa 1
10
29.430042
20
42.399898
11
29.908640
21
42.187092
0
LINE
8
Capa 1
10
29.908640
20
42.187092
11
30.977210
21
41.521268
0
LINE
8
Capa 1
10
30.977210
20
41.521268
11
31.477636
21
41.216867
0
LINE
8
Capa 1
10
31.477636
20
41.216867
11
31.744284
21
41.260850
0
LINE
8
Capa 1
10
31.744284
20
41.260850
11
32.008238
21
41.305450
0
LINE
8
Capa 1
10
32.008238
20
41.305450
11
31.945446
21
40.817945
0
LINE
8
Capa 1
10
31.945446
20
40.817945
11
31.885843
21
40.296774
0
LINE
8
Capa 1
10
31.885843
20
40.296774
11
32.076678
21
40.343174
0
LINE
8
Capa 1
10
32.076678
20
40.343174
11
32.259468
21
40.845893
0
LINE
8
Capa 1
10
32.259468
20
40.845893
11
32.500235
21
41.434938
0
LINE
8
Capa 1
10
32.500235
20
41.434938
11
32.619503
21
41.513567
0
LINE
8
Capa 1
10
32.619503
20
41.513567
11
32.707574
21
41.409933
0
LINE
8
Capa 1
10
32.707574
20
41.409933
11
32.805189
21
41.100036
0
LINE
8
Capa 1
10
32.805189
20
41.100036
11
32.957657
21
40.950693
0
LINE
8
Capa 1
10
32.957657
20
40.950693
11
33.081982
21
41.007172
0
LINE
8
Capa 1
10
33.081982
20
41.007172
11
33.095539
21
41.179403
0
LINE
8
Capa 1
10
33.095539
20
41.179403
11
32.787299
21
41.887890
0
LINE
8
Capa 1
10
32.787299
20
41.887890
11
31.689399
21
43.249442
0
LINE
8
Capa 1
10
31.689399
20
43.249442
11
30.219709
21
44.271760
0
LINE
8
Capa 1
10
30.219709
20
44.271760
11
28.814199
21
45.045985
0
LINE
8
Capa 1
10
28.814199
20
45.045985
11
28.249276
21
45.349246
0
LINE
8
Capa 1
10
28.249276
20
45.349246
11
27.629481
21
45.516770
0
LINE
8
Capa 1
10
27.629481
20
45.516770
11
25.587419
21
45.542817
0
LINE
8
Capa 1
10
25.587419
20
45.542817
11
24.213340
21
45.441708
0
LINE
8
Capa 1
10
24.213340
20
45.441708
11
23.499299
21
45.215685
0
LINE
8
Capa 1
10
23.499299
20
45.215685
11
22.781534
21
44.781372
0
LINE
8
Capa 1
10
22.781534
20
44.781372
11
22.538354
21
44.467057
0
LINE
8
Capa 1
10
22.538354
20
44.467057
11
22.787295
21
44.526848
0
LINE
8
Capa 1
10
22.787295
20
44.526848
11
23.042015
21
44.627161
0
LINE
8
Capa 1
10
23.042015
20
44.627161
11
23.101053
21
44.503396
0
LINE
8
Capa 1
10
23.101053
20
44.503396
11
23.735470
21
44.246218
0
LINE
8
Capa 1
10
23.735470
20
44.246218
11
24.706196
21
43.906208
0
LINE
8
Capa 1
10
24.706196
20
43.906208
11
25.042505
21
43.692301
0
LINE
8
Capa 1
10
25.042505
20
43.692301
11
24.762255
21
43.658344
0
LINE
8
Capa 1
10
24.762255
20
43.658344
11
23.942135
21
43.794194
0
LINE
8
Capa 1
10
23.942135
20
43.794194
11
23.081743
21
43.900869
0
LINE
8
Capa 1
10
23.081743
20
43.900869
11
22.131485
21
43.568893
0
LINE
8
Capa 1
10
22.131485
20
43.568893
11
21.303307
21
42.890886
0
LINE
8
Capa 1
10
21.303307
20
42.890886
11
20.425037
21
40.807916
0
LINE
8
Capa 1
10
20.425037
20
40.807916
11
22.656387
21
39.189256
0
LINE
8
Capa 1
10
22.656387
20
39.189256
11
23.960656
21
38.432478
0
LINE
8
Capa 1
10
23.960656
20
38.432478
11
25.380947
21
37.821246
0
LINE
8
Capa 1
10
25.380947
20
37.821246
11
26.771091
21
37.147587
0
LINE
8
Capa 1
10
26.771091
20
37.147587
11
28.054247
21
35.935866
0
LINE
8
Capa 1
10
28.054247
20
35.935866
11
28.576945
21
35.175204
0
LINE
8
Capa 1
10
28.576945
20
35.175204
11
28.742698
21
34.833260
0
LINE
8
Capa 1
10
28.742698
20
34.833260
11
29.106755
21
34.680522
0
LINE
8
Capa 1
10
29.106755
20
34.680522
11
29.266651
21
34.705314
0
LINE
8
Capa 1
10
29.266651
20
34.705314
11
29.088467
21
34.863619
0
LINE
8
Capa 1
10
29.088467
20
34.863619
11
28.853269
21
35.044504
0
LINE
8
Capa 1
10
28.853269
20
35.044504
11
29.126784
21
35.259653
0
LINE
8
Capa 1
10
29.126784
20
35.259653
11
29.510938
21
35.457816
0
LINE
8
Capa 1
10
29.510938
20
35.457816
11
30.056358
21
35.273482
0
LINE
8
Capa 1
10
30.056358
20
35.273482
11
30.849036
21
35.081323
0
LINE
8
Capa 1
10
30.849036
20
35.081323
11
31.378068
21
35.250763
0
LINE
8
Capa 1
10
31.378068
20
35.250763
11
31.894311
21
36.312449
0
LINE
8
Capa 1
10
31.894311
20
36.312449
11
32.159987
21
37.490903
0
LINE
8
Capa 1
10
32.159987
20
37.490903
11
32.263856
21
37.764698
0
LINE
8
Capa 1
10
32.263856
20
37.764698
11
32.430618
21
37.474138
0
LINE
8
Capa 1
10
32.430618
20
37.474138
11
32.268513
21
36.557958
0
LINE
8
Capa 1
10
32.268513
20
36.557958
11
32.107098
21
35.718481
0
LINE
8
Capa 1
10
32.107098
20
35.718481
11
32.241702
21
35.475008
0
LINE
8
Capa 1
10
32.241702
20
35.475008
11
32.320679
21
35.765403
0
LINE
8
Capa 1
10
32.320679
20
35.765403
11
32.644255
21
36.481722
0
LINE
8
Capa 1
10
32.644255
20
36.481722
11
32.957648
21
37.179829
0
LINE
8
Capa 1
10
32.957648
20
37.179829
11
33.129936
21
37.620121
0
LINE
8
Capa 1
10
33.129936
20
37.620121
11
33.545841
21
37.720386
0
LINE
8
Capa 1
10
33.545841
20
37.720386
11
34.318638
21
37.596735
0
LINE
8
Capa 1
10
34.318638
20
37.596735
11
34.550631
21
37.656056
0
LINE
8
Capa 1
10
34.550631
20
37.656056
11
34.077714
21
37.763173
0
LINE
8
Capa 1
10
34.077714
20
37.763173
11
33.754138
21
37.853179
0
LINE
8
Capa 1
10
33.754138
20
37.853179
11
34.106822
21
38.003118
0
LINE
8
Capa 1
10
34.106822
20
38.003118
11
34.717156
21
37.973169
0
LINE
8
Capa 1
10
34.717156
20
37.973169
11
36.243176
21
37.253294
0
LINE
8
Capa 1
10
36.243176
20
37.253294
11
36.114086
21
37.174798
0
LINE
8
Capa 1
10
36.114086
20
37.174798
11
35.680231
21
37.316670
0
LINE
8
Capa 1
10
35.680231
20
37.316670
11
35.273687
21
37.433056
0
LINE
8
Capa 1
10
35.273687
20
37.433056
11
35.748142
21
37.097476
0
LINE
8
Capa 1
10
35.748142
20
37.097476
11
38.632661
21
35.504590
0
LINE
8
Capa 1
10
38.632661
20
35.504590
11
41.320821
21
34.033160
0
LINE
8
Capa 1
10
41.320821
20
34.033160
11
43.709511
21
32.786870
0
LINE
8
Capa 1
10
43.709511
20
32.786870
11
43.262277
21
33.146943
0
LINE
8
Capa 1
10
43.262277
20
33.146943
11
43.262290
21
33.146969
0
LINE
8
Capa 1
10
29.423190
20
36.363759
11
28.462421
21
36.822283
0
LINE
8
Capa 1
10
28.462421
20
36.822283
11
28.126103
21
37.099792
0
LINE
8
Capa 1
10
28.126103
20
37.099792
11
28.062000
21
37.289633
0
LINE
8
Capa 1
10
28.062000
20
37.289633
11
28.972059
21
36.969785
0
LINE
8
Capa 1
10
28.972059
20
36.969785
11
30.019148
21
36.624140
0
LINE
8
Capa 1
10
30.019148
20
36.624140
11
30.376093
21
36.763840
0
LINE
8
Capa 1
10
30.376093
20
36.763840
11
30.762559
21
37.123997
0
LINE
8
Capa 1
10
30.762559
20
37.123997
11
31.219239
21
37.565598
0
LINE
8
Capa 1
10
31.219239
20
37.565598
11
30.994497
21
36.802436
0
LINE
8
Capa 1
10
30.994497
20
36.802436
11
30.499843
21
36.450640
0
LINE
8
Capa 1
10
30.499843
20
36.450640
11
29.894087
21
36.281488
0
LINE
8
Capa 1
10
29.894087
20
36.281488
11
29.423185
21
36.363759
0
LINE
8
Capa 1
10
29.423185
20
36.363759
11
29.423190
21
36.363759
0
LINE
8
Capa 1
10
29.871217
20
37.404649
11
30.095231
21
37.590972
0
LINE
8
Capa 1
10
30.095231
20
37.590972
11
30.493477
21
37.712790
0
LINE
8
Capa 1
10
30.493477
20
37.712790
11
30.642352
21
37.730397
0
LINE
8
Capa 1
10
30.642352
20
37.730397
11
30.669342
21
37.642045
0
LINE
8
Capa 1
10
30.669342
20
37.642045
11
30.414122
21
37.382458
0
LINE
8
Capa 1
10
30.414122
20
37.382458
11
30.015737
21
37.272695
0
LINE
8
Capa 1
10
30.015737
20
37.272695
11
29.871217
21
37.404641
0
LINE
8
Capa 1
10
29.871217
20
37.404641
11
29.871217
21
37.404649
0
LINE
8
Capa 1
10
28.683357
20
38.020294
11
27.899464
21
38.535871
0
LINE
8
Capa 1
10
27.899464
20
38.535871
11
27.358127
21
39.121834
0
LINE
8
Capa 1
10
27.358127
20
39.121834
11
27.324182
21
39.351356
0
LINE
8
Capa 1
10
27.324182
20
39.351356
11
27.443230
21
39.572681
0
LINE
8
Capa 1
10
27.443230
20
39.572681
11
28.172142
21
40.026104
0
LINE
8
Capa 1
10
28.172142
20
40.026104
11
29.219615
21
40.324717
0
LINE
8
Capa 1
10
29.219615
20
40.324717
11
30.095302
21
40.175442
0
LINE
8
Capa 1
10
30.095302
20
40.175442
11
30.685418
21
39.745233
0
LINE
8
Capa 1
10
30.685418
20
39.745233
11
30.936764
21
39.077172
0
LINE
8
Capa 1
10
30.936764
20
39.077172
11
30.859805
21
38.478612
0
LINE
8
Capa 1
10
30.859805
20
38.478612
11
30.339280
21
38.073112
0
LINE
8
Capa 1
10
30.339280
20
38.073112
11
29.505803
21
37.875637
0
LINE
8
Capa 1
10
29.505803
20
37.875637
11
28.683350
21
38.020300
0
LINE
8
Capa 1
10
28.683350
20
38.020300
11
28.683357
21
38.020294
0
LINE
8
Capa 1
10
28.477358
20
38.912807
11
28.332502
21
39.116389
0
LINE
8
Capa 1
10
28.332502
20
39.116389
11
28.112299
21
39.125399
0
LINE
8
Capa 1
10
28.112299
20
39.125399
11
28.113484
21
38.913975
0
LINE
8
Capa 1
10
28.113484
20
38.913975
11
28.324062
21
38.764257
0
LINE
8
Capa 1
10
28.324062
20
38.764257
11
28.477374
21
38.912846
0
LINE
8
Capa 1
10
28.477374
20
38.912846
11
28.477358
21
38.912807
0
LINE
8
Capa 1
10
29.753378
20
39.531943
11
29.528226
21
39.833067
0
LINE
8
Capa 1
10
29.528226
20
39.833067
11
29.178274
21
39.710979
0
LINE
8
Capa 1
10
29.178274
20
39.710979
11
29.169530
21
39.407236
0
LINE
8
Capa 1
10
29.169530
20
39.407236
11
29.541556
21
39.258148
0
LINE
8
Capa 1
10
29.541556
20
39.258148
11
29.735019
21
39.307823
0
LINE
8
Capa 1
10
29.735019
20
39.307823
11
29.753378
21
39.531943
0
LINE
8
Capa 1
10
29.753378
20
39.531943
11
29.753378
21
39.531943
0
LINE
8
Capa 1
10
26.362318
20
39.029308
11
26.475223
21
39.802832
0
LINE
8
Capa 1
10
26.475223
20
39.802832
11
27.233941
21
40.527948
0
LINE
8
Capa 1
10
27.233941
20
40.527948
11
28.398885
21
41.265437
0
LINE
8
Capa 1
10
28.398885
20
41.265437
11
29.301771
21
41.428496
0
LINE
8
Capa 1
10
29.301771
20
41.428496
11
29.711624
21
41.378126
0
LINE
8
Capa 1
10
29.711624
20
41.378126
11
29.633825
21
41.224492
0
LINE
8
Capa 1
10
29.633825
20
41.224492
11
29.192066
21
41.048072
0
LINE
8
Capa 1
10
29.192066
20
41.048072
11
28.495827
21
40.846538
0
LINE
8
Capa 1
10
28.495827
20
40.846538
11
27.743936
21
40.399266
0
LINE
8
Capa 1
10
27.743936
20
40.399266
11
27.152739
21
39.926674
0
LINE
8
Capa 1
10
27.152739
20
39.926674
11
26.910576
21
39.632148
0
LINE
8
Capa 1
10
26.910576
20
39.632148
11
26.753967
21
39.166709
0
LINE
8
Capa 1
10
26.753967
20
39.166709
11
26.522117
21
38.601782
0
LINE
8
Capa 1
10
26.522117
20
38.601782
11
26.362319
21
39.029309
0
LINE
8
Capa 1
10
26.362319
20
39.029309
11
26.362318
21
39.029308
0
LINE
8
Capa 1
10
24.809508
20
39.381597
11
24.706678
21
39.691840
0
LINE
8
Capa 1
10
24.706678
20
39.691840
11
24.942913
21
40.054640
0
LINE
8
Capa 1
10
24.942913
20
40.054640
11
25.191817
21
40.472726
0
LINE
8
Capa 1
10
25.191817
20
40.472726
11
24.810141
21
41.401290
0
LINE
8
Capa 1
10
24.810141
20
41.401290
11
24.157687
21
42.321306
0
LINE
8
Capa 1
10
24.157687
20
42.321306
11
23.245598
21
42.716134
0
LINE
8
Capa 1
10
23.245598
20
42.716134
11
22.180077
21
42.589781
0
LINE
8
Capa 1
10
22.180077
20
42.589781
11
22.015760
21
42.562408
0
LINE
8
Capa 1
10
22.015760
20
42.562408
11
22.009452
21
42.640400
0
LINE
8
Capa 1
10
22.009452
20
42.640400
11
22.351112
21
42.897225
0
LINE
8
Capa 1
10
22.351112
20
42.897225
11
23.021500
21
43.031784
0
LINE
8
Capa 1
10
23.021500
20
43.031784
11
23.720048
21
42.930723
0
LINE
8
Capa 1
10
23.720048
20
42.930723
11
24.356315
21
42.621819
0
LINE
8
Capa 1
10
24.356315
20
42.621819
11
24.839862
21
42.132846
0
LINE
8
Capa 1
10
24.839862
20
42.132846
11
25.162895
21
41.784638
0
LINE
8
Capa 1
10
25.162895
20
41.784638
11
25.067033
21
42.187321
0
LINE
8
Capa 1
10
25.067033
20
42.187321
11
24.669075
21
42.698724
0
LINE
8
Capa 1
10
24.669075
20
42.698724
11
24.000893
21
43.095567
0
LINE
8
Capa 1
10
24.000893
20
43.095567
11
23.270012
21
43.242985
0
LINE
8
Capa 1
10
23.270012
20
43.242985
11
22.529298
21
43.139402
0
LINE
8
Capa 1
10
22.529298
20
43.139402
11
21.831615
21
42.783244
0
LINE
8
Capa 1
10
21.831615
20
42.783244
11
21.640098
21
42.671137
0
LINE
8
Capa 1
10
21.640098
20
42.671137
11
21.607601
21
42.814396
0
LINE
8
Capa 1
10
21.607601
20
42.814396
11
22.117131
21
43.287163
0
LINE
8
Capa 1
10
22.117131
20
43.287163
11
22.822874
21
43.542320
0
LINE
8
Capa 1
10
22.822874
20
43.542320
11
23.538020
21
43.567705
0
LINE
8
Capa 1
10
23.538020
20
43.567705
11
24.210923
21
43.369738
0
LINE
8
Capa 1
10
24.210923
20
43.369738
11
24.789941
21
42.954841
0
LINE
8
Capa 1
10
24.789941
20
42.954841
11
25.434713
21
42.199612
0
LINE
8
Capa 1
10
25.434713
20
42.199612
11
25.543340
21
41.465161
0
LINE
8
Capa 1
10
25.543340
20
41.465161
11
25.625729
21
40.539812
0
LINE
8
Capa 1
10
25.625729
20
40.539812
11
25.630483
21
40.261365
0
LINE
8
Capa 1
10
25.630483
20
40.261365
11
25.398664
21
39.929298
0
LINE
8
Capa 1
10
25.398664
20
39.929298
11
25.092261
21
39.474892
0
LINE
8
Capa 1
10
25.092261
20
39.474892
11
24.998152
21
39.318118
0
LINE
8
Capa 1
10
24.998152
20
39.318118
11
24.809514
21
39.381595
0
LINE
8
Capa 1
10
24.809514
20
39.381595
11
24.809508
21
39.381597
0
LINE
8
Capa 1
10
22.588628
20
40.011802
11
21.854477
21
40.473754
0
LINE
8
Capa 1
10
21.854477
20
40.473754
11
21.465458
21
41.196192
0
LINE
8
Capa 1
10
21.465458
20
41.196192
11
21.553371
21
41.792781
0
LINE
8
Capa 1
10
21.553371
20
41.792781
11
22.156545
21
42.245662
0
LINE
8
Capa 1
10
22.156545
20
42.245662
11
22.879960
21
42.439612
0
LINE
8
Capa 1
10
22.879960
20
42.439612
11
23.534751
21
42.319805
0
LINE
8
Capa 1
10
23.534751
20
42.319805
11
24.069369
21
41.909226
0
LINE
8
Capa 1
10
24.069369
20
41.909226
11
24.432265
21
41.230862
0
LINE
8
Capa 1
10
24.432265
20
41.230862
11
24.594861
21
40.349574
0
LINE
8
Capa 1
10
24.594861
20
40.349574
11
24.519568
21
40.094800
0
LINE
8
Capa 1
10
24.519568
20
40.094800
11
24.339055
21
39.952622
0
LINE
8
Capa 1
10
24.339055
20
39.952622
11
23.532914
21
39.867903
0
LINE
8
Capa 1
10
23.532914
20
39.867903
11
22.588625
21
40.011810
0
LINE
8
Capa 1
10
22.588625
20
40.011810
11
22.588628
21
40.011802
0
LINE
8
Capa 1
10
22.244417
20
41.109022
11
22.247351
21
41.353059
0
LINE
8
Capa 1
10
22.247351
20
41.353059
11
22.098523
21
41.394470
0
LINE
8
Capa 1
10
22.098523
20
41.394470
11
22.008030
21
41.145130
0
LINE
8
Capa 1
10
22.008030
20
41.145130
11
22.094750
21
40.950696
0
LINE
8
Capa 1
10
22.094750
20
40.950696
11
22.244416
21
41.109023
0
LINE
8
Capa 1
10
22.244416
20
41.109023
11
22.244417
21
41.109022
0
LINE
8
Capa 1
10
23.738147
20
41.233155
11
23.638322
21
41.528769
0
LINE
8
Capa 1
10
23.638322
20
41.528769
11
23.390939
21
41.747189
0
LINE
8
Capa 1
10
23.390939
20
41.747189
11
23.236229
21
41.581609
0
LINE
8
Capa 1
10
23.236229
20
41.581609
11
23.301200
21
41.297894
0
LINE
8
Capa 1
10
23.301200
20
41.297894
11
23.539998
21
41.155572
0
LINE
8
Capa 1
10
23.539998
20
41.155572
11
23.738147
21
41.233155
0
LINE
8
Capa 1
10
23.738147
20
41.233155
11
23.738147
21
41.233155
0
LINE
8
Capa 1
10
30.076337
20
40.519249
11
29.671059
21
40.624632
0
LINE
8
Capa 1
10
29.671059
20
40.624632
11
29.186731
21
40.541178
0
LINE
8
Capa 1
10
29.186731
20
40.541178
11
29.006535
21
40.620135
0
LINE
8
Capa 1
10
29.006535
20
40.620135
11
29.446672
21
40.809846
0
LINE
8
Capa 1
10
29.446672
20
40.809846
11
30.285705
21
40.758477
0
LINE
8
Capa 1
10
30.285705
20
40.758477
11
30.642927
21
40.527896
0
LINE
8
Capa 1
10
30.642927
20
40.527896
11
30.479508
21
40.398492
0
LINE
8
Capa 1
10
30.479508
20
40.398492
11
30.076335
21
40.519260
0
LINE
8
Capa 1
10
30.076335
20
40.519260
11
30.076337
21
40.519249
0
LINE
8
Capa 1
10
20.811107
20
41.392853
11
20.910371
21
41.593181
0
LINE
8
Capa 1
10
20.910371
20
41.593181
11
21.068979
21
41.622071
0
LINE
8
Capa 1
10
21.068979
20
41.622071
11
20.900017
21
41.249388
0
LINE
8
Capa 1
10
20.900017
20
41.249388
11
20.811107
21
41.392853
0
LINE
8
Capa 1
10
20.811107
20
41.392853
11
20.811107
21
41.392853
0
LINE
8
Capa 1
10
39.969107
20
37.142473
11
39.928935
21
39.258163
0
LINE
8
Capa 1
10
39.928935
20
39.258163
11
39.428795
21
41.966414
0
LINE
8
Capa 1
10
39.428795
20
41.966414
11
38.369695
21
44.534933
0
LINE
8
Capa 1
10
38.369695
20
44.534933
11
37.585678
21
45.863021
0
LINE
8
Capa 1
10
37.585678
20
45.863021
11
36.665763
21
47.087733
0
LINE
8
Capa 1
10
36.665763
20
47.087733
11
35.620365
21
48.201083
0
LINE
8
Capa 1
10
35.620365
20
48.201083
11
34.459897
21
49.195082
0
LINE
8
Capa 1
10
34.459897
20
49.195082
11
33.194772
21
50.061741
0
LINE
8
Capa 1
10
33.194772
20
50.061741
11
31.835404
21
50.793073
0
LINE
8
Capa 1
10
31.835404
20
50.793073
11
30.392208
21
51.381090
0
LINE
8
Capa 1
10
30.392208
20
51.381090
11
28.875595
21
51.817803
0
LINE
8
Capa 1
10
28.875595
20
51.817803
11
26.358070
21
52.073740
0
LINE
8
Capa 1
10
26.358070
20
52.073740
11
23.748175
21
51.966971
0
LINE
8
Capa 1
10
23.748175
20
51.966971
11
21.360672
21
51.373447
0
LINE
8
Capa 1
10
21.360672
20
51.373447
11
19.091072
21
50.374679
0
LINE
8
Capa 1
10
19.091072
20
50.374679
11
17.042468
21
49.026695
0
LINE
8
Capa 1
10
17.042468
20
49.026695
11
15.317955
21
47.385521
0
LINE
8
Capa 1
10
15.317955
20
47.385521
11
14.832518
21
46.772459
0
LINE
8
Capa 1
10
14.832518
20
46.772459
11
14.936014
21
46.555455
0
LINE
8
Capa 1
10
14.936014
20
46.555455
11
16.210724
21
45.968106
0
LINE
8
Capa 1
10
16.210724
20
45.968106
11
17.161565
21
45.618344
0
LINE
8
Capa 1
10
17.161565
20
45.618344
11
17.706424
21
45.590837
0
LINE
8
Capa 1
10
17.706424
20
45.590837
11
18.113567
21
45.596722
0
LINE
8
Capa 1
10
18.113567
20
45.596722
11
18.430927
21
45.372304
0
LINE
8
Capa 1
10
18.430927
20
45.372304
11
18.725685
21
45.089910
0
LINE
8
Capa 1
10
18.725685
20
45.089910
11
19.068744
21
45.274658
0
LINE
8
Capa 1
10
19.068744
20
45.274658
11
19.411803
21
45.459406
0
LINE
8
Capa 1
10
19.411803
20
45.459406
11
19.974077
21
45.025617
0
LINE
8
Capa 1
10
19.974077
20
45.025617
11
20.528135
21
44.664992
0
LINE
8
Capa 1
10
20.528135
20
44.664992
11
21.049907
21
44.591825
0
LINE
8
Capa 1
10
21.049907
20
44.591825
11
21.601189
21
44.670858
0
LINE
8
Capa 1
10
21.601189
20
44.670858
11
22.272037
21
45.000350
0
LINE
8
Capa 1
10
22.272037
20
45.000350
11
23.129104
21
45.459918
0
LINE
8
Capa 1
10
23.129104
20
45.459918
11
23.869971
21
45.720184
0
LINE
8
Capa 1
10
23.869971
20
45.720184
11
26.113707
21
45.904064
0
LINE
8
Capa 1
10
26.113707
20
45.904064
11
28.080977
21
45.957647
0
LINE
8
Capa 1
10
28.080977
20
45.957647
11
28.702310
21
45.656451
0
LINE
8
Capa 1
10
28.702310
20
45.656451
11
29.970790
21
45.048455
0
LINE
8
Capa 1
10
29.970790
20
45.048455
11
31.464210
21
44.056256
0
LINE
8
Capa 1
10
31.464210
20
44.056256
11
32.916949
21
42.534614
0
LINE
8
Capa 1
10
32.916949
20
42.534614
11
34.320750
21
40.230706
0
LINE
8
Capa 1
10
34.320750
20
40.230706
11
35.054677
21
39.214596
0
LINE
8
Capa 1
10
35.054677
20
39.214596
11
35.555756
21
38.878121
0
LINE
8
Capa 1
10
35.555756
20
38.878121
11
36.442297
21
38.621887
0
LINE
8
Capa 1
10
36.442297
20
38.621887
11
36.782288
21
38.486890
0
LINE
8
Capa 1
10
36.782288
20
38.486890
11
36.996987
21
38.218722
0
LINE
8
Capa 1
10
36.996987
20
38.218722
11
37.712976
21
37.719358
0
LINE
8
Capa 1
10
37.712976
20
37.719358
11
38.651714
21
37.035607
0
LINE
8
Capa 1
10
38.651714
20
37.035607
11
39.839464
21
36.181146
0
LINE
8
Capa 1
10
39.839464
20
36.181146
11
39.969128
21
37.142487
0
LINE
8
Capa 1
10
39.969128
20
37.142487
11
39.969107
21
37.142473
0
LINE
8
Capa 1
10
13.790807
20
37.464071
11
14.038342
21
38.216327
0
LINE
8
Capa 1
10
14.038342
20
38.216327
11
13.824482
21
38.828601
0
LINE
8
Capa 1
10
13.824482
20
38.828601
11
13.405082
21
39.044671
0
LINE
8
Capa 1
10
13.405082
20
39.044671
11
13.037398
21
38.719457
0
LINE
8
Capa 1
10
13.037398
20
38.719457
11
12.687341
21
38.338567
0
LINE
8
Capa 1
10
12.687341
20
38.338567
11
11.933508
21
38.195306
0
LINE
8
Capa 1
10
11.933508
20
38.195306
11
11.360461
21
38.010624
0
LINE
8
Capa 1
10
11.360461
20
38.010624
11
11.689187
21
37.713578
0
LINE
8
Capa 1
10
11.689187
20
37.713578
11
12.081343
21
37.427701
0
LINE
8
Capa 1
10
12.081343
20
37.427701
11
12.331587
21
37.333236
0
LINE
8
Capa 1
10
12.331587
20
37.333236
11
12.810595
21
37.229931
0
LINE
8
Capa 1
10
12.810595
20
37.229931
11
13.375789
21
37.085582
0
LINE
8
Capa 1
10
13.375789
20
37.085582
11
13.790808
21
37.464065
0
LINE
8
Capa 1
10
13.790808
20
37.464065
11
13.790807
21
37.464071
0
LINE
8
Capa 1
10
10.729167
20
38.457278
11
10.798230
21
38.911203
0
LINE
8
Capa 1
10
10.798230
20
38.911203
11
11.147204
21
38.829788
0
LINE
8
Capa 1
10
11.147204
20
38.829788
11
11.531702
21
38.668746
0
LINE
8
Capa 1
10
11.531702
20
38.668746
11
11.651478
21
38.810145
0
LINE
8
Capa 1
10
11.651478
20
38.810145
11
11.740388
21
38.959488
0
LINE
8
Capa 1
10
11.740388
20
38.959488
11
11.886606
21
38.810145
0
LINE
8
Capa 1
10
11.886606
20
38.810145
11
12.058162
21
38.668750
0
LINE
8
Capa 1
10
12.058162
20
38.668750
11
12.337899
21
38.751762
0
LINE
8
Capa 1
10
12.337899
20
38.751762
11
12.410673
21
38.887416
0
LINE
8
Capa 1
10
12.410673
20
38.887416
11
12.266442
21
39.179924
0
LINE
8
Capa 1
10
12.266442
20
39.179924
11
11.857316
21
39.700124
0
LINE
8
Capa 1
10
11.857316
20
39.700124
11
11.508736
21
40.395163
0
LINE
8
Capa 1
10
11.508736
20
40.395163
11
11.019959
21
41.418998
0
LINE
8
Capa 1
10
11.019959
20
41.418998
11
10.397286
21
42.258133
0
LINE
8
Capa 1
10
10.397286
20
42.258133
11
9.990239
21
42.482677
0
LINE
8
Capa 1
10
9.990239
20
42.482677
11
9.715591
21
42.453143
0
LINE
8
Capa 1
10
9.715591
20
42.453143
11
9.906336
21
41.734998
0
LINE
8
Capa 1
10
9.906336
20
41.734998
11
10.158056
21
40.820881
0
LINE
8
Capa 1
10
10.158056
20
40.820881
11
10.103195
21
40.573317
0
LINE
8
Capa 1
10
10.103195
20
40.573317
11
9.734919
21
40.594629
0
LINE
8
Capa 1
10
9.734919
20
40.594629
11
8.639419
21
40.733896
0
LINE
8
Capa 1
10
8.639419
20
40.733896
11
8.335049
21
40.615570
0
LINE
8
Capa 1
10
8.335049
20
40.615570
11
8.566545
21
40.239982
0
LINE
8
Capa 1
10
8.566545
20
40.239982
11
9.162441
21
39.904704
0
LINE
8
Capa 1
10
9.162441
20
39.904704
11
9.546827
21
39.704043
0
LINE
8
Capa 1
10
9.546827
20
39.704043
11
9.706857
21
39.289858
0
LINE
8
Capa 1
10
9.706857
20
39.289858
11
9.945830
21
38.681265
0
LINE
8
Capa 1
10
9.945830
20
38.681265
11
10.402700
21
38.248928
0
LINE
8
Capa 1
10
10.402700
20
38.248928
11
10.725261
21
38.063816
0
LINE
8
Capa 1
10
10.725261
20
38.063816
11
10.729170
21
38.457301
0
LINE
8
Capa 1
10
10.729170
20
38.457301
11
10.729167
21
38.457278
0
LINE
8
Capa 1
10
9.910343
20
39.353959
11
9.939631
21
39.705481
0
LINE
8
Capa 1
10
9.939631
20
39.705481
11
10.196034
21
40.044858
0
LINE
8
Capa 1
10
10.196034
20
40.044858
11
10.558060
21
40.058423
0
LINE
8
Capa 1
10
10.558060
20
40.058423
11
10.755423
21
39.695975
0
LINE
8
Capa 1
10
10.755423
20
39.695975
11
10.716642
21
39.503609
0
LINE
8
Capa 1
10
10.716642
20
39.503609
11
10.549313
21
39.509280
0
LINE
8
Capa 1
10
10.549313
20
39.509280
11
10.375982
21
39.515613
0
LINE
8
Capa 1
10
10.375982
20
39.515613
11
10.288797
21
39.366648
0
LINE
8
Capa 1
10
10.288797
20
39.366648
11
10.104473
21
39.165232
0
LINE
8
Capa 1
10
10.104473
20
39.165232
11
9.910343
21
39.353948
0
LINE
8
Capa 1
10
9.910343
20
39.353948
11
9.910343
21
39.353959
0
LINE
8
Capa 1
10
11.098523
20
39.665081
11
11.129095
21
39.870784
0
LINE
8
Capa 1
10
11.129095
20
39.870784
11
11.280354
21
39.762546
0
LINE
8
Capa 1
10
11.280354
20
39.762546
11
11.253548
21
39.563318
0
LINE
8
Capa 1
10
11.253548
20
39.563318
11
11.098523
21
39.665081
0
LINE
8
Capa 1
10
11.098523
20
39.665081
11
11.098523
21
39.665081
0
LINE
8
Capa 1
10
32.758523
20
40.173244
11
32.662806
21
40.249211
0
LINE
8
Capa 1
10
32.662806
20
40.249211
11
32.520271
21
40.096290
0
LINE
8
Capa 1
10
32.520271
20
40.096290
11
32.469532
21
39.817516
0
LINE
8
Capa 1
10
32.469532
20
39.817516
11
32.612349
21
39.899449
0
LINE
8
Capa 1
10
32.612349
20
39.899449
11
32.758523
21
40.173244
0
LINE
8
Capa 1
10
32.758523
20
40.173244
11
32.758523
21
40.173244
0
LINE
8
Capa 1
10
16.268023
20
40.374274
11
16.194887
21
40.676294
0
LINE
8
Capa 1
10
16.194887
20
40.676294
11
15.519606
21
41.419674
0
LINE
8
Capa 1
10
15.519606
20
41.419674
11
14.509668
21
42.659664
0
LINE
8
Capa 1
10
14.509668
20
42.659664
11
13.832506
21
44.161574
0
LINE
8
Capa 1
10
13.832506
20
44.161574
11
13.532983
21
44.833615
0
LINE
8
Capa 1
10
13.532983
20
44.833615
11
12.530233
21
42.643255
0
LINE
8
Capa 1
10
12.530233
20
42.643255
11
12.128032
21
41.247688
0
LINE
8
Capa 1
10
12.128032
20
41.247688
11
12.010552
21
40.411325
0
LINE
8
Capa 1
10
12.010552
20
40.411325
11
12.307343
21
40.260654
0
LINE
8
Capa 1
10
12.307343
20
40.260654
11
12.667335
21
40.553091
0
LINE
8
Capa 1
10
12.667335
20
40.553091
11
12.898086
21
40.805845
0
LINE
8
Capa 1
10
12.898086
20
40.805845
11
13.414047
21
40.847307
0
LINE
8
Capa 1
10
13.414047
20
40.847307
11
14.837427
21
40.503146
0
LINE
8
Capa 1
10
14.837427
20
40.503146
11
15.830893
21
40.200657
0
LINE
8
Capa 1
10
15.830893
20
40.200657
11
16.101474
21
40.229532
0
LINE
8
Capa 1
10
16.101474
20
40.229532
11
16.268027
21
40.374275
0
LINE
8
Capa 1
10
16.268027
20
40.374275
11
16.268023
21
40.374274
0
LINE
8
Capa 1
10
17.095971
20
41.264134
11
18.122961
21
41.438367
0
LINE
8
Capa 1
10
18.122961
20
41.438367
11
18.869674
21
41.498297
0
LINE
8
Capa 1
10
18.869674
20
41.498297
11
18.900872
21
41.821873
0
LINE
8
Capa 1
10
18.900872
20
41.821873
11
18.932071
21
42.145449
0
LINE
8
Capa 1
10
18.932071
20
42.145449
11
18.384700
21
42.145400
0
LINE
8
Capa 1
10
18.384700
20
42.145400
11
17.625209
21
42.236520
0
LINE
8
Capa 1
10
17.625209
20
42.236520
11
17.205610
21
42.475202
0
LINE
8
Capa 1
10
17.205610
20
42.475202
11
17.128913
21
43.027488
0
LINE
8
Capa 1
10
17.128913
20
43.027488
11
17.034047
21
43.484726
0
LINE
8
Capa 1
10
17.034047
20
43.484726
11
16.520934
21
44.045828
0
LINE
8
Capa 1
10
16.520934
20
44.045828
11
15.688022
21
44.665962
0
LINE
8
Capa 1
10
15.688022
20
44.665962
11
14.808054
21
44.833013
0
LINE
8
Capa 1
10
14.808054
20
44.833013
11
14.222640
21
45.044067
0
LINE
8
Capa 1
10
14.222640
20
45.044067
11
13.941415
21
45.482070
0
LINE
8
Capa 1
10
13.941415
20
45.482070
11
13.841488
21
45.580055
0
LINE
8
Capa 1
10
13.841488
20
45.580055
11
13.949622
21
44.820637
0
LINE
8
Capa 1
10
13.949622
20
44.820637
11
14.394934
21
44.070975
0
LINE
8
Capa 1
10
14.394934
20
44.070975
11
14.989056
21
44.171782
0
LINE
8
Capa 1
10
14.989056
20
44.171782
11
15.588210
21
44.270658
0
LINE
8
Capa 1
10
15.588210
20
44.270658
11
15.725669
21
43.969026
0
LINE
8
Capa 1
10
15.725669
20
43.969026
11
15.519698
21
43.493410
0
LINE
8
Capa 1
10
15.519698
20
43.493410
11
15.291319
21
43.286405
0
LINE
8
Capa 1
10
15.291319
20
43.286405
11
15.018101
21
43.279130
0
LINE
8
Capa 1
10
15.018101
20
43.279130
11
14.746476
21
43.281338
0
LINE
8
Capa 1
10
14.746476
20
43.281338
11
14.690085
21
43.128120
0
LINE
8
Capa 1
10
14.690085
20
43.128120
11
15.234357
21
42.304245
0
LINE
8
Capa 1
10
15.234357
20
42.304245
11
16.264327
21
41.355386
0
LINE
8
Capa 1
10
16.264327
20
41.355386
11
16.726769
21
41.164240
0
LINE
8
Capa 1
10
16.726769
20
41.164240
11
17.096016
21
41.264093
0
LINE
8
Capa 1
10
17.096016
20
41.264093
11
17.095971
21
41.264134
0
LINE
8
Capa 1
10
16.281069
20
41.647640
11
16.284344
21
41.846663
0
LINE
8
Capa 1
10
16.284344
20
41.846663
11
16.437291
21
41.892290
0
LINE
8
Capa 1
10
16.437291
20
41.892290
11
16.527566
21
41.692157
0
LINE
8
Capa 1
10
16.527566
20
41.692157
11
16.436275
21
41.548078
0
LINE
8
Capa 1
10
16.436275
20
41.548078
11
16.281057
21
41.647640
0
LINE
8
Capa 1
10
16.281057
20
41.647640
11
16.281069
21
41.647640
0
LINE
8
Capa 1
10
15.899416
20
42.112259
11
15.836912
21
42.572658
0
LINE
8
Capa 1
10
15.836912
20
42.572658
11
15.966654
21
43.028448
0
LINE
8
Capa 1
10
15.966654
20
43.028448
11
16.172973
21
43.040801
0
LINE
8
Capa 1
10
16.172973
20
43.040801
11
16.231288
21
42.527100
0
LINE
8
Capa 1
10
16.231288
20
42.527100
11
16.141239
21
42.073048
0
LINE
8
Capa 1
10
16.141239
20
42.073048
11
15.899416
21
42.112259
0
LINE
8
Capa 1
10
15.899416
20
42.112259
11
15.899416
21
42.112259
0
LINE
8
Capa 1
10
21.364496
20
43.318399
11
21.973606
21
43.977290
0
LINE
8
Capa 1
10
21.973606
20
43.977290
11
22.014821
21
44.280483
0
LINE
8
Capa 1
10
22.014821
20
44.280483
11
21.754835
21
44.134329
0
LINE
8
Capa 1
10
21.754835
20
44.134329
11
21.426248
21
43.947773
0
LINE
8
Capa 1
10
21.426248
20
43.947773
11
21.033787
21
44.025707
0
LINE
8
Capa 1
10
21.033787
20
44.025707
11
19.842954
21
44.583548
0
LINE
8
Capa 1
10
19.842954
20
44.583548
11
19.188867
21
44.734048
0
LINE
8
Capa 1
10
19.188867
20
44.734048
11
18.252218
21
44.988138
0
LINE
8
Capa 1
10
18.252218
20
44.988138
11
17.532672
21
45.184325
0
LINE
8
Capa 1
10
17.532672
20
45.184325
11
16.441431
21
45.505159
0
LINE
8
Capa 1
10
16.441431
20
45.505159
11
14.289062
21
46.426955
0
LINE
8
Capa 1
10
14.289062
20
46.426955
11
13.511738
21
46.769070
0
LINE
8
Capa 1
10
13.511738
20
46.769070
11
13.372900
21
46.784796
0
LINE
8
Capa 1
10
13.372900
20
46.784796
11
14.887207
21
45.938022
0
LINE
8
Capa 1
10
14.887207
20
45.938022
11
16.993897
21
44.696052
0
LINE
8
Capa 1
10
16.993897
20
44.696052
11
17.939733
21
44.228619
0
LINE
8
Capa 1
10
17.939733
20
44.228619
11
19.458369
21
43.816903
0
LINE
8
Capa 1
10
19.458369
20
43.816903
11
20.236103
21
43.237213
0
LINE
8
Capa 1
10
20.236103
20
43.237213
11
20.711566
21
42.745969
0
LINE
8
Capa 1
10
20.711566
20
42.745969
11
21.364500
21
43.318400
0
LINE
8
Capa 1
10
21.364500
20
43.318400
11
21.364496
21
43.318399
 0 
ENDSEC
 0 
EOF