  0
SECTION
  2
HEADER
  9
$ACADVER
  1
AC1014
  9
$HANDSEED
  5
FFFF
  9
$MEASUREMENT
 70
     1
  0
ENDSEC
  0
SECTION
  2
TABLES
  0
TABLE
  2
VPORT
  5
8
330
0
100
AcDbSymbolTable
 70
     4
  0
VPORT
  5
2E
330
8
100
AcDbSymbolTableRecord
100
AcDbViewportTableRecord
  2
*ACTIVE
 70
     0
 10
0.0
 20
0.0
 11
1.0
 21
1.0
 12
210.0
 22
148.5
 13
0.0
 23
0.0
 14
10.0
 24
10.0
 15
10.0
 25
10.0
 16
0.0
 26
0.0
 36
1.0
 17
0.0
 27
0.0
 37
0.0
 40
341.0
 41
1.24
 42
50.0
 43
0.0
 44
0.0
 50
0.0
 51
0.0
 71
     0
 72
   100
 73
     1
 74
     3
 75
     0
 76
     0
 77
     0
 78
     0
  0
ENDTAB
  0
TABLE
  2
LTYPE
  5
5
330
0
100
AcDbSymbolTable
 70
     1
  0
LTYPE
  5
14
330
5
100
AcDbSymbolTableRecord
100
AcDbLinetypeTableRecord
  2
BYBLOCK
 70
     0
  3

 72
    65
 73
     0
 40
0.0
  0
LTYPE
  5
15
330
5
100
AcDbSymbolTableRecord
100
AcDbLinetypeTableRecord
  2
BYLAYER
 70
     0
  3

 72
    65
 73
     0
 40
0.0
  0
LTYPE
  5
16
330
5
100
AcDbSymbolTableRecord
100
AcDbLinetypeTableRecord
  2
CONTINUOUS
 70
     0
  3
Solid line
 72
    65
 73
     0
 40
0.0
  0
ENDTAB
  0
TABLE
  2
LAYER
  5
2
100
AcDbSymbolTable
 70
2
  0
LAYER
  5
50
100
AcDbSymbolTableRecord
100
AcDbLayerTableRecord
  2
0
 70
0
  6
CONTINUOUS
  0
LAYER
  5
51
100
AcDbSymbolTableRecord
100
AcDbLayerTableRecord
  2
Capa_1
 70
0
  6
CONTINUOUS
  0
ENDTAB
  0
TABLE
  2
STYLE
  5
3
330
0
100
AcDbSymbolTable
 70
     1
  0
STYLE
  5
11
330
3
100
AcDbSymbolTableRecord
100
AcDbTextStyleTableRecord
  2
STANDARD
 70
     0
 40
0.0
 41
1.0
 50
0.0
 71
     0
 42
2.5
  3
txt
  4

  0
ENDTAB
  0
TABLE
  2
VIEW
  5
6
330
0
100
AcDbSymbolTable
 70
     0
  0
ENDTAB
  0
TABLE
  2
UCS
  5
7
330
0
100
AcDbSymbolTable
 70
     0
  0
ENDTAB
  0
TABLE
  2
APPID
  5
9
330
0
100
AcDbSymbolTable
 70
     2
  0
APPID
  5
12
330
9
100
AcDbSymbolTableRecord
100
AcDbRegAppTableRecord
  2
ACAD
 70
     0
  0
ENDTAB
  0
TABLE
  2
DIMSTYLE
  5
A
330
0
100
AcDbSymbolTable
 70
     1
  0
DIMSTYLE
105
27
330
A
100
AcDbSymbolTableRecord
100
AcDbDimStyleTableRecord
  2
ISO-25
 70
     0
  3

  4

  5

  6

  7

 40
1.0
 41
2.5
 42
0.625
 43
3.75
 44
1.25
 45
0.0
 46
0.0
 47
0.0
 48
0.0
140
2.5
141
2.5
142
0.0
143
0.03937007874016
144
1.0
145
0.0
146
1.0
147
0.625
 71
     0
 72
     0
 73
     0
 74
     0
 75
     0
 76
     0
 77
     1
 78
     8
170
     0
171
     3
172
     1
173
     0
174
     0
175
     0
176
     0
177
     0
178
     0
270
     2
271
     2
272
     2
273
     2
274
     3
340
11
275
     0
280
     0
281
     0
282
     0
283
     0
284
     8
285
     0
286
     0
287
     3
288
     0
  0
ENDTAB
  0
TABLE
  2
BLOCK_RECORD
  5
1
330
0
100
AcDbSymbolTable
 70
     1
  0
BLOCK_RECORD
  5
1F
330
1
100
AcDbSymbolTableRecord
100
AcDbBlockTableRecord
  2
*MODEL_SPACE
  0
BLOCK_RECORD
  5
1B
330
1
100
AcDbSymbolTableRecord
100
AcDbBlockTableRecord
  2
*PAPER_SPACE
  0
ENDTAB
  0
ENDSEC
  0
SECTION
  2
BLOCKS
  0
BLOCK
  5
20
330
1F
100
AcDbEntity
  8
0
100
AcDbBlockBegin
  2
*MODEL_SPACE
 70
     0
 10
0.0
 20
0.0
 30
0.0
  3
*MODEL_SPACE
  1

  0
ENDBLK
  5
21
330
1F
100
AcDbEntity
  8
0
100
AcDbBlockEnd
  0
BLOCK
  5
1C
330
1B
100
AcDbEntity
 67
     1
  8
0
100
AcDbBlockBegin
  2
*PAPER_SPACE
  1

  0
ENDBLK
  5
1D
330
1B
100
AcDbEntity
 67
     1
  8
0
100
AcDbBlockEnd
  0
ENDSEC
  0
SECTION
  2
ENTITIES
  0
SPLINE
  5
100
100
AcDbEntity
  8
Capa_1
 62
7
100
AcDbSpline
 70
0
 71
3
 72
13
 73
9
 74
7
 40
0.000000
 40
0.000000
 40
0.000000
 40
0.000000
 40
0.572979
 40
1.140318
 40
1.713297
 40
2.286277
 40
2.853616
 40
3.426595
 40
3.426595
 40
3.426595
 40
3.426595
 10
33.469169
 20
242.375856
 30
0.0
 10
33.277248
 20
242.363353
 30
0.0
 10
32.895296
 20
242.338470
 30
0.0
 10
32.338022
 20
242.508455
 30
0.0
 10
31.849449
 20
242.817203
 30
0.0
 10
31.471870
 20
243.254768
 30
0.0
 10
31.221374
 20
243.780791
 30
0.0
 10
31.189522
 20
244.162225
 30
0.0
 10
31.173517
 20
244.353886
 30
0.0
 11
33.469169
 21
242.375856
 31
0.0
 11
32.896196
 21
242.373194
 31
0.0
 11
32.351175
 21
242.530757
 31
0.0
 11
31.868009
 21
242.838743
 31
0.0
 11
31.491983
 21
243.271073
 31
0.0
 11
31.255584
 21
243.786814
 31
0.0
 11
31.173517
 21
244.353886
 31
0.0
  0
LWPOLYLINE
  5
101
100
AcDbEntity
  8
Capa_1
 62
7
100
AcDbPolyline
 90
4
 70
0
 10
31.173517
 20
244.353886
 30
0.0
 10
31.173517
 20
257.101196
 30
0.0
 10
28.373517
 20
257.101196
 30
0.0
 10
28.373517
 20
244.353886
 30
0.0
  0
SPLINE
  5
102
100
AcDbEntity
  8
Capa_1
 62
7
100
AcDbSpline
 70
0
 71
3
 72
25
 73
21
 74
19
 40
0.000000
 40
0.000000
 40
0.000000
 40
0.000000
 40
0.572979
 40
1.140318
 40
1.713297
 40
2.286277
 40
2.853616
 40
3.426595
 40
10.915630
 40
18.324377
 40
25.813412
 40
33.302447
 40
40.711195
 40
48.200229
 40
48.773209
 40
49.340547
 40
49.913526
 40
50.486506
 40
51.053844
 40
51.626824
 40
51.626824
 40
51.626824
 40
51.626824
 10
28.373517
 20
244.353886
 30
0.0
 10
28.357512
 20
244.162227
 30
0.0
 10
28.325661
 20
243.780796
 30
0.0
 10
28.075161
 20
243.254748
 30
0.0
 10
27.697596
 20
242.817279
 30
0.0
 10
27.208969
 20
242.508170
 30
0.0
 10
26.651895
 20
242.339528
 30
0.0
 10
23.757702
 20
242.502398
 30
0.0
 10
18.793751
 20
244.310855
 30
0.0
 10
12.517257
 20
248.470614
 30
0.0
 10
7.800573
 20
254.415104
 30
0.0
 10
5.010836
 20
261.472116
 30
0.0
 10
4.546624
 20
268.987599
 30
0.0
 10
5.462431
 20
274.190734
 30
0.0
 10
6.768476
 20
276.778615
 30
0.0
 10
7.193061
 20
277.176734
 30
0.0
 10
7.705071
 20
277.445344
 30
0.0
 10
8.272712
 20
277.553590
 30
0.0
 10
8.853533
 20
277.507506
 30
0.0
 10
9.199788
 20
277.344375
 30
0.0
 10
9.373771
 20
277.262406
 30
0.0
 11
28.373517
 21
244.353886
 31
0.0
 11
28.291450
 21
243.786814
 31
0.0
 11
28.055051
 21
243.271073
 31
0.0
 11
27.679025
 21
242.838743
 31
0.0
 11
27.195859
 21
242.530757
 31
0.0
 11
26.650838
 21
242.373194
 31
0.0
 11
26.077865
 21
242.375856
 31
0.0
 11
18.920440
 21
244.579694
 31
0.0
 11
12.796480
 21
248.749426
 31
0.0
 11
8.122883
 21
254.601189
 31
0.0
 11
5.391905
 21
261.574524
 31
0.0
 11
4.842791
 21
268.962894
 31
0.0
 11
6.512922
 21
276.263326
 31
0.0
 11
6.797103
 21
276.760866
 31
0.0
 11
7.206067
 21
277.154087
 31
0.0
 11
7.714373
 21
277.418528
 31
0.0
 11
8.276795
 21
277.528012
 31
0.0
 11
8.841640
 21
277.474869
 31
0.0
 11
9.373771
 21
277.262406
 31
0.0
  0
LWPOLYLINE
  5
103
100
AcDbEntity
  8
Capa_1
 62
7
100
AcDbPolyline
 90
4
 70
0
 10
9.373771
 20
277.262406
 30
0.0
 10
20.413262
 20
270.888746
 30
0.0
 10
21.813263
 20
273.313626
 30
0.0
 10
10.773772
 20
279.687276
 30
0.0
  0
SPLINE
  5
104
100
AcDbEntity
  8
Capa_1
 62
7
100
AcDbSpline
 70
0
 71
3
 72
25
 73
21
 74
19
 40
0.000000
 40
0.000000
 40
0.000000
 40
0.000000
 40
0.572980
 40
1.140319
 40
1.713298
 40
2.286278
 40
2.853617
 40
3.426597
 40
10.915632
 40
18.324380
 40
25.813416
 40
33.302451
 40
40.711199
 40
48.200235
 40
48.773214
 40
49.340554
 40
49.913534
 40
50.486514
 40
51.053853
 40
51.626833
 40
51.626833
 40
51.626833
 40
51.626833
 10
10.773772
 20
279.687276
 30
0.0
 10
10.615793
 20
279.796966
 30
0.0
 10
10.301390
 20
280.015266
 30
0.0
 10
9.971069
 20
280.495231
 30
0.0
 10
9.780992
 20
281.040945
 30
0.0
 10
9.757610
 20
281.618664
 30
0.0
 10
9.890100
 20
282.185426
 30
0.0
 10
11.478251
 20
284.610433
 30
0.0
 10
15.526391
 20
288.005116
 30
0.0
 10
22.267097
 20
291.360838
 30
0.0
 10
29.773518
 20
292.473361
 30
0.0
 10
37.279940
 20
291.360838
 30
0.0
 10
44.020645
 20
288.005115
 30
0.0
 10
48.068789
 20
284.610435
 30
0.0
 10
49.656937
 20
282.185425
 30
0.0
 10
49.789426
 20
281.618663
 30
0.0
 10
49.766042
 20
281.040944
 30
0.0
 10
49.575965
 20
280.495229
 30
0.0
 10
49.245643
 20
280.015266
 30
0.0
 10
48.931239
 20
279.796966
 30
0.0
 10
48.773260
 20
279.687276
 30
0.0
 11
10.773772
 21
279.687276
 31
0.0
 11
10.323707
 21
280.041884
 31
0.0
 11
9.995262
 21
280.504483
 31
0.0
 11
9.808866
 21
281.046297
 31
0.0
 11
9.783726
 21
281.618725
 31
0.0
 11
9.919784
 21
282.169508
 31
0.0
 11
10.208577
 21
282.664386
 31
0.0
 11
15.695870
 21
287.760979
 31
0.0
 11
22.368944
 21
290.979619
 31
0.0
 11
29.773518
 21
292.101190
 31
0.0
 11
37.178093
 21
290.979619
 31
0.0
 11
43.851167
 21
287.760979
 31
0.0
 11
49.338460
 21
282.664386
 31
0.0
 11
49.627252
 21
282.169507
 31
0.0
 11
49.763310
 21
281.618724
 31
0.0
 11
49.738169
 21
281.046296
 31
0.0
 11
49.551772
 21
280.504482
 31
0.0
 11
49.223326
 21
280.041884
 31
0.0
 11
48.773260
 21
279.687276
 31
0.0
  0
LWPOLYLINE
  5
105
100
AcDbEntity
  8
Capa_1
 62
7
100
AcDbPolyline
 90
4
 70
0
 10
48.773260
 20
279.687276
 30
0.0
 10
37.733771
 20
273.313626
 30
0.0
 10
39.133770
 20
270.888746
 30
0.0
 10
50.173270
 20
277.262406
 30
0.0
  0
LWPOLYLINE
  5
106
100
AcDbEntity
  8
Capa_1
 62
7
100
AcDbPolyline
 90
1
 70
1
 10
33.469169
 20
242.375856
 30
0.0
  0
LWPOLYLINE
  5
107
100
AcDbEntity
  8
Capa_1
 62
7
100
AcDbPolyline
 90
4
 70
0
 10
75.815843
 20
276.035816
 30
0.0
 10
78.615843
 20
276.035816
 30
0.0
 10
78.615843
 20
282.737712
 30
0.0
 10
79.175413
 20
283.936274
 30
0.0
  0
SPLINE
  5
108
100
AcDbEntity
  8
Capa_1
 62
7
100
AcDbSpline
 70
0
 71
3
 72
19
 73
15
 74
13
 40
0.000000
 40
0.000000
 40
0.000000
 40
0.000000
 40
0.572977
 40
1.140314
 40
1.713291
 40
2.286268
 40
2.853604
 40
3.426581
 40
10.915616
 40
18.324363
 40
25.813398
 40
33.302432
 40
40.711180
 40
48.200215
 40
48.200215
 40
48.200215
 40
48.200215
 10
50.173270
 20
277.262406
 30
0.0
 10
50.347253
 20
277.344374
 30
0.0
 10
50.693508
 20
277.507503
 30
0.0
 10
51.274327
 20
277.553585
 30
0.0
 10
51.841965
 20
277.445338
 30
0.0
 10
52.353973
 20
277.176730
 30
0.0
 10
52.778557
 20
276.778612
 30
0.0
 10
54.084604
 20
274.190752
 30
0.0
 10
55.000554
 20
268.986603
 30
0.0
 10
54.535680
 20
261.475604
 30
0.0
 10
51.748405
 20
254.401982
 30
0.0
 10
47.022554
 20
248.519335
 30
0.0
 10
40.780034
 20
244.130382
 30
0.0
 10
35.914864
 20
242.962795
 30
0.0
 10
33.469169
 20
242.375856
 30
0.0
 11
50.173270
 21
277.262406
 31
0.0
 11
50.705401
 21
277.474867
 31
0.0
 11
51.270243
 21
277.528008
 31
0.0
 11
51.832663
 21
277.418524
 31
0.0
 11
52.340967
 21
277.154083
 31
0.0
 11
52.749929
 21
276.760864
 31
0.0
 11
53.034110
 21
276.263326
 31
0.0
 11
54.704242
 21
268.962895
 31
0.0
 11
54.155128
 21
261.574524
 31
0.0
 11
51.424150
 21
254.601190
 31
0.0
 11
46.750554
 21
248.749426
 31
0.0
 11
40.626594
 21
244.579695
 31
0.0
 11
33.469169
 21
242.375856
 31
0.0
  0
LWPOLYLINE
  5
109
100
AcDbEntity
  8
Capa_1
 62
7
100
AcDbPolyline
 90
2
 70
0
 10
80.114671
 20
283.841024
 30
0.0
 10
80.535888
 20
282.092129
 30
0.0
  0
SPLINE
  5
10a
100
AcDbEntity
  8
Capa_1
 62
7
100
AcDbSpline
 70
0
 71
3
 72
13
 73
9
 74
7
 40
0.000000
 40
0.000000
 40
0.000000
 40
0.000000
 40
0.205642
 40
0.407294
 40
0.612936
 40
0.818577
 40
1.020230
 40
1.225871
 40
1.225871
 40
1.225871
 40
1.225871
 10
80.114683
 20
283.842188
 30
0.0
 10
80.090395
 20
283.907351
 30
0.0
 10
80.042290
 20
284.036413
 30
0.0
 10
79.879445
 20
284.173282
 30
0.0
 10
79.679989
 20
284.237304
 30
0.0
 10
79.471785
 20
284.214218
 30
0.0
 10
79.284978
 20
284.112461
 30
0.0
 10
79.212172
 20
283.995541
 30
0.0
 10
79.175412
 20
283.936508
 30
0.0
 11
80.114683
 21
283.842188
 31
0.0
 11
80.026497
 21
284.027961
 31
0.0
 11
79.874541
 21
284.160525
 31
0.0
 11
79.678521
 21
284.222691
 31
0.0
 11
79.474055
 21
284.200742
 31
0.0
 11
79.298775
 21
284.101037
 31
0.0
 11
79.175412
 21
283.936508
 31
0.0
  0
LWPOLYLINE
  5
10b
100
AcDbEntity
  8
Capa_1
 62
7
100
AcDbPolyline
 90
2
 70
0
 10
80.749935
 20
278.626087
 30
0.0
 10
79.215842
 20
265.090004
 30
0.0
  0
SPLINE
  5
10c
100
AcDbEntity
  8
Capa_1
 62
7
100
AcDbSpline
 70
0
 71
3
 72
10
 73
6
 74
4
 40
0.000000
 40
0.000000
 40
0.000000
 40
0.000000
 40
1.163557
 40
2.325158
 40
3.488715
 40
3.488715
 40
3.488715
 40
3.488715
 10
80.749930
 20
278.625875
 30
0.0
 10
80.780166
 20
279.012831
 30
0.0
 10
80.840587
 20
279.786093
 30
0.0
 10
80.768595
 20
280.952010
 30
0.0
 10
80.613501
 20
281.711964
 30
0.0
 10
80.535889
 20
282.092261
 30
0.0
 11
80.749930
 21
278.625875
 31
0.0
 11
80.813492
 21
279.787694
 31
0.0
 11
80.741902
 21
280.947087
 31
0.0
 11
80.535889
 21
282.092261
 31
0.0
  0
LWPOLYLINE
  5
10d
100
AcDbEntity
  8
Capa_1
 62
7
100
AcDbPolyline
 90
2
 70
0
 10
73.681751
 20
278.626087
 30
0.0
 10
75.215844
 20
265.090004
 30
0.0
  0
LWPOLYLINE
  5
10e
100
AcDbEntity
  8
Capa_1
 62
7
100
AcDbPolyline
 90
2
 70
0
 10
74.317015
 20
283.841024
 30
0.0
 10
73.895798
 20
282.092129
 30
0.0
  0
SPLINE
  5
10f
100
AcDbEntity
  8
Capa_1
 62
7
100
AcDbSpline
 70
0
 71
3
 72
10
 73
6
 74
4
 40
0.000000
 40
0.000000
 40
0.000000
 40
0.000000
 40
1.163557
 40
2.325158
 40
3.488715
 40
3.488715
 40
3.488715
 40
3.488715
 10
73.895797
 20
282.092261
 30
0.0
 10
73.818185
 20
281.711964
 30
0.0
 10
73.663091
 20
280.952010
 30
0.0
 10
73.591099
 20
279.786093
 30
0.0
 10
73.651520
 20
279.012831
 30
0.0
 10
73.681756
 20
278.625875
 30
0.0
 11
73.895797
 21
282.092261
 31
0.0
 11
73.689784
 21
280.947087
 31
0.0
 11
73.618194
 21
279.787694
 31
0.0
 11
73.681756
 21
278.625875
 31
0.0
  0
LWPOLYLINE
  5
110
100
AcDbEntity
  8
Capa_1
 62
7
100
AcDbPolyline
 90
3
 70
0
 10
75.815843
 20
276.035816
 30
0.0
 10
75.815843
 20
282.737712
 30
0.0
 10
75.256273
 20
283.936274
 30
0.0
  0
LWPOLYLINE
  5
111
100
AcDbEntity
  8
Capa_1
 62
7
100
AcDbPolyline
 90
2
 70
0
 10
66.261511
 20
253.530358
 30
0.0
 10
77.215843
 20
261.626608
 30
0.0
  0
LWPOLYLINE
  5
112
100
AcDbEntity
  8
Capa_1
 62
7
100
AcDbPolyline
 90
2
 70
0
 10
62.727419
 20
259.652816
 30
0.0
 10
75.215844
 20
265.090004
 30
0.0
  0
LWPOLYLINE
  5
113
100
AcDbEntity
  8
Capa_1
 62
7
100
AcDbPolyline
 90
2
 70
0
 10
58.527582
 20
256.493691
 30
0.0
 10
59.832480
 20
257.734587
 30
0.0
  0
SPLINE
  5
114
100
AcDbEntity
  8
Capa_1
 62
7
100
AcDbSpline
 70
0
 71
3
 72
13
 73
9
 74
7
 40
0.000000
 40
0.000000
 40
0.000000
 40
0.000000
 40
0.205642
 40
0.407294
 40
0.612936
 40
0.818577
 40
1.020230
 40
1.225871
 40
1.225871
 40
1.225871
 40
1.225871
 10
75.256274
 20
283.936512
 30
0.0
 10
75.219514
 20
283.995545
 30
0.0
 10
75.146708
 20
284.112465
 30
0.0
 10
74.959901
 20
284.214222
 30
0.0
 10
74.751697
 20
284.237308
 30
0.0
 10
74.552241
 20
284.173286
 30
0.0
 10
74.389396
 20
284.036417
 30
0.0
 10
74.341291
 20
283.907355
 30
0.0
 10
74.317003
 20
283.842192
 30
0.0
 11
75.256274
 21
283.936512
 31
0.0
 11
75.132911
 21
284.101041
 31
0.0
 11
74.957631
 21
284.200746
 31
0.0
 11
74.753165
 21
284.222695
 31
0.0
 11
74.557145
 21
284.160529
 31
0.0
 11
74.405189
 21
284.027965
 31
0.0
 11
74.317003
 21
283.842192
 31
0.0
  0
SPLINE
  5
115
100
AcDbEntity
  8
Capa_1
 62
7
100
AcDbSpline
 70
0
 71
3
 72
10
 73
6
 74
4
 40
0.000000
 40
0.000000
 40
0.000000
 40
0.000000
 40
1.163548
 40
2.325141
 40
3.488689
 40
3.488689
 40
3.488689
 40
3.488689
 10
63.152530
 20
251.983392
 30
0.0
 10
63.520680
 20
252.106325
 30
0.0
 10
64.256361
 20
252.351985
 30
0.0
 10
65.302064
 20
252.872592
 30
0.0
 10
65.941514
 20
253.311544
 30
0.0
 10
66.261508
 20
253.531205
 30
0.0
 11
63.152530
 21
251.983392
 31
0.0
 11
64.247278
 21
252.377563
 31
0.0
 11
65.287130
 21
252.895256
 31
0.0
 11
66.261508
 21
253.531205
 31
0.0
  0
LWPOLYLINE
  5
116
100
AcDbEntity
  8
Capa_1
 62
7
100
AcDbPolyline
 90
2
 70
0
 10
61.426436
 20
251.471900
 30
0.0
 10
63.152525
 20
251.982546
 30
0.0
  0
LWPOLYLINE
  5
117
100
AcDbEntity
  8
Capa_1
 62
7
100
AcDbPolyline
 90
2
 70
0
 10
66.036933
 20
259.099837
 30
0.0
 10
60.234567
 20
255.750212
 30
0.0
  0
SPLINE
  5
118
100
AcDbEntity
  8
Capa_1
 62
7
100
AcDbSpline
 70
0
 71
3
 72
10
 73
6
 74
4
 40
0.000000
 40
0.000000
 40
0.000000
 40
0.000000
 40
1.163549
 40
2.325142
 40
3.488690
 40
3.488690
 40
3.488690
 40
3.488690
 10
62.727421
 20
259.652419
 30
0.0
 10
62.377192
 20
259.485127
 30
0.0
 10
61.677322
 20
259.150824
 30
0.0
 10
60.703612
 20
258.505522
 30
0.0
 10
60.123023
 20
257.991233
 30
0.0
 10
59.832484
 20
257.733873
 30
0.0
 11
62.727421
 21
259.652419
 31
0.0
 11
61.689483
 21
259.126558
 31
0.0
 11
60.721221
 21
258.484867
 31
0.0
 11
59.832484
 21
257.733873
 31
0.0
  0
LWPOLYLINE
  5
119
100
AcDbEntity
  8
Capa_1
 62
7
100
AcDbPolyline
 90
3
 70
0
 10
67.436922
 20
256.673608
 30
0.0
 10
61.634557
 20
253.323983
 30
0.0
 10
60.875124
 20
252.239191
 30
0.0
  0
SPLINE
  5
11a
100
AcDbEntity
  8
Capa_1
 62
7
100
AcDbSpline
 70
0
 71
3
 72
13
 73
9
 74
7
 40
0.000000
 40
0.000000
 40
0.000000
 40
0.000000
 40
0.205632
 40
0.407275
 40
0.612907
 40
0.818539
 40
1.020183
 40
1.225815
 40
1.225815
 40
1.225815
 40
1.225815
 10
60.875120
 20
252.239456
 30
0.0
 10
60.842381
 20
252.178106
 30
0.0
 10
60.777537
 20
252.056597
 30
0.0
 10
60.782820
 20
251.843949
 30
0.0
 10
60.866926
 20
251.652106
 30
0.0
 10
61.022089
 20
251.511387
 30
0.0
 10
61.222032
 20
251.438791
 30
0.0
 10
61.357850
 20
251.461653
 30
0.0
 10
61.426424
 20
251.473196
 30
0.0
 11
60.875120
 21
252.239456
 31
0.0
 11
60.794327
 21
252.050361
 31
0.0
 11
60.795625
 21
251.848722
 31
0.0
 11
60.878846
 21
251.660682
 31
0.0
 11
61.030684
 21
251.522011
 31
0.0
 11
61.221455
 21
251.456693
 31
0.0
 11
61.426424
 21
251.473196
 31
0.0
  0
LWPOLYLINE
  5
11b
100
AcDbEntity
  8
Capa_1
 62
7
100
AcDbPolyline
 90
2
 70
0
 10
60.234567
 20
255.750212
 30
0.0
 10
58.915540
 20
255.633796
 30
0.0
  0
LWPOLYLINE
  5
11c
100
AcDbEntity
  8
Capa_1
 62
7
100
AcDbPolyline
 90
2
 70
0
 10
67.436922
 20
256.673608
 30
0.0
 10
66.036933
 20
259.099837
 30
0.0
  0
LWPOLYLINE
  5
11d
100
AcDbEntity
  8
Capa_1
 62
7
100
AcDbPolyline
 90
2
 70
0
 10
91.704267
 20
259.652816
 30
0.0
 10
79.215842
 20
265.090004
 30
0.0
  0
LWPOLYLINE
  5
11e
100
AcDbEntity
  8
Capa_1
 62
7
100
AcDbPolyline
 90
2
 70
0
 10
88.170175
 20
253.530358
 30
0.0
 10
77.215843
 20
261.626608
 30
0.0
  0
LWPOLYLINE
  5
11f
100
AcDbEntity
  8
Capa_1
 62
7
100
AcDbPolyline
 90
2
 70
0
 10
93.005250
 20
251.471900
 30
0.0
 10
91.279161
 20
251.982546
 30
0.0
  0
SPLINE
  5
120
100
AcDbEntity
  8
Capa_1
 62
7
100
AcDbSpline
 70
0
 71
3
 72
13
 73
9
 74
7
 40
0.000000
 40
0.000000
 40
0.000000
 40
0.000000
 40
0.205641
 40
0.407292
 40
0.612933
 40
0.818574
 40
1.020226
 40
1.225866
 40
1.225866
 40
1.225866
 40
1.225866
 10
58.527584
 20
256.494115
 30
0.0
 10
58.483297
 20
256.440499
 30
0.0
 10
58.395581
 20
256.334306
 30
0.0
 10
58.358476
 20
256.124844
 30
0.0
 10
58.402763
 20
255.920100
 30
0.0
 10
58.526860
 20
255.751336
 30
0.0
 10
58.708389
 20
255.640439
 30
0.0
 10
58.846048
 20
255.635849
 30
0.0
 10
58.915551
 20
255.633531
 30
0.0
 11
58.527584
 21
256.494115
 31
0.0
 11
58.410797
 21
256.324855
 31
0.0
 11
58.371975
 21
256.126975
 31
0.0
 11
58.416151
 21
255.926136
 31
0.0
 11
58.537396
 21
255.760040
 31
0.0
 11
58.711383
 21
255.658099
 31
0.0
 11
58.915551
 21
255.633531
 31
0.0
  0
SPLINE
  5
121
100
AcDbEntity
  8
Capa_1
 62
7
100
AcDbSpline
 70
0
 71
3
 72
10
 73
6
 74
4
 40
0.000000
 40
0.000000
 40
0.000000
 40
0.000000
 40
1.163549
 40
2.325142
 40
3.488690
 40
3.488690
 40
3.488690
 40
3.488690
 10
94.599202
 20
257.733873
 30
0.0
 10
94.308663
 20
257.991233
 30
0.0
 10
93.728074
 20
258.505522
 30
0.0
 10
92.754364
 20
259.150824
 30
0.0
 10
92.054494
 20
259.485127
 30
0.0
 10
91.704265
 20
259.652419
 30
0.0
 11
94.599202
 21
257.733873
 31
0.0
 11
93.710465
 21
258.484867
 31
0.0
 11
92.742203
 21
259.126558
 31
0.0
 11
91.704265
 21
259.652419
 31
0.0
  0
LWPOLYLINE
  5
122
100
AcDbEntity
  8
Capa_1
 62
7
100
AcDbPolyline
 90
2
 70
0
 10
95.904104
 20
256.493691
 30
0.0
 10
94.599206
 20
257.734587
 30
0.0
  0
LWPOLYLINE
  5
123
100
AcDbEntity
  8
Capa_1
 62
7
100
AcDbPolyline
 90
2
 70
0
 10
86.994764
 20
256.673608
 30
0.0
 10
92.797129
 20
253.323983
 30
0.0
  0
SPLINE
  5
124
100
AcDbEntity
  8
Capa_1
 62
7
100
AcDbSpline
 70
0
 71
3
 72
10
 73
6
 74
4
 40
0.000000
 40
0.000000
 40
0.000000
 40
0.000000
 40
1.163548
 40
2.325141
 40
3.488689
 40
3.488689
 40
3.488689
 40
3.488689
 10
88.170178
 20
253.531205
 30
0.0
 10
88.490172
 20
253.311544
 30
0.0
 10
89.129622
 20
252.872592
 30
0.0
 10
90.175325
 20
252.351985
 30
0.0
 10
90.911006
 20
252.106325
 30
0.0
 10
91.279156
 20
251.983392
 30
0.0
 11
88.170178
 21
253.531205
 31
0.0
 11
89.144556
 21
252.895256
 31
0.0
 11
90.184408
 21
252.377563
 31
0.0
 11
91.279156
 21
251.983392
 31
0.0
  0
LWPOLYLINE
  5
125
100
AcDbEntity
  8
Capa_1
 62
7
100
AcDbPolyline
 90
3
 70
0
 10
88.394753
 20
259.099837
 30
0.0
 10
94.197119
 20
255.750212
 30
0.0
 10
95.516146
 20
255.633796
 30
0.0
  0
SPLINE
  5
126
100
AcDbEntity
  8
Capa_1
 62
7
100
AcDbSpline
 70
0
 71
3
 72
13
 73
9
 74
7
 40
0.000000
 40
0.000000
 40
0.000000
 40
0.000000
 40
0.205641
 40
0.407292
 40
0.612933
 40
0.818574
 40
1.020226
 40
1.225866
 40
1.225866
 40
1.225866
 40
1.225866
 10
95.516135
 20
255.633531
 30
0.0
 10
95.585638
 20
255.635849
 30
0.0
 10
95.723297
 20
255.640439
 30
0.0
 10
95.904826
 20
255.751336
 30
0.0
 10
96.028923
 20
255.920100
 30
0.0
 10
96.073210
 20
256.124844
 30
0.0
 10
96.036105
 20
256.334306
 30
0.0
 10
95.948389
 20
256.440499
 30
0.0
 10
95.904102
 20
256.494115
 30
0.0
 11
95.516135
 21
255.633531
 31
0.0
 11
95.720303
 21
255.658099
 31
0.0
 11
95.894290
 21
255.760040
 31
0.0
 11
96.015535
 21
255.926136
 31
0.0
 11
96.059711
 21
256.126975
 31
0.0
 11
96.020889
 21
256.324855
 31
0.0
 11
95.904102
 21
256.494115
 31
0.0
  0
LWPOLYLINE
  5
127
100
AcDbEntity
  8
Capa_1
 62
7
100
AcDbPolyline
 90
2
 70
0
 10
92.797129
 20
253.323983
 30
0.0
 10
93.556562
 20
252.239191
 30
0.0
  0
LWPOLYLINE
  5
128
100
AcDbEntity
  8
Capa_1
 62
7
100
AcDbPolyline
 90
2
 70
0
 10
88.394753
 20
259.099837
 30
0.0
 10
86.994764
 20
256.673608
 30
0.0
  0
LWPOLYLINE
  5
129
100
AcDbEntity
  8
Capa_1
 62
7
100
AcDbPolyline
 90
4
 70
0
 10
8.005373
 20
239.301545
 30
0.0
 10
9.916620
 20
241.347793
 30
0.0
 10
5.018854
 20
245.922427
 30
0.0
 10
4.524897
 20
247.149487
 30
0.0
  0
SPLINE
  5
12a
100
AcDbEntity
  8
Capa_1
 62
7
100
AcDbSpline
 70
0
 71
3
 72
13
 73
9
 74
7
 40
0.000000
 40
0.000000
 40
0.000000
 40
0.000000
 40
0.205632
 40
0.407275
 40
0.612907
 40
0.818539
 40
1.020183
 40
1.225815
 40
1.225815
 40
1.225815
 40
1.225815
 10
93.005262
 20
251.473196
 30
0.0
 10
93.073836
 20
251.461653
 30
0.0
 10
93.209654
 20
251.438791
 30
0.0
 10
93.409597
 20
251.511387
 30
0.0
 10
93.564760
 20
251.652106
 30
0.0
 10
93.648866
 20
251.843949
 30
0.0
 10
93.654149
 20
252.056597
 30
0.0
 10
93.589305
 20
252.178106
 30
0.0
 10
93.556566
 20
252.239456
 30
0.0
 11
93.005262
 21
251.473196
 31
0.0
 11
93.210231
 21
251.456693
 31
0.0
 11
93.401002
 21
251.522011
 31
0.0
 11
93.552840
 21
251.660682
 31
0.0
 11
93.636061
 21
251.848722
 31
0.0
 11
93.637359
 21
252.050361
 31
0.0
 11
93.556566
 21
252.239456
 31
0.0
  0
LWPOLYLINE
  5
12b
100
AcDbEntity
  8
Capa_1
 62
7
100
AcDbPolyline
 90
2
 70
0
 10
5.235632
 20
247.770883
 30
0.0
 10
6.801248
 20
246.884935
 30
0.0
  0
SPLINE
  5
12c
100
AcDbEntity
  8
Capa_1
 62
7
100
AcDbSpline
 70
0
 71
3
 72
13
 73
9
 74
7
 40
0.000000
 40
0.000000
 40
0.000000
 40
0.000000
 40
0.205641
 40
0.407294
 40
0.612935
 40
0.818577
 40
1.020229
 40
1.225871
 40
1.225871
 40
1.225871
 40
1.225871
 10
5.234790
 20
247.771686
 30
0.0
 10
5.170590
 20
247.798416
 30
0.0
 10
5.043435
 20
247.851356
 30
0.0
 10
4.832255
 20
247.825774
 30
0.0
 10
4.649321
 20
247.723711
 30
0.0
 10
4.524074
 20
247.555798
 30
0.0
 10
4.470927
 20
247.349820
 30
0.0
 10
4.506676
 20
247.216805
 30
0.0
 10
4.524725
 20
247.149646
 30
0.0
 11
5.234790
 21
247.771686
 31
0.0
 11
5.038831
 21
247.834046
 31
0.0
 11
4.838230
 21
247.813483
 31
0.0
 11
4.658998
 21
247.712665
 31
0.0
 11
4.535472
 21
247.548257
 31
0.0
 11
4.488693
 21
247.352106
 31
0.0
 11
4.524725
 21
247.149646
 31
0.0
  0
LWPOLYLINE
  5
12d
100
AcDbEntity
  8
Capa_1
 62
7
100
AcDbPolyline
 90
2
 70
0
 10
9.480347
 20
244.675482
 30
0.0
 10
18.325404
 20
234.314795
 30
0.0
  0
SPLINE
  5
12e
100
AcDbEntity
  8
Capa_1
 62
7
100
AcDbSpline
 70
0
 71
3
 72
10
 73
6
 74
4
 40
0.000000
 40
0.000000
 40
0.000000
 40
0.000000
 40
1.163556
 40
2.325157
 40
3.488713
 40
3.488713
 40
3.488713
 40
3.488713
 10
9.480499
 20
244.675334
 30
0.0
 10
9.218349
 20
244.961562
 30
0.0
 10
8.694490
 20
245.533537
 30
0.0
 10
7.793293
 20
246.276766
 30
0.0
 10
7.132051
 20
246.682159
 30
0.0
 10
6.801152
 20
246.885026
 30
0.0
 11
9.480499
 21
244.675334
 31
0.0
 11
8.674824
 21
245.514829
 31
0.0
 11
7.778670
 21
246.253899
 31
0.0
 11
6.801152
 21
246.885026
 31
0.0
  0
LWPOLYLINE
  5
12f
100
AcDbEntity
  8
Capa_1
 62
7
100
AcDbPolyline
 90
2
 70
0
 10
4.655690
 20
239.510032
 30
0.0
 10
15.595053
 20
231.391584
 30
0.0
  0
LWPOLYLINE
  5
130
100
AcDbEntity
  8
Capa_1
 62
7
100
AcDbPolyline
 90
2
 70
0
 10
1.278222
 20
243.533938
 30
0.0
 10
2.268802
 20
242.032337
 30
0.0
  0
SPLINE
  5
131
100
AcDbEntity
  8
Capa_1
 62
7
100
AcDbSpline
 70
0
 71
3
 72
10
 73
6
 74
4
 40
0.000000
 40
0.000000
 40
0.000000
 40
0.000000
 40
1.163556
 40
2.325157
 40
3.488713
 40
3.488713
 40
3.488713
 40
3.488713
 10
2.268705
 20
242.032426
 30
0.0
 10
2.493650
 20
241.716121
 30
0.0
 10
2.943161
 20
241.084043
 30
0.0
 10
3.746076
 20
240.235589
 30
0.0
 10
4.352421
 20
239.751926
 30
0.0
 10
4.655848
 20
239.509891
 30
0.0
 11
2.268705
 21
242.032426
 31
0.0
 11
2.964979
 21
241.100190
 31
0.0
 11
3.763401
 21
240.256484
 31
0.0
 11
4.655848
 21
239.509891
 31
0.0
  0
LWPOLYLINE
  5
132
100
AcDbEntity
  8
Capa_1
 62
7
100
AcDbPolyline
 90
3
 70
0
 10
8.005373
 20
239.301545
 30
0.0
 10
3.107607
 20
243.876179
 30
0.0
 10
1.849739
 20
244.285367
 30
0.0
  0
LWPOLYLINE
  5
133
100
AcDbEntity
  8
Capa_1
 62
7
100
AcDbPolyline
 90
2
 70
0
 10
17.930757
 20
216.957255
 30
0.0
 10
19.491289
 20
230.489117
 30
0.0
  0
LWPOLYLINE
  5
134
100
AcDbEntity
  8
Capa_1
 62
7
100
AcDbPolyline
 90
2
 70
0
 10
11.044118
 20
218.553646
 30
0.0
 10
15.595053
 20
231.391584
 30
0.0
  0
LWPOLYLINE
  5
135
100
AcDbEntity
  8
Capa_1
 62
7
100
AcDbPolyline
 90
2
 70
0
 10
10.486057
 20
213.328012
 30
0.0
 10
10.469914
 20
215.128656
 30
0.0
  0
SPLINE
  5
136
100
AcDbEntity
  8
Capa_1
 62
7
100
AcDbSpline
 70
0
 71
3
 72
13
 73
9
 74
7
 40
0.000000
 40
0.000000
 40
0.000000
 40
0.000000
 40
0.205641
 40
0.407294
 40
0.612935
 40
0.818577
 40
1.020229
 40
1.225871
 40
1.225871
 40
1.225871
 40
1.225871
 10
1.849566
 20
244.285531
 30
0.0
 10
1.781333
 20
244.298961
 30
0.0
 10
1.646191
 20
244.325563
 30
0.0
 10
1.444313
 20
244.258502
 30
0.0
 10
1.285326
 20
244.122104
 30
0.0
 10
1.195966
 20
243.932640
 30
0.0
 10
1.184835
 20
243.720208
 30
0.0
 10
1.246318
 20
243.596956
 30
0.0
 10
1.277360
 20
243.534727
 30
0.0
 11
1.849566
 21
244.285531
 31
0.0
 11
1.645121
 21
244.307682
 31
0.0
 11
1.452613
 21
244.247644
 31
0.0
 11
1.297006
 21
244.113202
 31
0.0
 11
1.208636
 21
243.927516
 31
0.0
 11
1.201792
 21
243.725980
 31
0.0
 11
1.277360
 21
243.534727
 31
0.0
  0
SPLINE
  5
137
100
AcDbEntity
  8
Capa_1
 62
7
100
AcDbSpline
 70
0
 71
3
 72
10
 73
6
 74
4
 40
0.000000
 40
0.000000
 40
0.000000
 40
0.000000
 40
1.163548
 40
2.325140
 40
3.488688
 40
3.488688
 40
3.488688
 40
3.488688
 10
16.939131
 20
213.629262
 30
0.0
 10
17.100586
 20
213.982220
 30
0.0
 10
17.423224
 20
214.687542
 30
0.0
 10
17.756548
 20
215.807105
 30
0.0
 10
17.872241
 20
216.574041
 30
0.0
 10
17.930136
 20
216.957831
 30
0.0
 11
16.939131
 21
213.629262
 31
0.0
 11
17.398332
 21
214.698364
 31
0.0
 11
17.729791
 21
215.811661
 31
0.0
 11
17.930136
 21
216.957831
 31
0.0
  0
LWPOLYLINE
  5
138
100
AcDbEntity
  8
Capa_1
 62
7
100
AcDbPolyline
 90
2
 70
0
 10
16.134720
 20
212.018689
 30
0.0
 10
16.939746
 20
213.628681
 30
0.0
  0
LWPOLYLINE
  5
139
100
AcDbEntity
  8
Capa_1
 62
7
100
AcDbPolyline
 90
2
 70
0
 10
13.707271
 20
220.594792
 30
0.0
 10
12.194561
 20
214.067992
 30
0.0
  0
SPLINE
  5
13a
100
AcDbEntity
  8
Capa_1
 62
7
100
AcDbSpline
 70
0
 71
3
 72
10
 73
6
 74
4
 40
0.000000
 40
0.000000
 40
0.000000
 40
0.000000
 40
1.163548
 40
2.325141
 40
3.488689
 40
3.488689
 40
3.488689
 40
3.488689
 10
11.044409
 20
218.553377
 30
0.0
 10
10.927605
 20
218.183237
 30
0.0
 10
10.694192
 20
217.443579
 30
0.0
 10
10.501137
 20
216.291512
 30
0.0
 10
10.480677
 20
215.516169
 30
0.0
 10
10.470439
 20
215.128172
 30
0.0
 11
11.044409
 21
218.553377
 31
0.0
 11
10.720226
 21
217.435902
 31
0.0
 11
10.528252
 21
216.290283
 31
0.0
 11
10.470439
 21
215.128172
 31
0.0
  0
LWPOLYLINE
  5
13b
100
AcDbEntity
  8
Capa_1
 62
7
100
AcDbPolyline
 90
3
 70
0
 10
16.435982
 20
219.961794
 30
0.0
 10
14.923273
 20
213.434994
 30
0.0
 10
15.197663
 20
212.139532
 30
0.0
  0
SPLINE
  5
13c
100
AcDbEntity
  8
Capa_1
 62
7
100
AcDbSpline
 70
0
 71
3
 72
13
 73
9
 74
7
 40
0.000000
 40
0.000000
 40
0.000000
 40
0.000000
 40
0.205632
 40
0.407275
 40
0.612907
 40
0.818539
 40
1.020183
 40
1.225815
 40
1.225815
 40
1.225815
 40
1.225815
 10
15.197466
 20
212.139710
 30
0.0
 10
15.219953
 20
212.073908
 30
0.0
 10
15.264491
 20
211.943579
 30
0.0
 10
15.423501
 20
211.802289
 30
0.0
 10
15.621110
 20
211.732804
 30
0.0
 10
15.829860
 20
211.750145
 30
0.0
 10
16.019392
 20
211.846710
 30
0.0
 10
16.095392
 20
211.961572
 30
0.0
 10
16.133765
 20
212.019565
 30
0.0
 11
15.197466
 21
212.139710
 31
0.0
 11
15.280509
 21
211.951592
 31
0.0
 11
15.428754
 21
211.814904
 31
0.0
 11
15.622979
 21
211.747369
 31
0.0
 11
15.827963
 21
211.763678
 31
0.0
 11
16.005916
 21
211.858508
 31
0.0
 11
16.133765
 21
212.019565
 31
0.0
  0
LWPOLYLINE
  5
13d
100
AcDbEntity
  8
Capa_1
 62
7
100
AcDbPolyline
 90
2
 70
0
 10
12.194561
 20
214.067992
 30
0.0
 10
11.379287
 20
213.024579
 30
0.0
  0
LWPOLYLINE
  5
13e
100
AcDbEntity
  8
Capa_1
 62
7
100
AcDbPolyline
 90
2
 70
0
 10
16.435982
 20
219.961794
 30
0.0
 10
13.707271
 20
220.594792
 30
0.0
  0
LWPOLYLINE
  5
13f
100
AcDbEntity
  8
Capa_1
 62
7
100
AcDbPolyline
 90
2
 70
0
 10
30.823366
 20
239.730014
 30
0.0
 10
18.325404
 20
234.314795
 30
0.0
  0
LWPOLYLINE
  5
140
100
AcDbEntity
  8
Capa_1
 62
7
100
AcDbPolyline
 90
2
 70
0
 10
32.885348
 20
232.968172
 30
0.0
 10
19.491289
 20
230.489117
 30
0.0
  0
LWPOLYLINE
  5
141
100
AcDbEntity
  8
Capa_1
 62
7
100
AcDbPolyline
 90
2
 70
0
 10
37.690040
 20
235.096581
 30
0.0
 10
36.138650
 20
234.183711
 30
0.0
  0
SPLINE
  5
142
100
AcDbEntity
  8
Capa_1
 62
7
100
AcDbSpline
 70
0
 71
3
 72
13
 73
9
 74
7
 40
0.000000
 40
0.000000
 40
0.000000
 40
0.000000
 40
0.205641
 40
0.407292
 40
0.612933
 40
0.818574
 40
1.020225
 40
1.225866
 40
1.225866
 40
1.225866
 40
1.225866
 10
10.485749
 20
213.328303
 30
0.0
 10
10.494702
 20
213.259340
 30
0.0
 10
10.512434
 20
213.122751
 30
0.0
 10
10.640182
 20
212.952658
 30
0.0
 10
10.820039
 20
212.845268
 30
0.0
 10
11.028079
 20
212.820762
 30
0.0
 10
11.233034
 20
212.877727
 30
0.0
 10
11.330352
 20
212.975195
 30
0.0
 10
11.379488
 20
213.024406
 30
0.0
 11
10.485749
 21
213.328303
 31
0.0
 11
10.529727
 21
213.127420
 31
0.0
 11
10.647839
 21
212.963979
 31
0.0
 11
10.824767
 21
212.859172
 31
0.0
 11
11.028911
 21
212.834403
 31
0.0
 11
11.222171
 21
212.891969
 31
0.0
 11
11.379488
 21
213.024406
 31
0.0
  0
SPLINE
  5
143
100
AcDbEntity
  8
Capa_1
 62
7
100
AcDbSpline
 70
0
 71
3
 72
10
 73
6
 74
4
 40
0.000000
 40
0.000000
 40
0.000000
 40
0.000000
 40
1.163548
 40
2.325141
 40
3.488689
 40
3.488689
 40
3.488689
 40
3.488689
 10
34.201784
 20
240.535794
 30
0.0
 10
33.815386
 20
240.499138
 30
0.0
 10
33.043239
 20
240.425889
 30
0.0
 10
31.907007
 20
240.154774
 30
0.0
 10
31.184975
 20
239.871498
 30
0.0
 10
30.823655
 20
239.729741
 30
0.0
 11
34.201784
 21
240.535794
 31
0.0
 11
33.046314
 21
240.398921
 31
0.0
 11
31.916440
 21
240.129323
 31
0.0
 11
30.823655
 21
239.729741
 31
0.0
  0
LWPOLYLINE
  5
144
100
AcDbEntity
  8
Capa_1
 62
7
100
AcDbPolyline
 90
2
 70
0
 10
35.998823
 20
240.642886
 30
0.0
 10
34.201264
 20
240.536284
 30
0.0
  0
LWPOLYLINE
  5
145
100
AcDbEntity
  8
Capa_1
 62
7
100
AcDbPolyline
 90
2
 70
0
 10
29.785930
 20
234.254723
 30
0.0
 10
36.194471
 20
236.208695
 30
0.0
  0
SPLINE
  5
146
100
AcDbEntity
  8
Capa_1
 62
7
100
AcDbSpline
 70
0
 71
3
 72
10
 73
6
 74
4
 40
0.000000
 40
0.000000
 40
0.000000
 40
0.000000
 40
1.163548
 40
2.325140
 40
3.488688
 40
3.488688
 40
3.488688
 40
3.488688
 10
32.884731
 20
232.968753
 30
0.0
 10
33.263684
 20
233.052667
 30
0.0
 10
34.020953
 20
233.220356
 30
0.0
 10
35.115198
 20
233.629199
 30
0.0
 10
35.796894
 20
233.999152
 30
0.0
 10
36.138029
 20
234.184285
 30
0.0
 11
32.884731
 21
232.968753
 31
0.0
 11
34.014584
 21
233.246740
 31
0.0
 11
35.102705
 21
233.653296
 31
0.0
 11
36.138029
 21
234.184285
 31
0.0
  0
LWPOLYLINE
  5
147
100
AcDbEntity
  8
Capa_1
 62
7
100
AcDbPolyline
 90
3
 70
0
 10
28.968450
 20
236.933954
 30
0.0
 10
35.376992
 20
238.887927
 30
0.0
 10
36.362421
 20
239.772412
 30
0.0
  0
SPLINE
  5
148
100
AcDbEntity
  8
Capa_1
 62
7
100
AcDbSpline
 70
0
 71
3
 72
13
 73
9
 74
7
 40
0.000000
 40
0.000000
 40
0.000000
 40
0.000000
 40
0.205641
 40
0.407292
 40
0.612933
 40
0.818574
 40
1.020225
 40
1.225866
 40
1.225866
 40
1.225866
 40
1.225866
 10
36.362607
 20
239.772223
 30
0.0
 10
36.408356
 20
239.824598
 30
0.0
 10
36.498965
 20
239.928332
 30
0.0
 10
36.541831
 20
240.136692
 30
0.0
 10
36.503204
 20
240.342578
 30
0.0
 10
36.383807
 20
240.514699
 30
0.0
 10
36.205404
 20
240.630558
 30
0.0
 10
36.067924
 20
240.638942
 30
0.0
 10
35.998511
 20
240.643174
 30
0.0
 11
36.362607
 21
239.772223
 31
0.0
 11
36.484015
 21
239.938199
 31
0.0
 11
36.528278
 21
240.134933
 31
0.0
 11
36.489655
 21
240.336914
 31
0.0
 11
36.373035
 21
240.506289
 31
0.0
 11
36.201924
 21
240.612988
 31
0.0
 11
35.998511
 21
240.643174
 31
0.0
  0
LWPOLYLINE
  5
149
100
AcDbEntity
  8
Capa_1
 62
7
100
AcDbPolyline
 90
2
 70
0
 10
36.194471
 20
236.208695
 30
0.0
 10
37.505620
 20
236.023225
 30
0.0
  0
SPLINE
  5
14a
100
AcDbEntity
  8
Capa_1
 62
7
100
AcDbSpline
 70
0
 71
3
 72
13
 73
9
 74
7
 40
0.000000
 40
0.000000
 40
0.000000
 40
0.000000
 40
0.205632
 40
0.407275
 40
0.612907
 40
0.818539
 40
1.020183
 40
1.225815
 40
1.225815
 40
1.225815
 40
1.225815
 10
37.689101
 20
235.097474
 30
0.0
 10
37.744344
 20
235.139710
 30
0.0
 10
37.853759
 20
235.223361
 30
0.0
 10
37.937184
 20
235.419033
 30
0.0
 10
37.940259
 20
235.628479
 30
0.0
 10
37.857470
 20
235.820894
 30
0.0
 10
37.705672
 20
235.969906
 30
0.0
 10
37.572611
 20
236.005458
 30
0.0
 10
37.505429
 20
236.023409
 30
0.0
 11
37.689101
 21
235.097474
 31
0.0
 11
37.841070
 21
235.236001
 31
0.0
 11
37.923553
 21
235.420003
 31
0.0
 11
37.925855
 21
235.625622
 31
0.0
 11
37.845241
 21
235.814794
 31
0.0
 11
37.698769
 21
235.953379
 31
0.0
 11
37.505429
 21
236.023409
 31
0.0
  0
LWPOLYLINE
  5
14b
100
AcDbEntity
  8
Capa_1
 62
7
100
AcDbPolyline
 90
2
 70
0
 10
28.968450
 20
236.933954
 30
0.0
 10
29.785930
 20
234.254723
 30
0.0
  0
SPLINE
  5
14c
100
AcDbEntity
  8
Capa_1
 62
7
100
AcDbSpline
 70
0
 71
3
 72
10
 73
6
 74
4
 40
0.000000
 40
0.000000
 40
0.000000
 40
0.000000
 40
0.522859
 40
1.030210
 40
1.553070
 40
1.553070
 40
1.553070
 40
1.553070
 10
90.087387
 20
236.073776
 30
0.0
 10
90.262613
 20
236.046271
 30
0.0
 10
90.607867
 20
235.992076
 30
0.0
 10
91.005687
 20
235.594256
 30
0.0
 10
91.059882
 20
235.249002
 30
0.0
 10
91.087387
 20
235.073776
 30
0.0
 11
90.087387
 21
236.073776
 31
0.0
 11
90.592106
 21
235.937247
 31
0.0
 11
90.950858
 21
235.578495
 31
0.0
 11
91.087387
 21
235.073776
 31
0.0
  0
LWPOLYLINE
  5
14d
100
AcDbEntity
  8
Capa_1
 62
7
100
AcDbPolyline
 90
3
 70
0
 10
91.087387
 20
235.073776
 30
0.0
 10
91.087387
 20
227.473776
 30
0.0
 10
71.087387
 20
227.473776
 30
0.0
  0
SPLINE
  5
14e
100
AcDbEntity
  8
Capa_1
 62
7
100
AcDbSpline
 70
0
 71
3
 72
13
 73
9
 74
7
 40
0.000000
 40
0.000000
 40
0.000000
 40
0.000000
 40
7.280615
 40
14.500980
 40
21.781594
 40
29.062209
 40
36.282574
 40
43.563189
 40
43.563189
 40
43.563189
 40
43.563189
 10
71.087387
 20
227.473776
 30
0.0
 10
68.653425
 20
227.288371
 30
0.0
 10
63.805642
 20
226.919097
 30
0.0
 10
57.023809
 20
224.000865
 30
0.0
 10
51.187598
 20
219.561064
 30
0.0
 10
46.747795
 20
213.724854
 30
0.0
 10
43.829563
 20
206.943021
 30
0.0
 10
43.460287
 20
202.095238
 30
0.0
 10
43.274882
 20
199.661276
 30
0.0
 11
71.087387
 21
227.473776
 31
0.0
 11
63.869396
 21
226.520906
 31
0.0
 11
57.198649
 21
223.757793
 31
0.0
 11
51.420976
 21
219.327685
 31
0.0
 11
46.990868
 21
213.550014
 31
0.0
 11
44.227753
 21
206.879267
 31
0.0
 11
43.274882
 21
199.661276
 31
0.0
  0
LWPOLYLINE
  5
14f
100
AcDbEntity
  8
Capa_1
 62
7
100
AcDbPolyline
 90
3
 70
0
 10
43.274882
 20
199.661276
 30
0.0
 10
43.274882
 20
179.661280
 30
0.0
 10
35.674882
 20
179.661280
 30
0.0
  0
SPLINE
  5
150
100
AcDbEntity
  8
Capa_1
 62
7
100
AcDbSpline
 70
0
 71
3
 72
10
 73
6
 74
4
 40
0.000000
 40
0.000000
 40
0.000000
 40
0.000000
 40
0.522859
 40
1.030210
 40
1.553070
 40
1.553070
 40
1.553070
 40
1.553070
 10
35.674882
 20
179.661280
 30
0.0
 10
35.499656
 20
179.688785
 30
0.0
 10
35.154402
 20
179.742980
 30
0.0
 10
34.756582
 20
180.140800
 30
0.0
 10
34.702387
 20
180.486054
 30
0.0
 10
34.674882
 20
180.661280
 30
0.0
 11
35.674882
 21
179.661280
 31
0.0
 11
35.170163
 21
179.797809
 31
0.0
 11
34.811411
 21
180.156561
 31
0.0
 11
34.674882
 21
180.661280
 31
0.0
  0
LWPOLYLINE
  5
151
100
AcDbEntity
  8
Capa_1
 62
7
100
AcDbPolyline
 90
4
 70
0
 10
34.674882
 20
180.661280
 30
0.0
 10
34.674882
 20
194.661280
 30
0.0
 10
31.874884
 20
194.661280
 30
0.0
 10
31.874884
 20
180.661280
 30
0.0
  0
SPLINE
  5
152
100
AcDbEntity
  8
Capa_1
 62
7
100
AcDbSpline
 70
0
 71
3
 72
13
 73
9
 74
7
 40
0.000000
 40
0.000000
 40
0.000000
 40
0.000000
 40
0.261775
 40
0.521384
 40
0.783159
 40
1.044934
 40
1.304543
 40
1.566318
 40
1.566318
 40
1.566318
 40
1.566318
 10
31.874884
 20
180.661280
 30
0.0
 10
31.868218
 20
180.573767
 30
0.0
 10
31.854940
 20
180.399464
 30
0.0
 10
31.750015
 20
180.155623
 30
0.0
 10
31.590382
 20
179.945782
 30
0.0
 10
31.380540
 20
179.786148
 30
0.0
 10
31.136699
 20
179.681223
 30
0.0
 10
30.962396
 20
179.667946
 30
0.0
 10
30.874883
 20
179.661280
 30
0.0
 11
31.874884
 21
180.661280
 31
0.0
 11
31.840623
 21
180.401757
 31
0.0
 11
31.741275
 21
180.161909
 31
0.0
 11
31.581990
 21
179.954173
 31
0.0
 11
31.374254
 21
179.794888
 31
0.0
 11
31.134406
 21
179.695540
 31
0.0
 11
30.874883
 21
179.661280
 31
0.0
  0
LWPOLYLINE
  5
153
100
AcDbEntity
  8
Capa_1
 62
7
100
AcDbPolyline
 90
3
 70
0
 10
30.874883
 20
179.661280
 30
0.0
 10
23.274883
 20
179.661280
 30
0.0
 10
23.274883
 20
199.661276
 30
0.0
  0
SPLINE
  5
154
100
AcDbEntity
  8
Capa_1
 62
7
100
AcDbSpline
 70
0
 71
3
 72
13
 73
9
 74
7
 40
0.000000
 40
0.000000
 40
0.000000
 40
0.000000
 40
12.516112
 40
24.928649
 40
37.444761
 40
49.960873
 40
62.373410
 40
74.889522
 40
74.889522
 40
74.889522
 40
74.889522
 10
23.274883
 20
199.661276
 30
0.0
 10
23.593613
 20
203.845503
 30
0.0
 10
24.228435
 20
212.179331
 30
0.0
 10
29.245172
 20
223.837987
 30
0.0
 10
36.877640
 20
233.871022
 30
0.0
 10
46.910676
 20
241.503489
 30
0.0
 10
58.569332
 20
246.520225
 30
0.0
 10
66.903160
 20
247.155046
 30
0.0
 10
71.087387
 20
247.473776
 30
0.0
 11
23.274883
 21
199.661276
 31
0.0
 11
24.912965
 21
212.069731
 31
0.0
 11
29.663037
 21
223.537419
 31
0.0
 11
37.278841
 21
233.469820
 31
0.0
 11
47.211243
 21
241.085624
 31
0.0
 11
58.678932
 21
245.835695
 31
0.0
 11
71.087387
 21
247.473776
 31
0.0
  0
LWPOLYLINE
  5
155
100
AcDbEntity
  8
Capa_1
 62
7
100
AcDbPolyline
 90
3
 70
0
 10
71.087387
 20
247.473776
 30
0.0
 10
91.087387
 20
247.473776
 30
0.0
 10
91.087387
 20
239.873776
 30
0.0
  0
SPLINE
  5
156
100
AcDbEntity
  8
Capa_1
 62
7
100
AcDbSpline
 70
0
 71
3
 72
10
 73
6
 74
4
 40
0.000000
 40
0.000000
 40
0.000000
 40
0.000000
 40
0.522859
 40
1.030210
 40
1.553070
 40
1.553070
 40
1.553070
 40
1.553070
 10
91.087387
 20
239.873776
 30
0.0
 10
91.059882
 20
239.698550
 30
0.0
 10
91.005687
 20
239.353296
 30
0.0
 10
90.607867
 20
238.955476
 30
0.0
 10
90.262613
 20
238.901281
 30
0.0
 10
90.087387
 20
238.873776
 30
0.0
 11
91.087387
 21
239.873776
 31
0.0
 11
90.950858
 21
239.369057
 31
0.0
 11
90.592106
 21
239.010305
 31
0.0
 11
90.087387
 21
238.873776
 31
0.0
  0
LWPOLYLINE
  5
157
100
AcDbEntity
  8
Capa_1
 62
7
100
AcDbPolyline
 90
4
 70
0
 10
90.087387
 20
238.873776
 30
0.0
 10
76.087387
 20
238.873776
 30
0.0
 10
76.087387
 20
236.073776
 30
0.0
 10
90.087387
 20
236.073776
 30
0.0
  0
SPLINE
  5
158
100
AcDbEntity
  8
Capa_1
 62
7
100
AcDbSpline
 70
0
 71
3
 72
13
 73
9
 74
7
 40
0.000000
 40
0.000000
 40
0.000000
 40
0.000000
 40
0.261777
 40
0.521387
 40
0.783163
 40
1.044940
 40
1.304550
 40
1.566327
 40
1.566327
 40
1.566327
 40
1.566327
 10
92.453280
 20
72.496350
 30
0.0
 10
92.540794
 20
72.489684
 30
0.0
 10
92.715097
 20
72.476406
 30
0.0
 10
92.958940
 20
72.371480
 30
0.0
 10
93.168782
 20
72.211844
 30
0.0
 10
93.328415
 20
72.002001
 30
0.0
 10
93.433339
 20
71.758157
 30
0.0
 10
93.446615
 20
71.583854
 30
0.0
 10
93.453280
 20
71.496340
 30
0.0
 11
92.453280
 21
72.496350
 31
0.0
 11
92.712805
 21
72.462089
 31
0.0
 11
92.952653
 21
72.362740
 31
0.0
 11
93.160390
 21
72.203453
 31
0.0
 11
93.319675
 21
71.995714
 31
0.0
 11
93.419022
 21
71.755865
 31
0.0
 11
93.453280
 21
71.496340
 31
0.0
  0
LWPOLYLINE
  5
159
100
AcDbEntity
  8
Capa_1
 62
7
100
AcDbPolyline
 90
3
 70
0
 10
93.453280
 20
71.496340
 30
0.0
 10
93.453280
 20
63.896340
 30
0.0
 10
73.453282
 20
63.896340
 30
0.0
  0
SPLINE
  5
15a
100
AcDbEntity
  8
Capa_1
 62
7
100
AcDbSpline
 70
0
 71
3
 72
13
 73
9
 74
7
 40
0.000000
 40
0.000000
 40
0.000000
 40
0.000000
 40
7.280615
 40
14.500980
 40
21.781594
 40
29.062209
 40
36.282574
 40
43.563189
 40
43.563189
 40
43.563189
 40
43.563189
 10
73.453282
 20
63.896340
 30
0.0
 10
71.019320
 20
63.710935
 30
0.0
 10
66.171537
 20
63.341661
 30
0.0
 10
59.389704
 20
60.423429
 30
0.0
 10
53.553493
 20
55.983628
 30
0.0
 10
49.113690
 20
50.147418
 30
0.0
 10
46.195458
 20
43.365585
 30
0.0
 10
45.826182
 20
38.517802
 30
0.0
 10
45.640777
 20
36.083840
 30
0.0
 11
73.453282
 21
63.896340
 31
0.0
 11
66.235291
 21
62.943470
 31
0.0
 11
59.564544
 21
60.180357
 31
0.0
 11
53.786871
 21
55.750249
 31
0.0
 11
49.356763
 21
49.972578
 31
0.0
 11
46.593648
 21
43.301831
 31
0.0
 11
45.640777
 21
36.083840
 31
0.0
  0
LWPOLYLINE
  5
15b
100
AcDbEntity
  8
Capa_1
 62
7
100
AcDbPolyline
 90
3
 70
0
 10
45.640777
 20
36.083840
 30
0.0
 10
45.640777
 20
16.083850
 30
0.0
 10
38.040777
 20
16.083850
 30
0.0
  0
SPLINE
  5
15c
100
AcDbEntity
  8
Capa_1
 62
7
100
AcDbSpline
 70
0
 71
3
 72
10
 73
6
 74
4
 40
0.000000
 40
0.000000
 40
0.000000
 40
0.000000
 40
0.522859
 40
1.030210
 40
1.553070
 40
1.553070
 40
1.553070
 40
1.553070
 10
38.040777
 20
16.083850
 30
0.0
 10
37.865551
 20
16.111355
 30
0.0
 10
37.520297
 20
16.165550
 30
0.0
 10
37.122477
 20
16.563370
 30
0.0
 10
37.068282
 20
16.908624
 30
0.0
 10
37.040777
 20
17.083850
 30
0.0
 11
38.040777
 21
16.083850
 31
0.0
 11
37.536058
 21
16.220379
 31
0.0
 11
37.177306
 21
16.579131
 31
0.0
 11
37.040777
 21
17.083850
 31
0.0
  0
LWPOLYLINE
  5
15d
100
AcDbEntity
  8
Capa_1
 62
7
100
AcDbPolyline
 90
4
 70
0
 10
37.040777
 20
17.083850
 30
0.0
 10
37.040777
 20
31.083850
 30
0.0
 10
34.240779
 20
31.083850
 30
0.0
 10
34.240779
 20
17.083850
 30
0.0
  0
SPLINE
  5
15e
100
AcDbEntity
  8
Capa_1
 62
7
100
AcDbSpline
 70
0
 71
3
 72
13
 73
9
 74
7
 40
0.000000
 40
0.000000
 40
0.000000
 40
0.000000
 40
0.261775
 40
0.521384
 40
0.783159
 40
1.044934
 40
1.304543
 40
1.566318
 40
1.566318
 40
1.566318
 40
1.566318
 10
34.240779
 20
17.083850
 30
0.0
 10
34.234113
 20
16.996337
 30
0.0
 10
34.220835
 20
16.822034
 30
0.0
 10
34.115910
 20
16.578193
 30
0.0
 10
33.956277
 20
16.368352
 30
0.0
 10
33.746435
 20
16.208718
 30
0.0
 10
33.502594
 20
16.103793
 30
0.0
 10
33.328291
 20
16.090516
 30
0.0
 10
33.240778
 20
16.083850
 30
0.0
 11
34.240779
 21
17.083850
 31
0.0
 11
34.206518
 21
16.824327
 31
0.0
 11
34.107170
 21
16.584479
 31
0.0
 11
33.947885
 21
16.376743
 31
0.0
 11
33.740149
 21
16.217458
 31
0.0
 11
33.500301
 21
16.118110
 31
0.0
 11
33.240778
 21
16.083850
 31
0.0
  0
LWPOLYLINE
  5
15f
100
AcDbEntity
  8
Capa_1
 62
7
100
AcDbPolyline
 90
3
 70
0
 10
33.240778
 20
16.083850
 30
0.0
 10
25.640778
 20
16.083850
 30
0.0
 10
25.640778
 20
36.083840
 30
0.0
  0
SPLINE
  5
160
100
AcDbEntity
  8
Capa_1
 62
7
100
AcDbSpline
 70
0
 71
3
 72
13
 73
9
 74
7
 40
0.000000
 40
0.000000
 40
0.000000
 40
0.000000
 40
12.516114
 40
24.928652
 40
37.444766
 40
49.960880
 40
62.373418
 40
74.889532
 40
74.889532
 40
74.889532
 40
74.889532
 10
25.640778
 20
36.083840
 30
0.0
 10
25.959507
 20
40.268068
 30
0.0
 10
26.594328
 20
48.601897
 30
0.0
 10
31.611063
 20
60.260555
 30
0.0
 10
39.243532
 20
70.293592
 30
0.0
 10
49.276568
 20
77.926062
 30
0.0
 10
60.935225
 20
82.942799
 30
0.0
 10
69.269054
 20
83.577620
 30
0.0
 10
73.453282
 20
83.896350
 30
0.0
 11
25.640778
 21
36.083840
 31
0.0
 11
27.278858
 21
48.492297
 31
0.0
 11
32.028929
 21
59.959988
 31
0.0
 11
39.644733
 21
69.892391
 31
0.0
 11
49.577135
 21
77.508196
 31
0.0
 11
61.044825
 21
82.258269
 31
0.0
 11
73.453282
 21
83.896350
 31
0.0
  0
LWPOLYLINE
  5
161
100
AcDbEntity
  8
Capa_1
 62
7
100
AcDbPolyline
 90
3
 70
0
 10
73.453282
 20
83.896350
 30
0.0
 10
93.453280
 20
83.896350
 30
0.0
 10
93.453280
 20
76.296350
 30
0.0
  0
SPLINE
  5
162
100
AcDbEntity
  8
Capa_1
 62
7
100
AcDbSpline
 70
0
 71
3
 72
10
 73
6
 74
4
 40
0.000000
 40
0.000000
 40
0.000000
 40
0.000000
 40
0.522859
 40
1.030210
 40
1.553070
 40
1.553070
 40
1.553070
 40
1.553070
 10
93.453280
 20
76.296350
 30
0.0
 10
93.425775
 20
76.121124
 30
0.0
 10
93.371580
 20
75.775870
 30
0.0
 10
92.973760
 20
75.378050
 30
0.0
 10
92.628506
 20
75.323855
 30
0.0
 10
92.453280
 20
75.296350
 30
0.0
 11
93.453280
 21
76.296350
 31
0.0
 11
93.316751
 21
75.791631
 31
0.0
 11
92.957999
 21
75.432879
 31
0.0
 11
92.453280
 21
75.296350
 31
0.0
  0
LWPOLYLINE
  5
163
100
AcDbEntity
  8
Capa_1
 62
7
100
AcDbPolyline
 90
4
 70
0
 10
92.453280
 20
75.296350
 30
0.0
 10
78.453280
 20
75.296350
 30
0.0
 10
78.453280
 20
72.496350
 30
0.0
 10
92.453280
 20
72.496350
 30
0.0
  0
SPLINE
  5
164
100
AcDbEntity
  8
Capa_1
 62
7
100
AcDbSpline
 70
0
 71
3
 72
13
 73
9
 74
7
 40
0.000000
 40
0.000000
 40
0.000000
 40
0.000000
 40
0.436767
 40
0.864087
 40
1.300854
 40
1.737620
 40
2.164940
 40
2.601707
 40
2.601707
 40
2.601707
 40
2.601707
 10
97.060360
 20
214.940796
 30
0.0
 10
97.192977
 20
215.006447
 30
0.0
 10
97.455342
 20
215.136329
 30
0.0
 10
97.907354
 20
215.097133
 30
0.0
 10
98.298802
 20
214.883279
 30
0.0
 10
98.559559
 20
214.521380
 30
0.0
 10
98.654519
 20
214.077721
 30
0.0
 10
98.558184
 20
213.801272
 30
0.0
 10
98.509490
 20
213.661536
 30
0.0
 11
97.060360
 21
214.940796
 31
0.0
 11
97.467889
 21
215.097912
 31
0.0
 11
97.894232
 21
215.069044
 31
0.0
 11
98.276862
 21
214.858426
 31
0.0
 11
98.533315
 21
214.504876
 31
0.0
 11
98.614843
 21
214.085406
 31
0.0
 11
98.509490
 21
213.661536
 31
0.0
  0
LWPOLYLINE
  5
165
100
AcDbEntity
  8
Capa_1
 62
7
100
AcDbPolyline
 90
2
 70
0
 10
98.509490
 20
213.661536
 30
0.0
 10
79.749870
 20
176.142300
 30
0.0
  0
SPLINE
  5
166
100
AcDbEntity
  8
Capa_1
 62
7
100
AcDbSpline
 70
0
 71
3
 72
13
 73
9
 74
7
 40
0.000000
 40
0.000000
 40
0.000000
 40
0.000000
 40
0.445977
 40
0.881939
 40
1.327915
 40
1.773892
 40
2.209854
 40
2.655831
 40
2.655831
 40
2.655831
 40
2.655831
 10
79.749870
 20
176.142300
 30
0.0
 10
79.665144
 20
176.017064
 30
0.0
 10
79.497596
 20
175.769405
 30
0.0
 10
79.073658
 20
175.580789
 30
0.0
 10
78.617759
 20
175.582626
 30
0.0
 10
78.209166
 20
175.784862
 30
0.0
 10
77.914332
 20
176.143153
 30
0.0
 10
77.875225
 20
176.439595
 30
0.0
 10
77.855450
 20
176.589500
 30
0.0
 11
79.749870
 21
176.142300
 31
0.0
 11
79.466540
 21
175.797889
 31
0.0
 11
79.071668
 21
175.613120
 31
0.0
 11
78.625703
 21
175.616278
 31
0.0
 11
78.225405
 21
175.812890
 31
0.0
 11
77.954848
 21
176.154741
 31
0.0
 11
77.855450
 21
176.589500
 31
0.0
  0
LWPOLYLINE
  5
167
100
AcDbEntity
  8
Capa_1
 62
7
100
AcDbPolyline
 90
4
 70
0
 10
77.855450
 20
176.589500
 30
0.0
 10
77.855450
 20
184.553430
 30
0.0
 10
75.055450
 20
184.553430
 30
0.0
 10
75.055450
 20
176.589500
 30
0.0
  0
SPLINE
  5
168
100
AcDbEntity
  8
Capa_1
 62
7
100
AcDbSpline
 70
0
 71
3
 72
13
 73
9
 74
7
 40
0.000000
 40
0.000000
 40
0.000000
 40
0.000000
 40
0.445984
 40
0.881952
 40
1.327936
 40
1.773920
 40
2.209888
 40
2.655872
 40
2.655872
 40
2.655872
 40
2.655872
 10
75.055450
 20
176.589500
 30
0.0
 10
75.035677
 20
176.439593
 30
0.0
 10
74.996575
 20
176.143144
 30
0.0
 10
74.701739
 20
175.784845
 30
0.0
 10
74.293140
 20
175.582605
 30
0.0
 10
73.837233
 20
175.580770
 30
0.0
 10
73.413290
 20
175.769394
 30
0.0
 10
73.245744
 20
176.017060
 30
0.0
 10
73.161020
 20
176.142300
 30
0.0
 11
75.055450
 21
176.589500
 31
0.0
 11
74.956058
 21
176.154733
 31
0.0
 11
74.685500
 21
175.812874
 31
0.0
 11
74.285196
 21
175.616258
 31
0.0
 11
73.839223
 21
175.613102
 31
0.0
 11
73.444348
 21
175.797878
 31
0.0
 11
73.161020
 21
176.142300
 31
0.0
  0
LWPOLYLINE
  5
169
100
AcDbEntity
  8
Capa_1
 62
7
100
AcDbPolyline
 90
2
 70
0
 10
73.161020
 20
176.142300
 30
0.0
 10
54.401400
 20
213.661536
 30
0.0
  0
SPLINE
  5
16a
100
AcDbEntity
  8
Capa_1
 62
7
100
AcDbSpline
 70
0
 71
3
 72
13
 73
9
 74
7
 40
0.000000
 40
0.000000
 40
0.000000
 40
0.000000
 40
0.436767
 40
0.864087
 40
1.300854
 40
1.737620
 40
2.164940
 40
2.601707
 40
2.601707
 40
2.601707
 40
2.601707
 10
54.401400
 20
213.661536
 30
0.0
 10
54.352706
 20
213.801272
 30
0.0
 10
54.256371
 20
214.077721
 30
0.0
 10
54.351331
 20
214.521380
 30
0.0
 10
54.612088
 20
214.883279
 30
0.0
 10
55.003536
 20
215.097133
 30
0.0
 10
55.455548
 20
215.136329
 30
0.0
 10
55.717913
 20
215.006447
 30
0.0
 10
55.850530
 20
214.940796
 30
0.0
 11
54.401400
 21
213.661536
 31
0.0
 11
54.296047
 21
214.085406
 31
0.0
 11
54.377575
 21
214.504876
 31
0.0
 11
54.634028
 21
214.858426
 31
0.0
 11
55.016658
 21
215.069044
 31
0.0
 11
55.443001
 21
215.097912
 31
0.0
 11
55.850530
 21
214.940796
 31
0.0
  0
LWPOLYLINE
  5
16b
100
AcDbEntity
  8
Capa_1
 62
7
100
AcDbPolyline
 90
4
 70
0
 10
55.850530
 20
214.940796
 30
0.0
 10
63.159620
 20
210.068066
 30
0.0
 10
64.712780
 20
212.397806
 30
0.0
 10
56.727410
 20
217.721376
 30
0.0
  0
SPLINE
  5
16c
100
AcDbEntity
  8
Capa_1
 62
7
100
AcDbSpline
 70
0
 71
3
 72
13
 73
9
 74
7
 40
0.000000
 40
0.000000
 40
0.000000
 40
0.000000
 40
0.425334
 40
0.841898
 40
1.267232
 40
1.692566
 40
2.109130
 40
2.534464
 40
2.534464
 40
2.534464
 40
2.534464
 10
56.727410
 20
217.721376
 30
0.0
 10
56.618487
 20
217.815538
 30
0.0
 10
56.402887
 20
218.001920
 30
0.0
 10
56.261774
 20
218.419722
 30
0.0
 10
56.294925
 20
218.852326
 30
0.0
 10
56.507306
 20
219.230663
 30
0.0
 10
56.856473
 20
219.500020
 30
0.0
 10
57.139249
 20
219.535508
 30
0.0
 10
57.282110
 20
219.553436
 30
0.0
 11
56.727410
 21
217.721376
 31
0.0
 11
56.431742
 21
218.027136
 31
0.0
 11
56.291094
 21
218.419238
 31
0.0
 11
56.325003
 21
218.843219
 31
0.0
 11
56.531970
 21
219.214801
 31
0.0
 11
56.866494
 21
219.463034
 31
0.0
 11
57.282110
 21
219.553436
 31
0.0
  0
LWPOLYLINE
  5
16d
100
AcDbEntity
  8
Capa_1
 62
7
100
AcDbPolyline
 90
2
 70
0
 10
57.282110
 20
219.553436
 30
0.0
 10
95.628780
 20
219.553436
 30
0.0
  0
SPLINE
  5
16e
100
AcDbEntity
  8
Capa_1
 62
7
100
AcDbSpline
 70
0
 71
3
 72
13
 73
9
 74
7
 40
0.000000
 40
0.000000
 40
0.000000
 40
0.000000
 40
0.425334
 40
0.841898
 40
1.267232
 40
1.692566
 40
2.109130
 40
2.534464
 40
2.534464
 40
2.534464
 40
2.534464
 10
95.628780
 20
219.553436
 30
0.0
 10
95.771641
 20
219.535508
 30
0.0
 10
96.054417
 20
219.500020
 30
0.0
 10
96.403584
 20
219.230663
 30
0.0
 10
96.615965
 20
218.852326
 30
0.0
 10
96.649116
 20
218.419722
 30
0.0
 10
96.508003
 20
218.001920
 30
0.0
 10
96.292403
 20
217.815538
 30
0.0
 10
96.183480
 20
217.721376
 30
0.0
 11
95.628780
 21
219.553436
 31
0.0
 11
96.044396
 21
219.463034
 31
0.0
 11
96.378920
 21
219.214801
 31
0.0
 11
96.585887
 21
218.843219
 31
0.0
 11
96.619796
 21
218.419238
 31
0.0
 11
96.479148
 21
218.027136
 31
0.0
 11
96.183480
 21
217.721376
 31
0.0
  0
LWPOLYLINE
  5
16f
100
AcDbEntity
  8
Capa_1
 62
7
100
AcDbPolyline
 90
4
 70
0
 10
96.183480
 20
217.721376
 30
0.0
 10
88.198110
 20
212.397806
 30
0.0
 10
89.751270
 20
210.068066
 30
0.0
 10
97.060360
 20
214.940796
 30
0.0
  0
SPLINE
  5
170
100
AcDbEntity
  8
Capa_1
 62
7
100
AcDbSpline
 70
0
 71
3
 72
13
 73
9
 74
7
 40
0.000000
 40
0.000000
 40
0.000000
 40
0.000000
 40
0.572979
 40
1.140317
 40
1.713296
 40
2.286275
 40
2.853614
 40
3.426593
 40
3.426593
 40
3.426593
 40
3.426593
 10
124.766610
 20
245.249533
 30
0.0
 10
124.574689
 20
245.237030
 30
0.0
 10
124.192737
 20
245.212148
 30
0.0
 10
123.635464
 20
245.382133
 30
0.0
 10
123.146891
 20
245.690880
 30
0.0
 10
122.769313
 20
246.128446
 30
0.0
 10
122.518817
 20
246.654468
 30
0.0
 10
122.486965
 20
247.035903
 30
0.0
 10
122.470960
 20
247.227563
 30
0.0
 11
124.766610
 21
245.249533
 31
0.0
 11
124.193637
 21
245.246872
 31
0.0
 11
123.648617
 21
245.404435
 31
0.0
 11
123.165451
 21
245.712421
 31
0.0
 11
122.789425
 21
246.144751
 31
0.0
 11
122.553027
 21
246.660492
 31
0.0
 11
122.470960
 21
247.227563
 31
0.0
  0
LWPOLYLINE
  5
171
100
AcDbEntity
  8
Capa_1
 62
7
100
AcDbPolyline
 90
4
 70
0
 10
122.470960
 20
247.227563
 30
0.0
 10
122.470960
 20
259.974873
 30
0.0
 10
119.670960
 20
259.974873
 30
0.0
 10
119.670960
 20
247.227563
 30
0.0
  0
SPLINE
  5
172
100
AcDbEntity
  8
Capa_1
 62
7
100
AcDbSpline
 70
0
 71
3
 72
25
 73
21
 74
19
 40
0.000000
 40
0.000000
 40
0.000000
 40
0.000000
 40
0.572979
 40
1.140317
 40
1.713296
 40
2.286275
 40
2.853614
 40
3.426593
 40
10.915628
 40
18.324376
 40
25.813412
 40
33.302447
 40
40.711195
 40
48.200231
 40
48.773209
 40
49.340548
 40
49.913526
 40
50.486505
 40
51.053843
 40
51.626822
 40
51.626822
 40
51.626822
 40
51.626822
 10
119.670960
 20
247.227563
 30
0.0
 10
119.654955
 20
247.035904
 30
0.0
 10
119.623103
 20
246.654473
 30
0.0
 10
119.372604
 20
246.128425
 30
0.0
 10
118.995040
 20
245.690957
 30
0.0
 10
118.506413
 20
245.381848
 30
0.0
 10
117.949340
 20
245.213205
 30
0.0
 10
115.055146
 20
245.376073
 30
0.0
 10
110.091195
 20
247.184532
 30
0.0
 10
103.814700
 20
251.344289
 30
0.0
 10
99.098015
 20
257.288779
 30
0.0
 10
96.308277
 20
264.345792
 30
0.0
 10
95.844065
 20
271.861275
 30
0.0
 10
96.759870
 20
277.064411
 30
0.0
 10
98.065916
 20
279.652291
 30
0.0
 10
98.490501
 20
280.050410
 30
0.0
 10
99.002511
 20
280.319019
 30
0.0
 10
99.570151
 20
280.427266
 30
0.0
 10
100.150971
 20
280.381182
 30
0.0
 10
100.497226
 20
280.218052
 30
0.0
 10
100.671210
 20
280.136083
 30
0.0
 11
119.670960
 21
247.227563
 31
0.0
 11
119.588893
 21
246.660492
 31
0.0
 11
119.352495
 21
246.144751
 31
0.0
 11
118.976469
 21
245.712421
 31
0.0
 11
118.493303
 21
245.404435
 31
0.0
 11
117.948283
 21
245.246872
 31
0.0
 11
117.375310
 21
245.249533
 31
0.0
 11
110.217884
 21
247.453371
 31
0.0
 11
104.093923
 21
251.623101
 31
0.0
 11
99.420325
 21
257.474865
 31
0.0
 11
96.689346
 21
264.448200
 31
0.0
 11
96.140231
 21
271.836571
 31
0.0
 11
97.810363
 21
279.137003
 31
0.0
 11
98.094544
 21
279.634543
 31
0.0
 11
98.503507
 21
280.027763
 31
0.0
 11
99.011813
 21
280.292204
 31
0.0
 11
99.574234
 21
280.401688
 31
0.0
 11
100.139078
 21
280.348546
 31
0.0
 11
100.671210
 21
280.136083
 31
0.0
  0
LWPOLYLINE
  5
173
100
AcDbEntity
  8
Capa_1
 62
7
100
AcDbPolyline
 90
4
 70
0
 10
100.671210
 20
280.136083
 30
0.0
 10
111.710700
 20
273.762423
 30
0.0
 10
113.110700
 20
276.187303
 30
0.0
 10
102.071210
 20
282.560953
 30
0.0
  0
SPLINE
  5
174
100
AcDbEntity
  8
Capa_1
 62
7
100
AcDbSpline
 70
0
 71
3
 72
25
 73
21
 74
19
 40
0.000000
 40
0.000000
 40
0.000000
 40
0.000000
 40
0.572979
 40
1.140318
 40
1.713298
 40
2.286277
 40
2.853616
 40
3.426596
 40
10.915630
 40
18.324377
 40
25.813412
 40
33.302446
 40
40.711194
 40
48.200228
 40
48.773208
 40
49.340548
 40
49.913528
 40
50.486507
 40
51.053847
 40
51.626827
 40
51.626827
 40
51.626827
 40
51.626827
 10
102.071210
 20
282.560953
 30
0.0
 10
101.913231
 20
282.670643
 30
0.0
 10
101.598828
 20
282.888944
 30
0.0
 10
101.268509
 20
283.368909
 30
0.0
 10
101.078433
 20
283.914624
 30
0.0
 10
101.055052
 20
284.492342
 30
0.0
 10
101.187542
 20
285.059103
 30
0.0
 10
102.775696
 20
287.484108
 30
0.0
 10
106.823833
 20
290.878793
 30
0.0
 10
113.564540
 20
294.234513
 30
0.0
 10
121.070960
 20
295.347036
 30
0.0
 10
128.577381
 20
294.234513
 30
0.0
 10
135.318085
 20
290.878791
 30
0.0
 10
139.366229
 20
287.484112
 30
0.0
 10
140.954377
 20
285.059102
 30
0.0
 10
141.086866
 20
284.492340
 30
0.0
 10
141.063482
 20
283.914621
 30
0.0
 10
140.873405
 20
283.368906
 30
0.0
 10
140.543083
 20
282.888943
 30
0.0
 10
140.228679
 20
282.670643
 30
0.0
 10
140.070700
 20
282.560953
 30
0.0
 11
102.071210
 21
282.560953
 31
0.0
 11
101.621146
 21
282.915562
 31
0.0
 11
101.292701
 21
283.378161
 31
0.0
 11
101.106307
 21
283.919975
 31
0.0
 11
101.081168
 21
284.492403
 31
0.0
 11
101.217227
 21
285.043185
 31
0.0
 11
101.506020
 21
285.538063
 31
0.0
 11
106.993313
 21
290.634655
 31
0.0
 11
113.666386
 21
293.853294
 31
0.0
 11
121.070960
 21
294.974865
 31
0.0
 11
128.475534
 21
293.853294
 31
0.0
 11
135.148607
 21
290.634655
 31
0.0
 11
140.635900
 21
285.538063
 31
0.0
 11
140.924692
 21
285.043184
 31
0.0
 11
141.060750
 21
284.492401
 31
0.0
 11
141.035609
 21
283.919973
 31
0.0
 11
140.849212
 21
283.378159
 31
0.0
 11
140.520766
 21
282.915561
 31
0.0
 11
140.070700
 21
282.560953
 31
0.0
  0
LWPOLYLINE
  5
175
100
AcDbEntity
  8
Capa_1
 62
7
100
AcDbPolyline
 90
4
 70
0
 10
140.070700
 20
282.560953
 30
0.0
 10
129.031210
 20
276.187303
 30
0.0
 10
130.431210
 20
273.762423
 30
0.0
 10
141.470710
 20
280.136083
 30
0.0
  0
SPLINE
  5
176
100
AcDbEntity
  8
Capa_1
 62
7
100
AcDbSpline
 70
0
 71
3
 72
19
 73
15
 74
13
 40
0.000000
 40
0.000000
 40
0.000000
 40
0.000000
 40
0.572977
 40
1.140314
 40
1.713291
 40
2.286268
 40
2.853604
 40
3.426581
 40
10.915616
 40
18.324363
 40
25.813398
 40
33.302432
 40
40.711179
 40
48.200214
 40
48.200214
 40
48.200214
 40
48.200214
 10
141.470710
 20
280.136083
 30
0.0
 10
141.644693
 20
280.218051
 30
0.0
 10
141.990948
 20
280.381180
 30
0.0
 10
142.571767
 20
280.427262
 30
0.0
 10
143.139405
 20
280.319015
 30
0.0
 10
143.651413
 20
280.050407
 30
0.0
 10
144.075997
 20
279.652289
 30
0.0
 10
145.382044
 20
277.064429
 30
0.0
 10
146.297994
 20
271.860281
 30
0.0
 10
145.833120
 20
264.349281
 30
0.0
 10
143.045845
 20
257.275659
 30
0.0
 10
138.319995
 20
251.393013
 30
0.0
 10
132.077474
 20
247.004059
 30
0.0
 10
127.212305
 20
245.836472
 30
0.0
 10
124.766610
 20
245.249533
 30
0.0
 11
141.470710
 21
280.136083
 31
0.0
 11
142.002841
 21
280.348544
 31
0.0
 11
142.567683
 21
280.401685
 31
0.0
 11
143.130103
 21
280.292201
 31
0.0
 11
143.638407
 21
280.027760
 31
0.0
 11
144.047369
 21
279.634541
 31
0.0
 11
144.331550
 21
279.137003
 31
0.0
 11
146.001682
 21
271.836572
 31
0.0
 11
145.452568
 21
264.448202
 31
0.0
 11
142.721590
 21
257.474867
 31
0.0
 11
138.047994
 21
251.623103
 31
0.0
 11
131.924035
 21
247.453372
 31
0.0
 11
124.766610
 21
245.249533
 31
0.0
  0
LWPOLYLINE
  5
177
100
AcDbEntity
  8
Capa_1
 62
7
100
AcDbPolyline
 90
1
 70
1
 10
124.766610
 20
245.249533
 30
0.0
  0
SPLINE
  5
178
100
AcDbEntity
  8
Capa_1
 62
7
100
AcDbSpline
 70
0
 71
3
 72
13
 73
9
 74
7
 40
0.000000
 40
0.000000
 40
0.000000
 40
0.000000
 40
0.572977
 40
1.140314
 40
1.713291
 40
2.286267
 40
2.853604
 40
3.426581
 40
3.426581
 40
3.426581
 40
3.426581
 10
116.908520
 20
80.643180
 30
0.0
 10
116.716600
 20
80.630678
 30
0.0
 10
116.334649
 20
80.605797
 30
0.0
 10
115.777379
 20
80.775784
 30
0.0
 10
115.288808
 20
81.084532
 30
0.0
 10
114.911232
 20
81.522096
 30
0.0
 10
114.660737
 20
82.048117
 30
0.0
 10
114.628885
 20
82.429550
 30
0.0
 10
114.612880
 20
82.621210
 30
0.0
 11
116.908520
 21
80.643180
 31
0.0
 11
116.335549
 21
80.640521
 31
0.0
 11
115.790531
 21
80.798086
 31
0.0
 11
115.307368
 21
81.106072
 31
0.0
 11
114.931344
 21
81.538401
 31
0.0
 11
114.694947
 21
82.054141
 31
0.0
 11
114.612880
 21
82.621210
 31
0.0
  0
LWPOLYLINE
  5
179
100
AcDbEntity
  8
Capa_1
 62
7
100
AcDbPolyline
 90
4
 70
0
 10
114.612880
 20
82.621210
 30
0.0
 10
114.612880
 20
95.368520
 30
0.0
 10
111.812870
 20
95.368520
 30
0.0
 10
111.812870
 20
82.621210
 30
0.0
  0
SPLINE
  5
17a
100
AcDbEntity
  8
Capa_1
 62
7
100
AcDbSpline
 70
0
 71
3
 72
25
 73
21
 74
19
 40
0.000000
 40
0.000000
 40
0.000000
 40
0.000000
 40
0.572979
 40
1.140317
 40
1.713296
 40
2.286275
 40
2.853614
 40
3.426593
 40
10.915627
 40
18.324374
 40
25.813409
 40
33.302443
 40
40.711191
 40
48.200225
 40
48.773202
 40
49.340539
 40
49.913516
 40
50.486493
 40
51.053829
 40
51.626806
 40
51.626806
 40
51.626806
 40
51.626806
 10
111.812870
 20
82.621210
 30
0.0
 10
111.796865
 20
82.429551
 30
0.0
 10
111.765013
 20
82.048120
 30
0.0
 10
111.514514
 20
81.522072
 30
0.0
 10
111.136950
 20
81.084604
 30
0.0
 10
110.648323
 20
80.775495
 30
0.0
 10
110.091250
 20
80.606852
 30
0.0
 10
107.197057
 20
80.769720
 30
0.0
 10
102.233106
 20
82.578180
 30
0.0
 10
95.956614
 20
86.737939
 30
0.0
 10
91.239930
 20
92.682428
 30
0.0
 10
88.450193
 20
99.739441
 30
0.0
 10
87.985983
 20
107.254922
 30
0.0
 10
88.901784
 20
112.458060
 30
0.0
 10
90.207833
 20
115.045936
 30
0.0
 10
90.632417
 20
115.444054
 30
0.0
 10
91.144425
 20
115.712662
 30
0.0
 10
91.712063
 20
115.820909
 30
0.0
 10
92.292882
 20
115.774827
 30
0.0
 10
92.639137
 20
115.611698
 30
0.0
 10
92.813120
 20
115.529730
 30
0.0
 11
111.812870
 21
82.621210
 31
0.0
 11
111.730803
 21
82.054139
 31
0.0
 11
111.494405
 21
81.538398
 31
0.0
 11
111.118379
 21
81.106068
 31
0.0
 11
110.635213
 21
80.798082
 31
0.0
 11
110.090193
 21
80.640519
 31
0.0
 11
109.517220
 21
80.643180
 31
0.0
 11
102.359795
 21
82.847019
 31
0.0
 11
96.235836
 21
87.016750
 31
0.0
 11
91.562240
 21
92.868514
 31
0.0
 11
88.831262
 21
99.841849
 31
0.0
 11
88.282148
 21
107.230219
 31
0.0
 11
89.952280
 21
114.530650
 31
0.0
 11
90.236461
 21
115.028188
 31
0.0
 11
90.645423
 21
115.421407
 31
0.0
 11
91.153727
 21
115.685848
 31
0.0
 11
91.716147
 21
115.795332
 31
0.0
 11
92.280989
 21
115.742191
 31
0.0
 11
92.813120
 21
115.529730
 31
0.0
  0
LWPOLYLINE
  5
17b
100
AcDbEntity
  8
Capa_1
 62
7
100
AcDbPolyline
 90
4
 70
0
 10
92.813120
 20
115.529730
 30
0.0
 10
103.852610
 20
109.156070
 30
0.0
 10
105.252620
 20
111.580950
 30
0.0
 10
94.213130
 20
117.954600
 30
0.0
  0
SPLINE
  5
17c
100
AcDbEntity
  8
Capa_1
 62
7
100
AcDbSpline
 70
0
 71
3
 72
25
 73
21
 74
19
 40
0.000000
 40
0.000000
 40
0.000000
 40
0.000000
 40
0.572980
 40
1.140319
 40
1.713299
 40
2.286279
 40
2.853619
 40
3.426598
 40
10.915636
 40
18.324386
 40
25.813423
 40
33.302460
 40
40.711210
 40
48.200247
 40
48.773227
 40
49.340566
 40
49.913546
 40
50.486526
 40
51.053866
 40
51.626845
 40
51.626845
 40
51.626845
 40
51.626845
 10
94.213130
 20
117.954600
 30
0.0
 10
94.055151
 20
118.064290
 30
0.0
 10
93.740747
 20
118.282590
 30
0.0
 10
93.410425
 20
118.762553
 30
0.0
 10
93.220348
 20
119.308268
 30
0.0
 10
93.196964
 20
119.885987
 30
0.0
 10
93.329453
 20
120.452749
 30
0.0
 10
94.917601
 20
122.877759
 30
0.0
 10
98.965745
 20
126.272442
 30
0.0
 10
105.706452
 20
129.628166
 30
0.0
 10
113.212875
 20
130.740690
 30
0.0
 10
120.719298
 20
129.628166
 30
0.0
 10
127.460005
 20
126.272442
 30
0.0
 10
131.508149
 20
122.877759
 30
0.0
 10
133.096297
 20
120.452749
 30
0.0
 10
133.228786
 20
119.885987
 30
0.0
 10
133.205402
 20
119.308268
 30
0.0
 10
133.015325
 20
118.762553
 30
0.0
 10
132.685003
 20
118.282590
 30
0.0
 10
132.370599
 20
118.064290
 30
0.0
 10
132.212620
 20
117.954600
 30
0.0
 11
94.213130
 21
117.954600
 31
0.0
 11
93.763064
 21
118.309208
 31
0.0
 11
93.434618
 21
118.771806
 31
0.0
 11
93.248221
 21
119.313620
 31
0.0
 11
93.223080
 21
119.886048
 31
0.0
 11
93.359138
 21
120.436831
 31
0.0
 11
93.647930
 21
120.931710
 31
0.0
 11
99.135224
 21
126.028306
 31
0.0
 11
105.808298
 21
129.246946
 31
0.0
 11
113.212875
 21
130.368519
 31
0.0
 11
120.617452
 21
129.246946
 31
0.0
 11
127.290526
 21
126.028306
 31
0.0
 11
132.777820
 21
120.931710
 31
0.0
 11
133.066612
 21
120.436831
 31
0.0
 11
133.202670
 21
119.886048
 31
0.0
 11
133.177529
 21
119.313620
 31
0.0
 11
132.991132
 21
118.771806
 31
0.0
 11
132.662686
 21
118.309208
 31
0.0
 11
132.212620
 21
117.954600
 31
0.0
  0
LWPOLYLINE
  5
17d
100
AcDbEntity
  8
Capa_1
 62
7
100
AcDbPolyline
 90
4
 70
0
 10
132.212620
 20
117.954600
 30
0.0
 10
121.173130
 20
111.580950
 30
0.0
 10
122.573130
 20
109.156070
 30
0.0
 10
133.612630
 20
115.529730
 30
0.0
  0
SPLINE
  5
17e
100
AcDbEntity
  8
Capa_1
 62
7
100
AcDbSpline
 70
0
 71
3
 72
19
 73
15
 74
13
 40
0.000000
 40
0.000000
 40
0.000000
 40
0.000000
 40
0.572977
 40
1.140314
 40
1.713291
 40
2.286268
 40
2.853604
 40
3.426581
 40
10.915617
 40
18.324366
 40
25.813401
 40
33.302437
 40
40.711186
 40
48.200222
 40
48.200222
 40
48.200222
 40
48.200222
 10
133.612630
 20
115.529730
 30
0.0
 10
133.786613
 20
115.611698
 30
0.0
 10
134.132868
 20
115.774827
 30
0.0
 10
134.713687
 20
115.820909
 30
0.0
 10
135.281325
 20
115.712662
 30
0.0
 10
135.793333
 20
115.444054
 30
0.0
 10
136.217917
 20
115.045936
 30
0.0
 10
137.523964
 20
112.458076
 30
0.0
 10
138.439914
 20
107.253926
 30
0.0
 10
137.975039
 20
99.742926
 30
0.0
 10
135.187762
 20
92.669302
 30
0.0
 10
130.461909
 20
86.786656
 30
0.0
 10
124.219386
 20
82.397704
 30
0.0
 10
119.354215
 20
81.230119
 30
0.0
 10
116.908520
 20
80.643180
 30
0.0
 11
133.612630
 21
115.529730
 31
0.0
 11
134.144761
 21
115.742191
 31
0.0
 11
134.709603
 21
115.795332
 31
0.0
 11
135.272023
 21
115.685848
 31
0.0
 11
135.780327
 21
115.421407
 31
0.0
 11
136.189289
 21
115.028188
 31
0.0
 11
136.473470
 21
114.530650
 31
0.0
 11
138.143601
 21
107.230217
 31
0.0
 11
137.594487
 21
99.841846
 31
0.0
 11
134.863507
 21
92.868510
 31
0.0
 11
130.189909
 21
87.016747
 31
0.0
 11
124.065947
 21
82.847017
 31
0.0
 11
116.908520
 21
80.643180
 31
0.0
  0
LWPOLYLINE
  5
17f
100
AcDbEntity
  8
Capa_1
 62
7
100
AcDbPolyline
 90
1
 70
1
 10
116.908520
 20
80.643180
 30
0.0
  0
SPLINE
  5
180
100
AcDbEntity
  8
Capa_1
 62
7
100
AcDbSpline
 70
0
 71
3
 72
13
 73
9
 74
7
 40
0.000000
 40
0.000000
 40
0.000000
 40
0.000000
 40
0.572977
 40
1.140314
 40
1.713291
 40
2.286267
 40
2.853604
 40
3.426581
 40
3.426581
 40
3.426581
 40
3.426581
 10
160.164020
 20
49.142950
 30
0.0
 10
159.972100
 20
49.130448
 30
0.0
 10
159.590149
 20
49.105567
 30
0.0
 10
159.032879
 20
49.275554
 30
0.0
 10
158.544308
 20
49.584302
 30
0.0
 10
158.166732
 20
50.021866
 30
0.0
 10
157.916237
 20
50.547887
 30
0.0
 10
157.884385
 20
50.929320
 30
0.0
 10
157.868380
 20
51.120980
 30
0.0
 11
160.164020
 21
49.142950
 31
0.0
 11
159.591049
 21
49.140291
 31
0.0
 11
159.046031
 21
49.297856
 31
0.0
 11
158.562868
 21
49.605842
 31
0.0
 11
158.186844
 21
50.038171
 31
0.0
 11
157.950447
 21
50.553911
 31
0.0
 11
157.868380
 21
51.120980
 31
0.0
  0
LWPOLYLINE
  5
181
100
AcDbEntity
  8
Capa_1
 62
7
100
AcDbPolyline
 90
4
 70
0
 10
157.868380
 20
51.120980
 30
0.0
 10
157.868380
 20
63.868280
 30
0.0
 10
155.068370
 20
63.868280
 30
0.0
 10
155.068370
 20
51.120980
 30
0.0
  0
SPLINE
  5
182
100
AcDbEntity
  8
Capa_1
 62
7
100
AcDbSpline
 70
0
 71
3
 72
25
 73
21
 74
19
 40
0.000000
 40
0.000000
 40
0.000000
 40
0.000000
 40
0.572979
 40
1.140317
 40
1.713296
 40
2.286275
 40
2.853614
 40
3.426593
 40
10.915627
 40
18.324374
 40
25.813409
 40
33.302443
 40
40.711191
 40
48.200225
 40
48.773202
 40
49.340539
 40
49.913516
 40
50.486493
 40
51.053829
 40
51.626806
 40
51.626806
 40
51.626806
 40
51.626806
 10
155.068370
 20
51.120980
 30
0.0
 10
155.052365
 20
50.929321
 30
0.0
 10
155.020513
 20
50.547890
 30
0.0
 10
154.770014
 20
50.021842
 30
0.0
 10
154.392450
 20
49.584374
 30
0.0
 10
153.903823
 20
49.275265
 30
0.0
 10
153.346750
 20
49.106622
 30
0.0
 10
150.452557
 20
49.269490
 30
0.0
 10
145.488606
 20
51.077950
 30
0.0
 10
139.212114
 20
55.237709
 30
0.0
 10
134.495430
 20
61.182198
 30
0.0
 10
131.705693
 20
68.239211
 30
0.0
 10
131.241483
 20
75.754692
 30
0.0
 10
132.157284
 20
80.957830
 30
0.0
 10
133.463333
 20
83.545706
 30
0.0
 10
133.887917
 20
83.943824
 30
0.0
 10
134.399925
 20
84.212432
 30
0.0
 10
134.967563
 20
84.320679
 30
0.0
 10
135.548382
 20
84.274597
 30
0.0
 10
135.894637
 20
84.111468
 30
0.0
 10
136.068620
 20
84.029500
 30
0.0
 11
155.068370
 21
51.120980
 31
0.0
 11
154.986303
 21
50.553909
 31
0.0
 11
154.749905
 21
50.038168
 31
0.0
 11
154.373879
 21
49.605838
 31
0.0
 11
153.890713
 21
49.297852
 31
0.0
 11
153.345693
 21
49.140289
 31
0.0
 11
152.772720
 21
49.142950
 31
0.0
 11
145.615295
 21
51.346789
 31
0.0
 11
139.491336
 21
55.516520
 31
0.0
 11
134.817740
 21
61.368284
 31
0.0
 11
132.086762
 21
68.341619
 31
0.0
 11
131.537648
 21
75.729989
 31
0.0
 11
133.207780
 21
83.030420
 31
0.0
 11
133.491961
 21
83.527958
 31
0.0
 11
133.900923
 21
83.921177
 31
0.0
 11
134.409227
 21
84.185618
 31
0.0
 11
134.971647
 21
84.295102
 31
0.0
 11
135.536489
 21
84.241961
 31
0.0
 11
136.068620
 21
84.029500
 31
0.0
  0
LWPOLYLINE
  5
183
100
AcDbEntity
  8
Capa_1
 62
7
100
AcDbPolyline
 90
4
 70
0
 10
136.068620
 20
84.029500
 30
0.0
 10
147.108110
 20
77.655840
 30
0.0
 10
148.508120
 20
80.080720
 30
0.0
 10
137.468630
 20
86.454370
 30
0.0
  0
SPLINE
  5
184
100
AcDbEntity
  8
Capa_1
 62
7
100
AcDbSpline
 70
0
 71
3
 72
25
 73
21
 74
19
 40
0.000000
 40
0.000000
 40
0.000000
 40
0.000000
 40
0.572980
 40
1.140319
 40
1.713299
 40
2.286279
 40
2.853619
 40
3.426598
 40
10.915636
 40
18.324386
 40
25.813423
 40
33.302460
 40
40.711210
 40
48.200247
 40
48.773227
 40
49.340566
 40
49.913546
 40
50.486526
 40
51.053866
 40
51.626845
 40
51.626845
 40
51.626845
 40
51.626845
 10
137.468630
 20
86.454370
 30
0.0
 10
137.310651
 20
86.564060
 30
0.0
 10
136.996247
 20
86.782360
 30
0.0
 10
136.665925
 20
87.262323
 30
0.0
 10
136.475848
 20
87.808038
 30
0.0
 10
136.452464
 20
88.385757
 30
0.0
 10
136.584953
 20
88.952519
 30
0.0
 10
138.173101
 20
91.377529
 30
0.0
 10
142.221245
 20
94.772212
 30
0.0
 10
148.961952
 20
98.127936
 30
0.0
 10
156.468375
 20
99.240460
 30
0.0
 10
163.974798
 20
98.127936
 30
0.0
 10
170.715505
 20
94.772212
 30
0.0
 10
174.763649
 20
91.377529
 30
0.0
 10
176.351797
 20
88.952519
 30
0.0
 10
176.484286
 20
88.385757
 30
0.0
 10
176.460902
 20
87.808038
 30
0.0
 10
176.270825
 20
87.262323
 30
0.0
 10
175.940503
 20
86.782360
 30
0.0
 10
175.626099
 20
86.564060
 30
0.0
 10
175.468120
 20
86.454370
 30
0.0
 11
137.468630
 21
86.454370
 31
0.0
 11
137.018564
 21
86.808978
 31
0.0
 11
136.690118
 21
87.271576
 31
0.0
 11
136.503721
 21
87.813390
 31
0.0
 11
136.478580
 21
88.385818
 31
0.0
 11
136.614638
 21
88.936601
 31
0.0
 11
136.903430
 21
89.431480
 31
0.0
 11
142.390724
 21
94.528076
 31
0.0
 11
149.063798
 21
97.746716
 31
0.0
 11
156.468375
 21
98.868289
 31
0.0
 11
163.872952
 21
97.746716
 31
0.0
 11
170.546026
 21
94.528076
 31
0.0
 11
176.033320
 21
89.431480
 31
0.0
 11
176.322112
 21
88.936601
 31
0.0
 11
176.458170
 21
88.385818
 31
0.0
 11
176.433029
 21
87.813390
 31
0.0
 11
176.246632
 21
87.271576
 31
0.0
 11
175.918186
 21
86.808978
 31
0.0
 11
175.468120
 21
86.454370
 31
0.0
  0
LWPOLYLINE
  5
185
100
AcDbEntity
  8
Capa_1
 62
7
100
AcDbPolyline
 90
4
 70
0
 10
175.468120
 20
86.454370
 30
0.0
 10
164.428630
 20
80.080720
 30
0.0
 10
165.828630
 20
77.655840
 30
0.0
 10
176.868130
 20
84.029500
 30
0.0
  0
SPLINE
  5
186
100
AcDbEntity
  8
Capa_1
 62
7
100
AcDbSpline
 70
0
 71
3
 72
19
 73
15
 74
13
 40
0.000000
 40
0.000000
 40
0.000000
 40
0.000000
 40
0.572977
 40
1.140314
 40
1.713291
 40
2.286268
 40
2.853604
 40
3.426581
 40
10.915617
 40
18.324366
 40
25.813401
 40
33.302437
 40
40.711186
 40
48.200222
 40
48.200222
 40
48.200222
 40
48.200222
 10
176.868130
 20
84.029500
 30
0.0
 10
177.042113
 20
84.111468
 30
0.0
 10
177.388368
 20
84.274597
 30
0.0
 10
177.969187
 20
84.320679
 30
0.0
 10
178.536825
 20
84.212432
 30
0.0
 10
179.048833
 20
83.943824
 30
0.0
 10
179.473417
 20
83.545706
 30
0.0
 10
180.779464
 20
80.957846
 30
0.0
 10
181.695414
 20
75.753696
 30
0.0
 10
181.230539
 20
68.242696
 30
0.0
 10
178.443262
 20
61.169072
 30
0.0
 10
173.717409
 20
55.286426
 30
0.0
 10
167.474886
 20
50.897474
 30
0.0
 10
162.609715
 20
49.729889
 30
0.0
 10
160.164020
 20
49.142950
 30
0.0
 11
176.868130
 21
84.029500
 31
0.0
 11
177.400261
 21
84.241961
 31
0.0
 11
177.965103
 21
84.295102
 31
0.0
 11
178.527523
 21
84.185618
 31
0.0
 11
179.035827
 21
83.921177
 31
0.0
 11
179.444789
 21
83.527958
 31
0.0
 11
179.728970
 21
83.030420
 31
0.0
 11
181.399101
 21
75.729987
 31
0.0
 11
180.849987
 21
68.341616
 31
0.0
 11
178.119007
 21
61.368280
 31
0.0
 11
173.445409
 21
55.516517
 31
0.0
 11
167.321447
 21
51.346787
 31
0.0
 11
160.164020
 21
49.142950
 31
0.0
  0
LWPOLYLINE
  5
187
100
AcDbEntity
  8
Capa_1
 62
7
100
AcDbPolyline
 90
1
 70
1
 10
160.164020
 20
49.142950
 30
0.0
  0
SPLINE
  5
188
100
AcDbEntity
  8
Capa_1
 62
7
100
AcDbSpline
 70
0
 71
3
 72
13
 73
9
 74
7
 40
0.000000
 40
0.000000
 40
0.000000
 40
0.000000
 40
0.572979
 40
1.140317
 40
1.713296
 40
2.286275
 40
2.853614
 40
3.426593
 40
3.426593
 40
3.426593
 40
3.426593
 10
33.469171
 20
127.692690
 30
0.0
 10
33.277250
 20
127.680187
 30
0.0
 10
32.895298
 20
127.655305
 30
0.0
 10
32.338025
 20
127.825290
 30
0.0
 10
31.849452
 20
128.134037
 30
0.0
 10
31.471874
 20
128.571603
 30
0.0
 10
31.221378
 20
129.097625
 30
0.0
 10
31.189526
 20
129.479060
 30
0.0
 10
31.173521
 20
129.670720
 30
0.0
 11
33.469171
 21
127.692690
 31
0.0
 11
32.896198
 21
127.690029
 31
0.0
 11
32.351178
 21
127.847592
 31
0.0
 11
31.868012
 21
128.155578
 31
0.0
 11
31.491986
 21
128.587908
 31
0.0
 11
31.255588
 21
129.103649
 31
0.0
 11
31.173521
 21
129.670720
 31
0.0
  0
LWPOLYLINE
  5
189
100
AcDbEntity
  8
Capa_1
 62
7
100
AcDbPolyline
 90
4
 70
0
 10
31.173521
 20
129.670720
 30
0.0
 10
31.173521
 20
142.418030
 30
0.0
 10
28.373521
 20
142.418030
 30
0.0
 10
28.373521
 20
129.670720
 30
0.0
  0
SPLINE
  5
18a
100
AcDbEntity
  8
Capa_1
 62
7
100
AcDbSpline
 70
0
 71
3
 72
25
 73
21
 74
19
 40
0.000000
 40
0.000000
 40
0.000000
 40
0.000000
 40
0.572979
 40
1.140317
 40
1.713296
 40
2.286275
 40
2.853614
 40
3.426593
 40
10.915628
 40
18.324377
 40
25.813413
 40
33.302448
 40
40.711197
 40
48.200233
 40
48.773212
 40
49.340551
 40
49.913531
 40
50.486510
 40
51.053849
 40
51.626828
 40
51.626828
 40
51.626828
 40
51.626828
 10
28.373521
 20
129.670720
 30
0.0
 10
28.357516
 20
129.479061
 30
0.0
 10
28.325664
 20
129.097630
 30
0.0
 10
28.075165
 20
128.571582
 30
0.0
 10
27.697601
 20
128.134114
 30
0.0
 10
27.208974
 20
127.825005
 30
0.0
 10
26.651901
 20
127.656362
 30
0.0
 10
23.757707
 20
127.819230
 30
0.0
 10
18.793755
 20
129.627688
 30
0.0
 10
12.517260
 20
133.787446
 30
0.0
 10
7.800574
 20
139.731935
 30
0.0
 10
5.010836
 20
146.788948
 30
0.0
 10
4.546623
 20
154.304432
 30
0.0
 10
5.462430
 20
159.507567
 30
0.0
 10
6.768475
 20
162.095449
 30
0.0
 10
7.193060
 20
162.493569
 30
0.0
 10
7.705070
 20
162.762178
 30
0.0
 10
8.272711
 20
162.870424
 30
0.0
 10
8.853532
 20
162.824340
 30
0.0
 10
9.199788
 20
162.661209
 30
0.0
 10
9.373771
 20
162.579240
 30
0.0
 11
28.373521
 21
129.670720
 31
0.0
 11
28.291454
 21
129.103649
 31
0.0
 11
28.055056
 21
128.587908
 31
0.0
 11
27.679030
 21
128.155578
 31
0.0
 11
27.195864
 21
127.847592
 31
0.0
 11
26.650844
 21
127.690029
 31
0.0
 11
26.077871
 21
127.692690
 31
0.0
 11
18.920444
 21
129.896527
 31
0.0
 11
12.796483
 21
134.066257
 31
0.0
 11
8.122884
 21
139.918021
 31
0.0
 11
5.391905
 21
146.891356
 31
0.0
 11
4.842790
 21
154.279727
 31
0.0
 11
6.512921
 21
161.580160
 31
0.0
 11
6.797102
 21
162.077700
 31
0.0
 11
7.206066
 21
162.470921
 31
0.0
 11
7.714373
 21
162.735363
 31
0.0
 11
8.276795
 21
162.844847
 31
0.0
 11
8.841639
 21
162.791704
 31
0.0
 11
9.373771
 21
162.579240
 31
0.0
  0
LWPOLYLINE
  5
18b
100
AcDbEntity
  8
Capa_1
 62
7
100
AcDbPolyline
 90
4
 70
0
 10
9.373771
 20
162.579240
 30
0.0
 10
20.413261
 20
156.205580
 30
0.0
 10
21.813261
 20
158.630460
 30
0.0
 10
10.773771
 20
165.004110
 30
0.0
  0
SPLINE
  5
18c
100
AcDbEntity
  8
Capa_1
 62
7
100
AcDbSpline
 70
0
 71
3
 72
25
 73
21
 74
19
 40
0.000000
 40
0.000000
 40
0.000000
 40
0.000000
 40
0.572979
 40
1.140318
 40
1.713298
 40
2.286277
 40
2.853616
 40
3.426596
 40
10.915630
 40
18.324377
 40
25.813412
 40
33.302446
 40
40.711194
 40
48.200228
 40
48.773208
 40
49.340548
 40
49.913528
 40
50.486507
 40
51.053847
 40
51.626827
 40
51.626827
 40
51.626827
 40
51.626827
 10
10.773771
 20
165.004110
 30
0.0
 10
10.615792
 20
165.113800
 30
0.0
 10
10.301389
 20
165.332101
 30
0.0
 10
9.971070
 20
165.812066
 30
0.0
 10
9.780994
 20
166.357781
 30
0.0
 10
9.757613
 20
166.935499
 30
0.0
 10
9.890103
 20
167.502260
 30
0.0
 10
11.478257
 20
169.927265
 30
0.0
 10
15.526394
 20
173.321950
 30
0.0
 10
22.267101
 20
176.677670
 30
0.0
 10
29.773521
 20
177.790193
 30
0.0
 10
37.279942
 20
176.677670
 30
0.0
 10
44.020646
 20
173.321948
 30
0.0
 10
48.068790
 20
169.927269
 30
0.0
 10
49.656938
 20
167.502259
 30
0.0
 10
49.789427
 20
166.935497
 30
0.0
 10
49.766043
 20
166.357778
 30
0.0
 10
49.575966
 20
165.812063
 30
0.0
 10
49.245644
 20
165.332100
 30
0.0
 10
48.931240
 20
165.113800
 30
0.0
 10
48.773261
 20
165.004110
 30
0.0
 11
10.773771
 21
165.004110
 31
0.0
 11
10.323707
 21
165.358719
 31
0.0
 11
9.995262
 21
165.821318
 31
0.0
 11
9.808868
 21
166.363132
 31
0.0
 11
9.783729
 21
166.935560
 31
0.0
 11
9.919788
 21
167.486342
 31
0.0
 11
10.208581
 21
167.981220
 31
0.0
 11
15.695874
 21
173.077812
 31
0.0
 11
22.368947
 21
176.296451
 31
0.0
 11
29.773521
 21
177.418022
 31
0.0
 11
37.178095
 21
176.296451
 31
0.0
 11
43.851168
 21
173.077812
 31
0.0
 11
49.338461
 21
167.981220
 31
0.0
 11
49.627253
 21
167.486341
 31
0.0
 11
49.763311
 21
166.935558
 31
0.0
 11
49.738170
 21
166.363130
 31
0.0
 11
49.551773
 21
165.821316
 31
0.0
 11
49.223327
 21
165.358718
 31
0.0
 11
48.773261
 21
165.004110
 31
0.0
  0
LWPOLYLINE
  5
18d
100
AcDbEntity
  8
Capa_1
 62
7
100
AcDbPolyline
 90
4
 70
0
 10
48.773261
 20
165.004110
 30
0.0
 10
37.733771
 20
158.630460
 30
0.0
 10
39.133771
 20
156.205580
 30
0.0
 10
50.173271
 20
162.579240
 30
0.0
  0
LWPOLYLINE
  5
18e
100
AcDbEntity
  8
Capa_1
 62
7
100
AcDbPolyline
 90
1
 70
1
 10
33.469171
 20
127.692690
 30
0.0
  0
LWPOLYLINE
  5
18f
100
AcDbEntity
  8
Capa_1
 62
7
100
AcDbPolyline
 90
4
 70
0
 10
167.113243
 20
278.909496
 30
0.0
 10
169.913243
 20
278.909496
 30
0.0
 10
169.913243
 20
285.611392
 30
0.0
 10
170.472813
 20
286.809954
 30
0.0
  0
SPLINE
  5
190
100
AcDbEntity
  8
Capa_1
 62
7
100
AcDbSpline
 70
0
 71
3
 72
19
 73
15
 74
13
 40
0.000000
 40
0.000000
 40
0.000000
 40
0.000000
 40
0.572977
 40
1.140314
 40
1.713291
 40
2.286268
 40
2.853604
 40
3.426581
 40
10.915616
 40
18.324363
 40
25.813398
 40
33.302432
 40
40.711179
 40
48.200214
 40
48.200214
 40
48.200214
 40
48.200214
 10
50.173271
 20
162.579240
 30
0.0
 10
50.347254
 20
162.661208
 30
0.0
 10
50.693509
 20
162.824337
 30
0.0
 10
51.274328
 20
162.870419
 30
0.0
 10
51.841966
 20
162.762172
 30
0.0
 10
52.353974
 20
162.493564
 30
0.0
 10
52.778558
 20
162.095446
 30
0.0
 10
54.084605
 20
159.507586
 30
0.0
 10
55.000555
 20
154.303438
 30
0.0
 10
54.535681
 20
146.792438
 30
0.0
 10
51.748406
 20
139.718816
 30
0.0
 10
47.022556
 20
133.836170
 30
0.0
 10
40.780035
 20
129.447216
 30
0.0
 10
35.914866
 20
128.279629
 30
0.0
 10
33.469171
 20
127.692690
 30
0.0
 11
50.173271
 21
162.579240
 31
0.0
 11
50.705402
 21
162.791701
 31
0.0
 11
51.270244
 21
162.844842
 31
0.0
 11
51.832664
 21
162.735358
 31
0.0
 11
52.340968
 21
162.470917
 31
0.0
 11
52.749930
 21
162.077698
 31
0.0
 11
53.034111
 21
161.580160
 31
0.0
 11
54.704243
 21
154.279729
 31
0.0
 11
54.155129
 21
146.891359
 31
0.0
 11
51.424151
 21
139.918024
 31
0.0
 11
46.750555
 21
134.066260
 31
0.0
 11
40.626596
 21
129.896529
 31
0.0
 11
33.469171
 21
127.692690
 31
0.0
  0
LWPOLYLINE
  5
191
100
AcDbEntity
  8
Capa_1
 62
7
100
AcDbPolyline
 90
2
 70
0
 10
171.412071
 20
286.714704
 30
0.0
 10
171.833288
 20
284.965809
 30
0.0
  0
SPLINE
  5
192
100
AcDbEntity
  8
Capa_1
 62
7
100
AcDbSpline
 70
0
 71
3
 72
13
 73
9
 74
7
 40
0.000000
 40
0.000000
 40
0.000000
 40
0.000000
 40
0.205642
 40
0.407294
 40
0.612936
 40
0.818577
 40
1.020230
 40
1.225871
 40
1.225871
 40
1.225871
 40
1.225871
 10
171.412083
 20
286.715868
 30
0.0
 10
171.387795
 20
286.781031
 30
0.0
 10
171.339690
 20
286.910093
 30
0.0
 10
171.176845
 20
287.046962
 30
0.0
 10
170.977389
 20
287.110984
 30
0.0
 10
170.769185
 20
287.087898
 30
0.0
 10
170.582378
 20
286.986141
 30
0.0
 10
170.509572
 20
286.869221
 30
0.0
 10
170.472812
 20
286.810188
 30
0.0
 11
171.412083
 21
286.715868
 31
0.0
 11
171.323897
 21
286.901641
 31
0.0
 11
171.171941
 21
287.034205
 31
0.0
 11
170.975921
 21
287.096371
 31
0.0
 11
170.771455
 21
287.074422
 31
0.0
 11
170.596175
 21
286.974717
 31
0.0
 11
170.472812
 21
286.810188
 31
0.0
  0
LWPOLYLINE
  5
193
100
AcDbEntity
  8
Capa_1
 62
7
100
AcDbPolyline
 90
2
 70
0
 10
172.047335
 20
281.499767
 30
0.0
 10
170.513242
 20
267.963684
 30
0.0
  0
SPLINE
  5
194
100
AcDbEntity
  8
Capa_1
 62
7
100
AcDbSpline
 70
0
 71
3
 72
10
 73
6
 74
4
 40
0.000000
 40
0.000000
 40
0.000000
 40
0.000000
 40
1.163557
 40
2.325158
 40
3.488715
 40
3.488715
 40
3.488715
 40
3.488715
 10
172.047330
 20
281.499555
 30
0.0
 10
172.077566
 20
281.886511
 30
0.0
 10
172.137987
 20
282.659773
 30
0.0
 10
172.065995
 20
283.825690
 30
0.0
 10
171.910901
 20
284.585644
 30
0.0
 10
171.833289
 20
284.965941
 30
0.0
 11
172.047330
 21
281.499555
 31
0.0
 11
172.110892
 21
282.661374
 31
0.0
 11
172.039302
 21
283.820767
 31
0.0
 11
171.833289
 21
284.965941
 31
0.0
  0
LWPOLYLINE
  5
195
100
AcDbEntity
  8
Capa_1
 62
7
100
AcDbPolyline
 90
2
 70
0
 10
164.979151
 20
281.499767
 30
0.0
 10
166.513244
 20
267.963684
 30
0.0
  0
LWPOLYLINE
  5
196
100
AcDbEntity
  8
Capa_1
 62
7
100
AcDbPolyline
 90
2
 70
0
 10
165.614415
 20
286.714704
 30
0.0
 10
165.193198
 20
284.965809
 30
0.0
  0
SPLINE
  5
197
100
AcDbEntity
  8
Capa_1
 62
7
100
AcDbSpline
 70
0
 71
3
 72
10
 73
6
 74
4
 40
0.000000
 40
0.000000
 40
0.000000
 40
0.000000
 40
1.163557
 40
2.325158
 40
3.488715
 40
3.488715
 40
3.488715
 40
3.488715
 10
165.193197
 20
284.965941
 30
0.0
 10
165.115585
 20
284.585644
 30
0.0
 10
164.960491
 20
283.825690
 30
0.0
 10
164.888499
 20
282.659773
 30
0.0
 10
164.948920
 20
281.886511
 30
0.0
 10
164.979156
 20
281.499555
 30
0.0
 11
165.193197
 21
284.965941
 31
0.0
 11
164.987184
 21
283.820767
 31
0.0
 11
164.915594
 21
282.661374
 31
0.0
 11
164.979156
 21
281.499555
 31
0.0
  0
LWPOLYLINE
  5
198
100
AcDbEntity
  8
Capa_1
 62
7
100
AcDbPolyline
 90
3
 70
0
 10
167.113243
 20
278.909496
 30
0.0
 10
167.113243
 20
285.611392
 30
0.0
 10
166.553673
 20
286.809954
 30
0.0
  0
LWPOLYLINE
  5
199
100
AcDbEntity
  8
Capa_1
 62
7
100
AcDbPolyline
 90
2
 70
0
 10
157.558911
 20
256.404038
 30
0.0
 10
168.513243
 20
264.500288
 30
0.0
  0
LWPOLYLINE
  5
19a
100
AcDbEntity
  8
Capa_1
 62
7
100
AcDbPolyline
 90
2
 70
0
 10
154.024819
 20
262.526496
 30
0.0
 10
166.513244
 20
267.963684
 30
0.0
  0
LWPOLYLINE
  5
19b
100
AcDbEntity
  8
Capa_1
 62
7
100
AcDbPolyline
 90
2
 70
0
 10
149.824982
 20
259.367371
 30
0.0
 10
151.129880
 20
260.608267
 30
0.0
  0
SPLINE
  5
19c
100
AcDbEntity
  8
Capa_1
 62
7
100
AcDbSpline
 70
0
 71
3
 72
13
 73
9
 74
7
 40
0.000000
 40
0.000000
 40
0.000000
 40
0.000000
 40
0.205642
 40
0.407294
 40
0.612936
 40
0.818577
 40
1.020230
 40
1.225871
 40
1.225871
 40
1.225871
 40
1.225871
 10
166.553674
 20
286.810192
 30
0.0
 10
166.516914
 20
286.869225
 30
0.0
 10
166.444108
 20
286.986145
 30
0.0
 10
166.257301
 20
287.087902
 30
0.0
 10
166.049097
 20
287.110988
 30
0.0
 10
165.849641
 20
287.046966
 30
0.0
 10
165.686796
 20
286.910097
 30
0.0
 10
165.638691
 20
286.781035
 30
0.0
 10
165.614403
 20
286.715872
 30
0.0
 11
166.553674
 21
286.810192
 31
0.0
 11
166.430311
 21
286.974721
 31
0.0
 11
166.255031
 21
287.074426
 31
0.0
 11
166.050565
 21
287.096375
 31
0.0
 11
165.854545
 21
287.034209
 31
0.0
 11
165.702589
 21
286.901645
 31
0.0
 11
165.614403
 21
286.715872
 31
0.0
  0
SPLINE
  5
19d
100
AcDbEntity
  8
Capa_1
 62
7
100
AcDbSpline
 70
0
 71
3
 72
10
 73
6
 74
4
 40
0.000000
 40
0.000000
 40
0.000000
 40
0.000000
 40
1.163548
 40
2.325141
 40
3.488689
 40
3.488689
 40
3.488689
 40
3.488689
 10
154.449930
 20
254.857072
 30
0.0
 10
154.818080
 20
254.980005
 30
0.0
 10
155.553761
 20
255.225665
 30
0.0
 10
156.599464
 20
255.746272
 30
0.0
 10
157.238914
 20
256.185224
 30
0.0
 10
157.558908
 20
256.404885
 30
0.0
 11
154.449930
 21
254.857072
 31
0.0
 11
155.544678
 21
255.251243
 31
0.0
 11
156.584530
 21
255.768936
 31
0.0
 11
157.558908
 21
256.404885
 31
0.0
  0
LWPOLYLINE
  5
19e
100
AcDbEntity
  8
Capa_1
 62
7
100
AcDbPolyline
 90
2
 70
0
 10
152.723836
 20
254.345580
 30
0.0
 10
154.449925
 20
254.856226
 30
0.0
  0
LWPOLYLINE
  5
19f
100
AcDbEntity
  8
Capa_1
 62
7
100
AcDbPolyline
 90
2
 70
0
 10
157.334333
 20
261.973517
 30
0.0
 10
151.531967
 20
258.623892
 30
0.0
  0
SPLINE
  5
1a0
100
AcDbEntity
  8
Capa_1
 62
7
100
AcDbSpline
 70
0
 71
3
 72
10
 73
6
 74
4
 40
0.000000
 40
0.000000
 40
0.000000
 40
0.000000
 40
1.163549
 40
2.325142
 40
3.488690
 40
3.488690
 40
3.488690
 40
3.488690
 10
154.024821
 20
262.526099
 30
0.0
 10
153.674592
 20
262.358807
 30
0.0
 10
152.974722
 20
262.024504
 30
0.0
 10
152.001012
 20
261.379202
 30
0.0
 10
151.420423
 20
260.864913
 30
0.0
 10
151.129884
 20
260.607553
 30
0.0
 11
154.024821
 21
262.526099
 31
0.0
 11
152.986883
 21
262.000238
 31
0.0
 11
152.018621
 21
261.358547
 31
0.0
 11
151.129884
 21
260.607553
 31
0.0
  0
LWPOLYLINE
  5
1a1
100
AcDbEntity
  8
Capa_1
 62
7
100
AcDbPolyline
 90
3
 70
0
 10
158.734322
 20
259.547288
 30
0.0
 10
152.931957
 20
256.197663
 30
0.0
 10
152.172524
 20
255.112871
 30
0.0
  0
SPLINE
  5
1a2
100
AcDbEntity
  8
Capa_1
 62
7
100
AcDbSpline
 70
0
 71
3
 72
13
 73
9
 74
7
 40
0.000000
 40
0.000000
 40
0.000000
 40
0.000000
 40
0.205632
 40
0.407275
 40
0.612907
 40
0.818539
 40
1.020183
 40
1.225815
 40
1.225815
 40
1.225815
 40
1.225815
 10
152.172520
 20
255.113136
 30
0.0
 10
152.139781
 20
255.051786
 30
0.0
 10
152.074937
 20
254.930277
 30
0.0
 10
152.080220
 20
254.717629
 30
0.0
 10
152.164326
 20
254.525786
 30
0.0
 10
152.319489
 20
254.385067
 30
0.0
 10
152.519432
 20
254.312471
 30
0.0
 10
152.655250
 20
254.335333
 30
0.0
 10
152.723824
 20
254.346876
 30
0.0
 11
152.172520
 21
255.113136
 31
0.0
 11
152.091727
 21
254.924041
 31
0.0
 11
152.093025
 21
254.722402
 31
0.0
 11
152.176246
 21
254.534362
 31
0.0
 11
152.328084
 21
254.395691
 31
0.0
 11
152.518855
 21
254.330373
 31
0.0
 11
152.723824
 21
254.346876
 31
0.0
  0
LWPOLYLINE
  5
1a3
100
AcDbEntity
  8
Capa_1
 62
7
100
AcDbPolyline
 90
2
 70
0
 10
151.531967
 20
258.623892
 30
0.0
 10
150.212940
 20
258.507476
 30
0.0
  0
LWPOLYLINE
  5
1a4
100
AcDbEntity
  8
Capa_1
 62
7
100
AcDbPolyline
 90
2
 70
0
 10
158.734322
 20
259.547288
 30
0.0
 10
157.334333
 20
261.973517
 30
0.0
  0
LWPOLYLINE
  5
1a5
100
AcDbEntity
  8
Capa_1
 62
7
100
AcDbPolyline
 90
2
 70
0
 10
183.001667
 20
262.526496
 30
0.0
 10
170.513242
 20
267.963684
 30
0.0
  0
LWPOLYLINE
  5
1a6
100
AcDbEntity
  8
Capa_1
 62
7
100
AcDbPolyline
 90
2
 70
0
 10
179.467575
 20
256.404038
 30
0.0
 10
168.513243
 20
264.500288
 30
0.0
  0
LWPOLYLINE
  5
1a7
100
AcDbEntity
  8
Capa_1
 62
7
100
AcDbPolyline
 90
2
 70
0
 10
184.302650
 20
254.345580
 30
0.0
 10
182.576561
 20
254.856226
 30
0.0
  0
SPLINE
  5
1a8
100
AcDbEntity
  8
Capa_1
 62
7
100
AcDbSpline
 70
0
 71
3
 72
13
 73
9
 74
7
 40
0.000000
 40
0.000000
 40
0.000000
 40
0.000000
 40
0.205641
 40
0.407292
 40
0.612933
 40
0.818574
 40
1.020226
 40
1.225866
 40
1.225866
 40
1.225866
 40
1.225866
 10
149.824984
 20
259.367795
 30
0.0
 10
149.780697
 20
259.314179
 30
0.0
 10
149.692981
 20
259.207986
 30
0.0
 10
149.655876
 20
258.998524
 30
0.0
 10
149.700163
 20
258.793780
 30
0.0
 10
149.824260
 20
258.625016
 30
0.0
 10
150.005789
 20
258.514119
 30
0.0
 10
150.143448
 20
258.509529
 30
0.0
 10
150.212951
 20
258.507211
 30
0.0
 11
149.824984
 21
259.367795
 31
0.0
 11
149.708197
 21
259.198535
 31
0.0
 11
149.669375
 21
259.000655
 31
0.0
 11
149.713551
 21
258.799816
 31
0.0
 11
149.834796
 21
258.633720
 31
0.0
 11
150.008783
 21
258.531779
 31
0.0
 11
150.212951
 21
258.507211
 31
0.0
  0
SPLINE
  5
1a9
100
AcDbEntity
  8
Capa_1
 62
7
100
AcDbSpline
 70
0
 71
3
 72
10
 73
6
 74
4
 40
0.000000
 40
0.000000
 40
0.000000
 40
0.000000
 40
1.163549
 40
2.325142
 40
3.488690
 40
3.488690
 40
3.488690
 40
3.488690
 10
185.896602
 20
260.607553
 30
0.0
 10
185.606063
 20
260.864913
 30
0.0
 10
185.025474
 20
261.379202
 30
0.0
 10
184.051764
 20
262.024504
 30
0.0
 10
183.351894
 20
262.358807
 30
0.0
 10
183.001665
 20
262.526099
 30
0.0
 11
185.896602
 21
260.607553
 31
0.0
 11
185.007865
 21
261.358547
 31
0.0
 11
184.039603
 21
262.000238
 31
0.0
 11
183.001665
 21
262.526099
 31
0.0
  0
LWPOLYLINE
  5
1aa
100
AcDbEntity
  8
Capa_1
 62
7
100
AcDbPolyline
 90
2
 70
0
 10
187.201504
 20
259.367371
 30
0.0
 10
185.896606
 20
260.608267
 30
0.0
  0
LWPOLYLINE
  5
1ab
100
AcDbEntity
  8
Capa_1
 62
7
100
AcDbPolyline
 90
2
 70
0
 10
178.292164
 20
259.547288
 30
0.0
 10
184.094529
 20
256.197663
 30
0.0
  0
SPLINE
  5
1ac
100
AcDbEntity
  8
Capa_1
 62
7
100
AcDbSpline
 70
0
 71
3
 72
10
 73
6
 74
4
 40
0.000000
 40
0.000000
 40
0.000000
 40
0.000000
 40
1.163548
 40
2.325141
 40
3.488689
 40
3.488689
 40
3.488689
 40
3.488689
 10
179.467578
 20
256.404885
 30
0.0
 10
179.787572
 20
256.185224
 30
0.0
 10
180.427022
 20
255.746272
 30
0.0
 10
181.472725
 20
255.225665
 30
0.0
 10
182.208406
 20
254.980005
 30
0.0
 10
182.576556
 20
254.857072
 30
0.0
 11
179.467578
 21
256.404885
 31
0.0
 11
180.441956
 21
255.768936
 31
0.0
 11
181.481808
 21
255.251243
 31
0.0
 11
182.576556
 21
254.857072
 31
0.0
  0
LWPOLYLINE
  5
1ad
100
AcDbEntity
  8
Capa_1
 62
7
100
AcDbPolyline
 90
3
 70
0
 10
179.692153
 20
261.973517
 30
0.0
 10
185.494519
 20
258.623892
 30
0.0
 10
186.813546
 20
258.507476
 30
0.0
  0
SPLINE
  5
1ae
100
AcDbEntity
  8
Capa_1
 62
7
100
AcDbSpline
 70
0
 71
3
 72
13
 73
9
 74
7
 40
0.000000
 40
0.000000
 40
0.000000
 40
0.000000
 40
0.205641
 40
0.407292
 40
0.612933
 40
0.818574
 40
1.020226
 40
1.225866
 40
1.225866
 40
1.225866
 40
1.225866
 10
186.813535
 20
258.507211
 30
0.0
 10
186.883038
 20
258.509529
 30
0.0
 10
187.020697
 20
258.514119
 30
0.0
 10
187.202226
 20
258.625016
 30
0.0
 10
187.326323
 20
258.793780
 30
0.0
 10
187.370610
 20
258.998524
 30
0.0
 10
187.333505
 20
259.207986
 30
0.0
 10
187.245789
 20
259.314179
 30
0.0
 10
187.201502
 20
259.367795
 30
0.0
 11
186.813535
 21
258.507211
 31
0.0
 11
187.017703
 21
258.531779
 31
0.0
 11
187.191690
 21
258.633720
 31
0.0
 11
187.312935
 21
258.799816
 31
0.0
 11
187.357111
 21
259.000655
 31
0.0
 11
187.318289
 21
259.198535
 31
0.0
 11
187.201502
 21
259.367795
 31
0.0
  0
LWPOLYLINE
  5
1af
100
AcDbEntity
  8
Capa_1
 62
7
100
AcDbPolyline
 90
2
 70
0
 10
184.094529
 20
256.197663
 30
0.0
 10
184.853962
 20
255.112871
 30
0.0
  0
LWPOLYLINE
  5
1b0
100
AcDbEntity
  8
Capa_1
 62
7
100
AcDbPolyline
 90
2
 70
0
 10
179.692153
 20
261.973517
 30
0.0
 10
178.292164
 20
259.547288
 30
0.0
  0
LWPOLYLINE
  5
1b1
100
AcDbEntity
  8
Capa_1
 62
7
100
AcDbPolyline
 90
4
 70
0
 10
99.213043
 20
196.272116
 30
0.0
 10
102.013043
 20
196.272116
 30
0.0
 10
102.013043
 20
202.974012
 30
0.0
 10
102.572613
 20
204.172574
 30
0.0
  0
SPLINE
  5
1b2
100
AcDbEntity
  8
Capa_1
 62
7
100
AcDbSpline
 70
0
 71
3
 72
13
 73
9
 74
7
 40
0.000000
 40
0.000000
 40
0.000000
 40
0.000000
 40
0.205632
 40
0.407275
 40
0.612907
 40
0.818539
 40
1.020183
 40
1.225815
 40
1.225815
 40
1.225815
 40
1.225815
 10
184.302662
 20
254.346876
 30
0.0
 10
184.371236
 20
254.335333
 30
0.0
 10
184.507054
 20
254.312471
 30
0.0
 10
184.706997
 20
254.385067
 30
0.0
 10
184.862160
 20
254.525786
 30
0.0
 10
184.946266
 20
254.717629
 30
0.0
 10
184.951549
 20
254.930277
 30
0.0
 10
184.886705
 20
255.051786
 30
0.0
 10
184.853966
 20
255.113136
 30
0.0
 11
184.302662
 21
254.346876
 31
0.0
 11
184.507631
 21
254.330373
 31
0.0
 11
184.698402
 21
254.395691
 31
0.0
 11
184.850240
 21
254.534362
 31
0.0
 11
184.933461
 21
254.722402
 31
0.0
 11
184.934759
 21
254.924041
 31
0.0
 11
184.853966
 21
255.113136
 31
0.0
  0
LWPOLYLINE
  5
1b3
100
AcDbEntity
  8
Capa_1
 62
7
100
AcDbPolyline
 90
2
 70
0
 10
103.511871
 20
204.077324
 30
0.0
 10
103.933088
 20
202.328429
 30
0.0
  0
SPLINE
  5
1b4
100
AcDbEntity
  8
Capa_1
 62
7
100
AcDbSpline
 70
0
 71
3
 72
13
 73
9
 74
7
 40
0.000000
 40
0.000000
 40
0.000000
 40
0.000000
 40
0.205642
 40
0.407294
 40
0.612936
 40
0.818577
 40
1.020230
 40
1.225871
 40
1.225871
 40
1.225871
 40
1.225871
 10
103.511883
 20
204.078488
 30
0.0
 10
103.487595
 20
204.143651
 30
0.0
 10
103.439490
 20
204.272713
 30
0.0
 10
103.276645
 20
204.409582
 30
0.0
 10
103.077189
 20
204.473604
 30
0.0
 10
102.868985
 20
204.450518
 30
0.0
 10
102.682178
 20
204.348761
 30
0.0
 10
102.609372
 20
204.231841
 30
0.0
 10
102.572612
 20
204.172808
 30
0.0
 11
103.511883
 21
204.078488
 31
0.0
 11
103.423697
 21
204.264261
 31
0.0
 11
103.271741
 21
204.396825
 31
0.0
 11
103.075721
 21
204.458991
 31
0.0
 11
102.871255
 21
204.437042
 31
0.0
 11
102.695975
 21
204.337337
 31
0.0
 11
102.572612
 21
204.172808
 31
0.0
  0
LWPOLYLINE
  5
1b5
100
AcDbEntity
  8
Capa_1
 62
7
100
AcDbPolyline
 90
2
 70
0
 10
104.147135
 20
198.862387
 30
0.0
 10
102.613042
 20
185.326304
 30
0.0
  0
SPLINE
  5
1b6
100
AcDbEntity
  8
Capa_1
 62
7
100
AcDbSpline
 70
0
 71
3
 72
10
 73
6
 74
4
 40
0.000000
 40
0.000000
 40
0.000000
 40
0.000000
 40
1.163557
 40
2.325158
 40
3.488715
 40
3.488715
 40
3.488715
 40
3.488715
 10
104.147130
 20
198.862175
 30
0.0
 10
104.177366
 20
199.249131
 30
0.0
 10
104.237787
 20
200.022393
 30
0.0
 10
104.165795
 20
201.188310
 30
0.0
 10
104.010701
 20
201.948264
 30
0.0
 10
103.933089
 20
202.328561
 30
0.0
 11
104.147130
 21
198.862175
 31
0.0
 11
104.210692
 21
200.023994
 31
0.0
 11
104.139102
 21
201.183387
 31
0.0
 11
103.933089
 21
202.328561
 31
0.0
  0
LWPOLYLINE
  5
1b7
100
AcDbEntity
  8
Capa_1
 62
7
100
AcDbPolyline
 90
2
 70
0
 10
97.078951
 20
198.862387
 30
0.0
 10
98.613044
 20
185.326304
 30
0.0
  0
LWPOLYLINE
  5
1b8
100
AcDbEntity
  8
Capa_1
 62
7
100
AcDbPolyline
 90
2
 70
0
 10
97.714215
 20
204.077324
 30
0.0
 10
97.292998
 20
202.328429
 30
0.0
  0
SPLINE
  5
1b9
100
AcDbEntity
  8
Capa_1
 62
7
100
AcDbSpline
 70
0
 71
3
 72
10
 73
6
 74
4
 40
0.000000
 40
0.000000
 40
0.000000
 40
0.000000
 40
1.163557
 40
2.325158
 40
3.488715
 40
3.488715
 40
3.488715
 40
3.488715
 10
97.292997
 20
202.328561
 30
0.0
 10
97.215385
 20
201.948264
 30
0.0
 10
97.060291
 20
201.188310
 30
0.0
 10
96.988299
 20
200.022393
 30
0.0
 10
97.048720
 20
199.249131
 30
0.0
 10
97.078956
 20
198.862175
 30
0.0
 11
97.292997
 21
202.328561
 31
0.0
 11
97.086984
 21
201.183387
 31
0.0
 11
97.015394
 21
200.023994
 31
0.0
 11
97.078956
 21
198.862175
 31
0.0
  0
LWPOLYLINE
  5
1ba
100
AcDbEntity
  8
Capa_1
 62
7
100
AcDbPolyline
 90
3
 70
0
 10
99.213043
 20
196.272116
 30
0.0
 10
99.213043
 20
202.974012
 30
0.0
 10
98.653473
 20
204.172574
 30
0.0
  0
LWPOLYLINE
  5
1bb
100
AcDbEntity
  8
Capa_1
 62
7
100
AcDbPolyline
 90
2
 70
0
 10
89.658711
 20
173.766658
 30
0.0
 10
100.613043
 20
181.862908
 30
0.0
  0
LWPOLYLINE
  5
1bc
100
AcDbEntity
  8
Capa_1
 62
7
100
AcDbPolyline
 90
2
 70
0
 10
86.124619
 20
179.889116
 30
0.0
 10
98.613044
 20
185.326304
 30
0.0
  0
LWPOLYLINE
  5
1bd
100
AcDbEntity
  8
Capa_1
 62
7
100
AcDbPolyline
 90
2
 70
0
 10
81.924782
 20
176.729991
 30
0.0
 10
83.229680
 20
177.970887
 30
0.0
  0
SPLINE
  5
1be
100
AcDbEntity
  8
Capa_1
 62
7
100
AcDbSpline
 70
0
 71
3
 72
13
 73
9
 74
7
 40
0.000000
 40
0.000000
 40
0.000000
 40
0.000000
 40
0.205642
 40
0.407294
 40
0.612936
 40
0.818577
 40
1.020230
 40
1.225871
 40
1.225871
 40
1.225871
 40
1.225871
 10
98.653474
 20
204.172812
 30
0.0
 10
98.616714
 20
204.231845
 30
0.0
 10
98.543908
 20
204.348765
 30
0.0
 10
98.357101
 20
204.450522
 30
0.0
 10
98.148897
 20
204.473608
 30
0.0
 10
97.949441
 20
204.409586
 30
0.0
 10
97.786596
 20
204.272717
 30
0.0
 10
97.738491
 20
204.143655
 30
0.0
 10
97.714203
 20
204.078492
 30
0.0
 11
98.653474
 21
204.172812
 31
0.0
 11
98.530111
 21
204.337341
 31
0.0
 11
98.354831
 21
204.437046
 31
0.0
 11
98.150365
 21
204.458995
 31
0.0
 11
97.954345
 21
204.396829
 31
0.0
 11
97.802389
 21
204.264265
 31
0.0
 11
97.714203
 21
204.078492
 31
0.0
  0
SPLINE
  5
1bf
100
AcDbEntity
  8
Capa_1
 62
7
100
AcDbSpline
 70
0
 71
3
 72
10
 73
6
 74
4
 40
0.000000
 40
0.000000
 40
0.000000
 40
0.000000
 40
1.163548
 40
2.325141
 40
3.488689
 40
3.488689
 40
3.488689
 40
3.488689
 10
86.549730
 20
172.219692
 30
0.0
 10
86.917880
 20
172.342625
 30
0.0
 10
87.653561
 20
172.588285
 30
0.0
 10
88.699264
 20
173.108892
 30
0.0
 10
89.338714
 20
173.547844
 30
0.0
 10
89.658708
 20
173.767505
 30
0.0
 11
86.549730
 21
172.219692
 31
0.0
 11
87.644478
 21
172.613863
 31
0.0
 11
88.684330
 21
173.131556
 31
0.0
 11
89.658708
 21
173.767505
 31
0.0
  0
LWPOLYLINE
  5
1c0
100
AcDbEntity
  8
Capa_1
 62
7
100
AcDbPolyline
 90
2
 70
0
 10
84.823636
 20
171.708200
 30
0.0
 10
86.549725
 20
172.218846
 30
0.0
  0
LWPOLYLINE
  5
1c1
100
AcDbEntity
  8
Capa_1
 62
7
100
AcDbPolyline
 90
2
 70
0
 10
89.434133
 20
179.336137
 30
0.0
 10
83.631767
 20
175.986512
 30
0.0
  0
SPLINE
  5
1c2
100
AcDbEntity
  8
Capa_1
 62
7
100
AcDbSpline
 70
0
 71
3
 72
10
 73
6
 74
4
 40
0.000000
 40
0.000000
 40
0.000000
 40
0.000000
 40
1.163549
 40
2.325142
 40
3.488690
 40
3.488690
 40
3.488690
 40
3.488690
 10
86.124621
 20
179.888719
 30
0.0
 10
85.774392
 20
179.721427
 30
0.0
 10
85.074522
 20
179.387124
 30
0.0
 10
84.100812
 20
178.741822
 30
0.0
 10
83.520223
 20
178.227533
 30
0.0
 10
83.229684
 20
177.970173
 30
0.0
 11
86.124621
 21
179.888719
 31
0.0
 11
85.086683
 21
179.362858
 31
0.0
 11
84.118421
 21
178.721167
 31
0.0
 11
83.229684
 21
177.970173
 31
0.0
  0
LWPOLYLINE
  5
1c3
100
AcDbEntity
  8
Capa_1
 62
7
100
AcDbPolyline
 90
3
 70
0
 10
90.834122
 20
176.909908
 30
0.0
 10
85.031757
 20
173.560283
 30
0.0
 10
84.272324
 20
172.475491
 30
0.0
  0
SPLINE
  5
1c4
100
AcDbEntity
  8
Capa_1
 62
7
100
AcDbSpline
 70
0
 71
3
 72
13
 73
9
 74
7
 40
0.000000
 40
0.000000
 40
0.000000
 40
0.000000
 40
0.205632
 40
0.407275
 40
0.612907
 40
0.818539
 40
1.020183
 40
1.225815
 40
1.225815
 40
1.225815
 40
1.225815
 10
84.272320
 20
172.475756
 30
0.0
 10
84.239581
 20
172.414406
 30
0.0
 10
84.174737
 20
172.292897
 30
0.0
 10
84.180020
 20
172.080249
 30
0.0
 10
84.264126
 20
171.888406
 30
0.0
 10
84.419289
 20
171.747687
 30
0.0
 10
84.619232
 20
171.675091
 30
0.0
 10
84.755050
 20
171.697953
 30
0.0
 10
84.823624
 20
171.709496
 30
0.0
 11
84.272320
 21
172.475756
 31
0.0
 11
84.191527
 21
172.286661
 31
0.0
 11
84.192825
 21
172.085022
 31
0.0
 11
84.276046
 21
171.896982
 31
0.0
 11
84.427884
 21
171.758311
 31
0.0
 11
84.618655
 21
171.692993
 31
0.0
 11
84.823624
 21
171.709496
 31
0.0
  0
LWPOLYLINE
  5
1c5
100
AcDbEntity
  8
Capa_1
 62
7
100
AcDbPolyline
 90
2
 70
0
 10
83.631767
 20
175.986512
 30
0.0
 10
82.312740
 20
175.870096
 30
0.0
  0
LWPOLYLINE
  5
1c6
100
AcDbEntity
  8
Capa_1
 62
7
100
AcDbPolyline
 90
2
 70
0
 10
90.834122
 20
176.909908
 30
0.0
 10
89.434133
 20
179.336137
 30
0.0
  0
LWPOLYLINE
  5
1c7
100
AcDbEntity
  8
Capa_1
 62
7
100
AcDbPolyline
 90
2
 70
0
 10
115.101467
 20
179.889116
 30
0.0
 10
102.613042
 20
185.326304
 30
0.0
  0
LWPOLYLINE
  5
1c8
100
AcDbEntity
  8
Capa_1
 62
7
100
AcDbPolyline
 90
2
 70
0
 10
111.567375
 20
173.766658
 30
0.0
 10
100.613043
 20
181.862908
 30
0.0
  0
LWPOLYLINE
  5
1c9
100
AcDbEntity
  8
Capa_1
 62
7
100
AcDbPolyline
 90
2
 70
0
 10
116.402450
 20
171.708200
 30
0.0
 10
114.676361
 20
172.218846
 30
0.0
  0
SPLINE
  5
1ca
100
AcDbEntity
  8
Capa_1
 62
7
100
AcDbSpline
 70
0
 71
3
 72
13
 73
9
 74
7
 40
0.000000
 40
0.000000
 40
0.000000
 40
0.000000
 40
0.205641
 40
0.407292
 40
0.612933
 40
0.818574
 40
1.020226
 40
1.225866
 40
1.225866
 40
1.225866
 40
1.225866
 10
81.924784
 20
176.730415
 30
0.0
 10
81.880497
 20
176.676799
 30
0.0
 10
81.792781
 20
176.570606
 30
0.0
 10
81.755676
 20
176.361144
 30
0.0
 10
81.799963
 20
176.156400
 30
0.0
 10
81.924060
 20
175.987636
 30
0.0
 10
82.105589
 20
175.876739
 30
0.0
 10
82.243248
 20
175.872149
 30
0.0
 10
82.312751
 20
175.869831
 30
0.0
 11
81.924784
 21
176.730415
 31
0.0
 11
81.807997
 21
176.561155
 31
0.0
 11
81.769175
 21
176.363275
 31
0.0
 11
81.813351
 21
176.162436
 31
0.0
 11
81.934596
 21
175.996340
 31
0.0
 11
82.108583
 21
175.894399
 31
0.0
 11
82.312751
 21
175.869831
 31
0.0
  0
SPLINE
  5
1cb
100
AcDbEntity
  8
Capa_1
 62
7
100
AcDbSpline
 70
0
 71
3
 72
10
 73
6
 74
4
 40
0.000000
 40
0.000000
 40
0.000000
 40
0.000000
 40
1.163549
 40
2.325142
 40
3.488690
 40
3.488690
 40
3.488690
 40
3.488690
 10
117.996402
 20
177.970173
 30
0.0
 10
117.705863
 20
178.227533
 30
0.0
 10
117.125274
 20
178.741822
 30
0.0
 10
116.151564
 20
179.387124
 30
0.0
 10
115.451694
 20
179.721427
 30
0.0
 10
115.101465
 20
179.888719
 30
0.0
 11
117.996402
 21
177.970173
 31
0.0
 11
117.107665
 21
178.721167
 31
0.0
 11
116.139403
 21
179.362858
 31
0.0
 11
115.101465
 21
179.888719
 31
0.0
  0
LWPOLYLINE
  5
1cc
100
AcDbEntity
  8
Capa_1
 62
7
100
AcDbPolyline
 90
2
 70
0
 10
119.301304
 20
176.729991
 30
0.0
 10
117.996406
 20
177.970887
 30
0.0
  0
LWPOLYLINE
  5
1cd
100
AcDbEntity
  8
Capa_1
 62
7
100
AcDbPolyline
 90
2
 70
0
 10
110.391964
 20
176.909908
 30
0.0
 10
116.194329
 20
173.560283
 30
0.0
  0
SPLINE
  5
1ce
100
AcDbEntity
  8
Capa_1
 62
7
100
AcDbSpline
 70
0
 71
3
 72
10
 73
6
 74
4
 40
0.000000
 40
0.000000
 40
0.000000
 40
0.000000
 40
1.163548
 40
2.325141
 40
3.488689
 40
3.488689
 40
3.488689
 40
3.488689
 10
111.567378
 20
173.767505
 30
0.0
 10
111.887372
 20
173.547844
 30
0.0
 10
112.526822
 20
173.108892
 30
0.0
 10
113.572525
 20
172.588285
 30
0.0
 10
114.308206
 20
172.342625
 30
0.0
 10
114.676356
 20
172.219692
 30
0.0
 11
111.567378
 21
173.767505
 31
0.0
 11
112.541756
 21
173.131556
 31
0.0
 11
113.581608
 21
172.613863
 31
0.0
 11
114.676356
 21
172.219692
 31
0.0
  0
LWPOLYLINE
  5
1cf
100
AcDbEntity
  8
Capa_1
 62
7
100
AcDbPolyline
 90
3
 70
0
 10
111.791953
 20
179.336137
 30
0.0
 10
117.594319
 20
175.986512
 30
0.0
 10
118.913346
 20
175.870096
 30
0.0
  0
SPLINE
  5
1d0
100
AcDbEntity
  8
Capa_1
 62
7
100
AcDbSpline
 70
0
 71
3
 72
13
 73
9
 74
7
 40
0.000000
 40
0.000000
 40
0.000000
 40
0.000000
 40
0.205641
 40
0.407292
 40
0.612933
 40
0.818574
 40
1.020226
 40
1.225866
 40
1.225866
 40
1.225866
 40
1.225866
 10
118.913335
 20
175.869831
 30
0.0
 10
118.982838
 20
175.872149
 30
0.0
 10
119.120497
 20
175.876739
 30
0.0
 10
119.302026
 20
175.987636
 30
0.0
 10
119.426123
 20
176.156400
 30
0.0
 10
119.470410
 20
176.361144
 30
0.0
 10
119.433305
 20
176.570606
 30
0.0
 10
119.345589
 20
176.676799
 30
0.0
 10
119.301302
 20
176.730415
 30
0.0
 11
118.913335
 21
175.869831
 31
0.0
 11
119.117503
 21
175.894399
 31
0.0
 11
119.291490
 21
175.996340
 31
0.0
 11
119.412735
 21
176.162436
 31
0.0
 11
119.456911
 21
176.363275
 31
0.0
 11
119.418089
 21
176.561155
 31
0.0
 11
119.301302
 21
176.730415
 31
0.0
  0
LWPOLYLINE
  5
1d1
100
AcDbEntity
  8
Capa_1
 62
7
100
AcDbPolyline
 90
2
 70
0
 10
116.194329
 20
173.560283
 30
0.0
 10
116.953762
 20
172.475491
 30
0.0
  0
LWPOLYLINE
  5
1d2
100
AcDbEntity
  8
Capa_1
 62
7
100
AcDbPolyline
 90
2
 70
0
 10
111.791953
 20
179.336137
 30
0.0
 10
110.391964
 20
176.909908
 30
0.0
  0
LWPOLYLINE
  5
1d3
100
AcDbEntity
  8
Capa_1
 62
7
100
AcDbPolyline
 90
4
 70
0
 10
199.327711
 20
284.130851
 30
0.0
 10
201.714335
 20
282.666602
 30
0.0
 10
205.219065
 20
288.379070
 30
0.0
 10
206.322807
 20
289.108059
 30
0.0
  0
SPLINE
  5
1d4
100
AcDbEntity
  8
Capa_1
 62
7
100
AcDbSpline
 70
0
 71
3
 72
13
 73
9
 74
7
 40
0.000000
 40
0.000000
 40
0.000000
 40
0.000000
 40
0.205632
 40
0.407275
 40
0.612907
 40
0.818539
 40
1.020183
 40
1.225815
 40
1.225815
 40
1.225815
 40
1.225815
 10
116.402462
 20
171.709496
 30
0.0
 10
116.471036
 20
171.697953
 30
0.0
 10
116.606854
 20
171.675091
 30
0.0
 10
116.806797
 20
171.747687
 30
0.0
 10
116.961960
 20
171.888406
 30
0.0
 10
117.046066
 20
172.080249
 30
0.0
 10
117.051349
 20
172.292897
 30
0.0
 10
116.986505
 20
172.414406
 30
0.0
 10
116.953766
 20
172.475756
 30
0.0
 11
116.402462
 21
171.709496
 31
0.0
 11
116.607431
 21
171.692993
 31
0.0
 11
116.798202
 21
171.758311
 31
0.0
 11
116.950040
 21
171.896982
 31
0.0
 11
117.033261
 21
172.085022
 31
0.0
 11
117.034559
 21
172.286661
 31
0.0
 11
116.953766
 21
172.475756
 31
0.0
  0
LWPOLYLINE
  5
1d5
100
AcDbEntity
  8
Capa_1
 62
7
100
AcDbPolyline
 90
2
 70
0
 10
207.073588
 20
288.535690
 30
0.0
 10
206.518041
 20
286.824717
 30
0.0
  0
SPLINE
  5
1d6
100
AcDbEntity
  8
Capa_1
 62
7
100
AcDbSpline
 70
0
 71
3
 72
13
 73
9
 74
7
 40
0.000000
 40
0.000000
 40
0.000000
 40
0.000000
 40
0.205642
 40
0.407294
 40
0.612936
 40
0.818577
 40
1.020230
 40
1.225871
 40
1.225871
 40
1.225871
 40
1.225871
 10
207.074207
 20
288.536675
 30
0.0
 10
207.087581
 20
288.604919
 30
0.0
 10
207.114070
 20
288.740084
 30
0.0
 10
207.046842
 20
288.941905
 30
0.0
 10
206.910312
 20
289.100780
 30
0.0
 10
206.720774
 20
289.189982
 30
0.0
 10
206.508332
 20
289.200937
 30
0.0
 10
206.385132
 20
289.139353
 30
0.0
 10
206.322928
 20
289.108259
 30
0.0
 11
207.074207
 21
288.536675
 31
0.0
 11
207.096189
 21
288.741139
 31
0.0
 11
207.035991
 21
288.933596
 31
0.0
 11
206.901420
 21
289.089093
 31
0.0
 11
206.715661
 21
289.177308
 31
0.0
 11
206.514119
 21
289.183986
 31
0.0
 11
206.322928
 21
289.108259
 31
0.0
  0
LWPOLYLINE
  5
1d7
100
AcDbEntity
  8
Capa_1
 62
7
100
AcDbPolyline
 90
2
 70
0
 10
204.887935
 20
283.758446
 30
0.0
 10
196.501686
 20
273.022997
 30
0.0
  0
SPLINE
  5
1d8
100
AcDbEntity
  8
Capa_1
 62
7
100
AcDbSpline
 70
0
 71
3
 72
10
 73
6
 74
4
 40
0.000000
 40
0.000000
 40
0.000000
 40
0.000000
 40
1.163557
 40
2.325158
 40
3.488715
 40
3.488715
 40
3.488715
 40
3.488715
 10
204.887820
 20
283.758268
 30
0.0
 10
205.115949
 20
284.072284
 30
0.0
 10
205.571824
 20
284.699789
 30
0.0
 10
206.120172
 20
285.731226
 30
0.0
 10
206.385390
 20
286.460090
 30
0.0
 10
206.518111
 20
286.824829
 30
0.0
 11
204.887820
 21
283.758268
 31
0.0
 11
205.549566
 21
284.715324
 31
0.0
 11
206.094846
 21
285.740988
 31
0.0
 11
206.518111
 21
286.824829
 31
0.0
  0
LWPOLYLINE
  5
1d9
100
AcDbEntity
  8
Capa_1
 62
7
100
AcDbPolyline
 90
2
 70
0
 10
198.863255
 20
287.454724
 30
0.0
 10
193.092223
 20
275.114780
 30
0.0
  0
LWPOLYLINE
  5
1da
100
AcDbEntity
  8
Capa_1
 62
7
100
AcDbPolyline
 90
2
 70
0
 10
202.131863
 20
291.567551
 30
0.0
 10
200.858254
 20
290.297126
 30
0.0
  0
SPLINE
  5
1db
100
AcDbEntity
  8
Capa_1
 62
7
100
AcDbSpline
 70
0
 71
3
 72
10
 73
6
 74
4
 40
0.000000
 40
0.000000
 40
0.000000
 40
0.000000
 40
1.163557
 40
2.325158
 40
3.488715
 40
3.488715
 40
3.488715
 40
3.488715
 10
200.858322
 20
290.297239
 30
0.0
 10
200.593294
 20
290.013674
 30
0.0
 10
200.063682
 20
289.447020
 30
0.0
 10
199.392606
 20
288.490880
 30
0.0
 10
199.039733
 20
287.800181
 30
0.0
 10
198.863148
 20
287.454541
 30
0.0
 11
200.858322
 21
290.297239
 31
0.0
 11
200.083860
 21
289.428865
 31
0.0
 11
199.416539
 21
288.478076
 31
0.0
 11
198.863148
 21
287.454541
 31
0.0
  0
LWPOLYLINE
  5
1dc
100
AcDbEntity
  8
Capa_1
 62
7
100
AcDbPolyline
 90
3
 70
0
 10
199.327711
 20
284.130851
 30
0.0
 10
202.832440
 20
289.843319
 30
0.0
 10
202.982265
 20
291.157557
 30
0.0
  0
LWPOLYLINE
  5
1dd
100
AcDbEntity
  8
Capa_1
 62
7
100
AcDbPolyline
 90
2
 70
0
 10
179.414784
 20
269.944363
 30
0.0
 10
192.985785
 20
271.116807
 30
0.0
  0
LWPOLYLINE
  5
1de
100
AcDbEntity
  8
Capa_1
 62
7
100
AcDbPolyline
 90
2
 70
0
 10
179.604159
 20
277.011077
 30
0.0
 10
193.092223
 20
275.114780
 30
0.0
  0
LWPOLYLINE
  5
1df
100
AcDbEntity
  8
Capa_1
 62
7
100
AcDbPolyline
 90
2
 70
0
 10
174.372309
 20
276.514635
 30
0.0
 10
176.133481
 20
276.889941
 30
0.0
  0
SPLINE
  5
1e0
100
AcDbEntity
  8
Capa_1
 62
7
100
AcDbSpline
 70
0
 71
3
 72
13
 73
9
 74
7
 40
0.000000
 40
0.000000
 40
0.000000
 40
0.000000
 40
0.205642
 40
0.407294
 40
0.612936
 40
0.818577
 40
1.020230
 40
1.225871
 40
1.225871
 40
1.225871
 40
1.225871
 10
202.982390
 20
291.157760
 30
0.0
 10
202.981929
 20
291.227300
 30
0.0
 10
202.981014
 20
291.365033
 30
0.0
 10
202.875000
 20
291.549458
 30
0.0
 10
202.709606
 20
291.678014
 30
0.0
 10
202.506117
 20
291.727749
 30
0.0
 10
202.295738
 20
291.696245
 30
0.0
 10
202.187243
 20
291.611394
 30
0.0
 10
202.132464
 20
291.568552
 30
0.0
 11
202.982390
 21
291.157760
 31
0.0
 11
202.963280
 21
291.362511
 31
0.0
 11
202.866018
 21
291.539157
 31
0.0
 11
202.703216
 21
291.664791
 31
0.0
 11
202.503625
 21
291.714311
 31
0.0
 11
202.304780
 21
291.680782
 31
0.0
 11
202.132464
 21
291.568552
 31
0.0
  0
SPLINE
  5
1e1
100
AcDbEntity
  8
Capa_1
 62
7
100
AcDbSpline
 70
0
 71
3
 72
10
 73
6
 74
4
 40
0.000000
 40
0.000000
 40
0.000000
 40
0.000000
 40
1.163548
 40
2.325141
 40
3.488689
 40
3.488689
 40
3.488689
 40
3.488689
 10
175.955814
 20
270.251611
 30
0.0
 10
176.333900
 20
270.163873
 30
0.0
 10
177.089437
 20
269.988544
 30
0.0
 10
178.253008
 20
269.885444
 30
0.0
 10
179.027601
 20
269.925195
 30
0.0
 10
179.415224
 20
269.945087
 30
0.0
 11
175.955814
 21
270.251611
 31
0.0
 11
177.095071
 21
270.015095
 31
0.0
 11
178.252130
 21
269.912572
 31
0.0
 11
179.415224
 21
269.945087
 31
0.0
  0
LWPOLYLINE
  5
1e2
100
AcDbEntity
  8
Capa_1
 62
7
100
AcDbPolyline
 90
2
 70
0
 10
174.217068
 20
270.718287
 30
0.0
 10
175.955368
 20
270.250892
 30
0.0
  0
LWPOLYLINE
  5
1e3
100
AcDbEntity
  8
Capa_1
 62
7
100
AcDbPolyline
 90
2
 70
0
 10
182.135898
 20
274.809040
 30
0.0
 10
175.438485
 20
274.988257
 30
0.0
  0
SPLINE
  5
1e4
100
AcDbEntity
  8
Capa_1
 62
7
100
AcDbSpline
 70
0
 71
3
 72
10
 73
6
 74
4
 40
0.000000
 40
0.000000
 40
0.000000
 40
0.000000
 40
1.163549
 40
2.325142
 40
3.488691
 40
3.488691
 40
3.488691
 40
3.488691
 10
179.603953
 20
277.010738
 30
0.0
 10
179.217945
 20
277.051295
 30
0.0
 10
178.446577
 20
277.132340
 30
0.0
 10
177.279161
 20
277.091504
 30
0.0
 10
176.515342
 20
276.956759
 30
0.0
 10
176.133111
 20
276.889330
 30
0.0
 11
179.603953
 21
277.010738
 31
0.0
 11
178.444253
 21
277.105297
 31
0.0
 11
177.283370
 21
277.064690
 31
0.0
 11
176.133111
 21
276.889330
 31
0.0
  0
LWPOLYLINE
  5
1e5
100
AcDbEntity
  8
Capa_1
 62
7
100
AcDbPolyline
 90
3
 70
0
 10
182.060414
 20
272.008886
 30
0.0
 10
175.363002
 20
272.188103
 30
0.0
 10
174.148400
 20
271.660606
 30
0.0
  0
SPLINE
  5
1e6
100
AcDbEntity
  8
Capa_1
 62
7
100
AcDbSpline
 70
0
 71
3
 72
13
 73
9
 74
7
 40
0.000000
 40
0.000000
 40
0.000000
 40
0.000000
 40
0.205632
 40
0.407276
 40
0.612908
 40
0.818540
 40
1.020183
 40
1.225815
 40
1.225815
 40
1.225815
 40
1.225815
 10
174.148535
 20
271.660834
 30
0.0
 10
174.088547
 20
271.625662
 30
0.0
 10
173.969733
 20
271.556002
 30
0.0
 10
173.863033
 20
271.371985
 30
0.0
 10
173.834399
 20
271.164482
 30
0.0
 10
173.893066
 20
270.963396
 30
0.0
 10
174.025526
 20
270.796958
 30
0.0
 10
174.153249
 20
270.745419
 30
0.0
 10
174.217735
 20
270.719397
 30
0.0
 11
174.148535
 21
271.660834
 31
0.0
 11
173.980783
 21
271.541906
 31
0.0
 11
173.876443
 21
271.369357
 31
0.0
 11
173.849044
 21
271.165558
 31
0.0
 11
173.905948
 21
270.967957
 31
0.0
 11
174.034397
 21
270.812518
 31
0.0
 11
174.217735
 21
270.719397
 31
0.0
  0
LWPOLYLINE
  5
1e7
100
AcDbEntity
  8
Capa_1
 62
7
100
AcDbPolyline
 90
2
 70
0
 10
175.438485
 20
274.988257
 30
0.0
 10
174.253312
 20
275.578808
 30
0.0
  0
LWPOLYLINE
  5
1e8
100
AcDbEntity
  8
Capa_1
 62
7
100
AcDbPolyline
 90
2
 70
0
 10
182.060414
 20
272.008886
 30
0.0
 10
182.135898
 20
274.809040
 30
0.0
  0
LWPOLYLINE
  5
1e9
100
AcDbEntity
  8
Capa_1
 62
7
100
AcDbPolyline
 90
2
 70
0
 10
204.303039
 20
261.857751
 30
0.0
 10
196.501686
 20
273.022997
 30
0.0
  0
LWPOLYLINE
  5
1ea
100
AcDbEntity
  8
Capa_1
 62
7
100
AcDbPolyline
 90
2
 70
0
 10
198.088984
 20
258.487315
 30
0.0
 10
192.985785
 20
271.116807
 30
0.0
  0
LWPOLYLINE
  5
1eb
100
AcDbEntity
  8
Capa_1
 62
7
100
AcDbPolyline
 90
2
 70
0
 10
201.133775
 20
254.204272
 30
0.0
 10
199.929556
 20
255.542181
 30
0.0
  0
SPLINE
  5
1ec
100
AcDbEntity
  8
Capa_1
 62
7
100
AcDbSpline
 70
0
 71
3
 72
13
 73
9
 74
7
 40
0.000000
 40
0.000000
 40
0.000000
 40
0.000000
 40
0.205641
 40
0.407293
 40
0.612933
 40
0.818574
 40
1.020226
 40
1.225866
 40
1.225866
 40
1.225866
 40
1.225866
 10
174.372532
 20
276.514995
 30
0.0
 10
174.306745
 20
276.492454
 30
0.0
 10
174.176446
 20
276.447809
 30
0.0
 10
174.035281
 20
276.288675
 30
0.0
 10
173.965961
 20
276.090999
 30
0.0
 10
173.983482
 20
275.882254
 30
0.0
 10
174.080218
 20
275.692799
 30
0.0
 10
174.195153
 20
275.616898
 30
0.0
 10
174.253183
 20
275.578577
 30
0.0
 11
174.372532
 21
276.514995
 31
0.0
 11
174.184473
 21
276.431796
 31
0.0
 11
174.047902
 21
276.283433
 31
0.0
 11
173.980528
 21
276.089142
 31
0.0
 11
173.997014
 21
275.884163
 31
0.0
 11
174.092005
 21
275.706286
 31
0.0
 11
174.253183
 21
275.578577
 31
0.0
  0
SPLINE
  5
1ed
100
AcDbEntity
  8
Capa_1
 62
7
100
AcDbSpline
 70
0
 71
3
 72
10
 73
6
 74
4
 40
0.000000
 40
0.000000
 40
0.000000
 40
0.000000
 40
1.163549
 40
2.325142
 40
3.488691
 40
3.488691
 40
3.488691
 40
3.488691
 10
205.767079
 20
258.708214
 30
0.0
 10
205.654020
 20
259.079515
 30
0.0
 10
205.428090
 20
259.821494
 30
0.0
 10
204.935590
 20
260.880726
 30
0.0
 10
204.513868
 20
261.531668
 30
0.0
 10
204.302829
 20
261.857413
 30
0.0
 11
205.767079
 21
258.708214
 31
0.0
 11
205.402279
 21
259.813097
 31
0.0
 11
204.912536
 21
260.866401
 31
0.0
 11
204.302829
 21
261.857413
 31
0.0
  0
LWPOLYLINE
  5
1ee
100
AcDbEntity
  8
Capa_1
 62
7
100
AcDbPolyline
 90
2
 70
0
 10
206.230785
 20
256.968732
 30
0.0
 10
205.767456
 20
258.708821
 30
0.0
  0
LWPOLYLINE
  5
1ef
100
AcDbEntity
  8
Capa_1
 62
7
100
AcDbPolyline
 90
2
 70
0
 10
198.730854
 20
261.781191
 30
0.0
 10
201.924919
 20
255.891761
 30
0.0
  0
SPLINE
  5
1f0
100
AcDbEntity
  8
Capa_1
 62
7
100
AcDbSpline
 70
0
 71
3
 72
10
 73
6
 74
4
 40
0.000000
 40
0.000000
 40
0.000000
 40
0.000000
 40
1.163548
 40
2.325141
 40
3.488689
 40
3.488689
 40
3.488689
 40
3.488689
 10
198.089429
 20
258.488035
 30
0.0
 10
198.247311
 20
258.133464
 30
0.0
 10
198.562807
 20
257.424918
 30
0.0
 10
199.181881
 20
256.434325
 30
0.0
 10
199.680483
 20
255.840211
 30
0.0
 10
199.929994
 20
255.542904
 30
0.0
 11
198.089429
 21
258.488035
 31
0.0
 11
198.587389
 21
257.436427
 31
0.0
 11
199.202998
 21
256.451377
 31
0.0
 11
199.929994
 21
255.542904
 31
0.0
  0
LWPOLYLINE
  5
1f1
100
AcDbEntity
  8
Capa_1
 62
7
100
AcDbPolyline
 90
3
 70
0
 10
201.192943
 20
263.117107
 30
0.0
 10
204.387010
 20
257.227677
 30
0.0
 10
205.450424
 20
256.438668
 30
0.0
  0
SPLINE
  5
1f2
100
AcDbEntity
  8
Capa_1
 62
7
100
AcDbSpline
 70
0
 71
3
 72
13
 73
9
 74
7
 40
0.000000
 40
0.000000
 40
0.000000
 40
0.000000
 40
0.205641
 40
0.407293
 40
0.612933
 40
0.818574
 40
1.020226
 40
1.225866
 40
1.225866
 40
1.225866
 40
1.225866
 10
205.450276
 20
256.438448
 30
0.0
 10
205.510731
 20
256.404077
 30
0.0
 10
205.630466
 20
256.336001
 30
0.0
 10
205.843189
 20
256.335596
 30
0.0
 10
206.037219
 20
256.414549
 30
0.0
 10
206.182038
 20
256.565906
 30
0.0
 10
206.259948
 20
256.763848
 30
0.0
 10
206.240716
 20
256.900234
 30
0.0
 10
206.231005
 20
256.969094
 30
0.0
 11
205.450276
 21
256.438448
 31
0.0
 11
205.637150
 21
256.352620
 31
0.0
 11
205.838760
 21
256.348525
 31
0.0
 11
206.028964
 21
256.426695
 31
0.0
 11
206.171647
 21
256.574782
 31
0.0
 11
206.242036
 21
256.763750
 31
0.0
 11
206.231005
 21
256.969094
 31
0.0
  0
LWPOLYLINE
  5
1f3
100
AcDbEntity
  8
Capa_1
 62
7
100
AcDbPolyline
 90
2
 70
0
 10
201.924919
 20
255.891761
 30
0.0
 10
202.004947
 20
254.569978
 30
0.0
  0
LWPOLYLINE
  5
1f4
100
AcDbEntity
  8
Capa_1
 62
7
100
AcDbPolyline
 90
2
 70
0
 10
201.192943
 20
263.117107
 30
0.0
 10
198.730854
 20
261.781191
 30
0.0
  0
LWPOLYLINE
  5
1f5
100
AcDbEntity
  8
Capa_1
 62
7
100
AcDbPolyline
 90
4
 70
0
 10
197.291711
 20
174.397651
 30
0.0
 10
199.678335
 20
172.933402
 30
0.0
 10
203.183065
 20
178.645870
 30
0.0
 10
204.286807
 20
179.374859
 30
0.0
  0
SPLINE
  5
1f6
100
AcDbEntity
  8
Capa_1
 62
7
100
AcDbSpline
 70
0
 71
3
 72
13
 73
9
 74
7
 40
0.000000
 40
0.000000
 40
0.000000
 40
0.000000
 40
0.205632
 40
0.407276
 40
0.612908
 40
0.818540
 40
1.020183
 40
1.225815
 40
1.225815
 40
1.225815
 40
1.225815
 10
201.134463
 20
254.205370
 30
0.0
 10
201.186877
 20
254.159671
 30
0.0
 10
201.290689
 20
254.069159
 30
0.0
 10
201.499076
 20
254.026478
 30
0.0
 10
201.704920
 20
254.065280
 30
0.0
 10
201.876933
 20
254.184817
 30
0.0
 10
201.992640
 20
254.363309
 30
0.0
 10
202.000912
 20
254.500789
 30
0.0
 10
202.005088
 20
254.570202
 30
0.0
 11
201.134463
 21
254.205370
 31
0.0
 11
201.300541
 21
254.084116
 31
0.0
 11
201.497306
 21
254.040029
 31
0.0
 11
201.699245
 21
254.078824
 31
0.0
 11
201.868514
 21
254.195582
 31
0.0
 11
201.975067
 21
254.366773
 31
0.0
 11
202.005088
 21
254.570202
 31
0.0
  0
LWPOLYLINE
  5
1f7
100
AcDbEntity
  8
Capa_1
 62
7
100
AcDbPolyline
 90
2
 70
0
 10
205.037588
 20
178.802490
 30
0.0
 10
204.482041
 20
177.091517
 30
0.0
  0
SPLINE
  5
1f8
100
AcDbEntity
  8
Capa_1
 62
7
100
AcDbSpline
 70
0
 71
3
 72
13
 73
9
 74
7
 40
0.000000
 40
0.000000
 40
0.000000
 40
0.000000
 40
0.205642
 40
0.407294
 40
0.612936
 40
0.818577
 40
1.020230
 40
1.225871
 40
1.225871
 40
1.225871
 40
1.225871
 10
205.038207
 20
178.803475
 30
0.0
 10
205.051581
 20
178.871719
 30
0.0
 10
205.078070
 20
179.006884
 30
0.0
 10
205.010842
 20
179.208705
 30
0.0
 10
204.874312
 20
179.367580
 30
0.0
 10
204.684774
 20
179.456782
 30
0.0
 10
204.472332
 20
179.467737
 30
0.0
 10
204.349132
 20
179.406153
 30
0.0
 10
204.286928
 20
179.375059
 30
0.0
 11
205.038207
 21
178.803475
 31
0.0
 11
205.060189
 21
179.007939
 31
0.0
 11
204.999991
 21
179.200396
 31
0.0
 11
204.865420
 21
179.355893
 31
0.0
 11
204.679661
 21
179.444108
 31
0.0
 11
204.478119
 21
179.450786
 31
0.0
 11
204.286928
 21
179.375059
 31
0.0
  0
LWPOLYLINE
  5
1f9
100
AcDbEntity
  8
Capa_1
 62
7
100
AcDbPolyline
 90
2
 70
0
 10
202.851935
 20
174.025246
 30
0.0
 10
194.465686
 20
163.289797
 30
0.0
  0
SPLINE
  5
1fa
100
AcDbEntity
  8
Capa_1
 62
7
100
AcDbSpline
 70
0
 71
3
 72
10
 73
6
 74
4
 40
0.000000
 40
0.000000
 40
0.000000
 40
0.000000
 40
1.163557
 40
2.325158
 40
3.488715
 40
3.488715
 40
3.488715
 40
3.488715
 10
202.851820
 20
174.025068
 30
0.0
 10
203.079949
 20
174.339084
 30
0.0
 10
203.535824
 20
174.966589
 30
0.0
 10
204.084172
 20
175.998026
 30
0.0
 10
204.349390
 20
176.726890
 30
0.0
 10
204.482111
 20
177.091629
 30
0.0
 11
202.851820
 21
174.025068
 31
0.0
 11
203.513566
 21
174.982124
 31
0.0
 11
204.058846
 21
176.007788
 31
0.0
 11
204.482111
 21
177.091629
 31
0.0
  0
LWPOLYLINE
  5
1fb
100
AcDbEntity
  8
Capa_1
 62
7
100
AcDbPolyline
 90
2
 70
0
 10
196.827255
 20
177.721524
 30
0.0
 10
191.056223
 20
165.381580
 30
0.0
  0
LWPOLYLINE
  5
1fc
100
AcDbEntity
  8
Capa_1
 62
7
100
AcDbPolyline
 90
2
 70
0
 10
200.095863
 20
181.834351
 30
0.0
 10
198.822254
 20
180.563926
 30
0.0
  0
SPLINE
  5
1fd
100
AcDbEntity
  8
Capa_1
 62
7
100
AcDbSpline
 70
0
 71
3
 72
10
 73
6
 74
4
 40
0.000000
 40
0.000000
 40
0.000000
 40
0.000000
 40
1.163557
 40
2.325158
 40
3.488715
 40
3.488715
 40
3.488715
 40
3.488715
 10
198.822322
 20
180.564039
 30
0.0
 10
198.557294
 20
180.280474
 30
0.0
 10
198.027682
 20
179.713820
 30
0.0
 10
197.356606
 20
178.757680
 30
0.0
 10
197.003733
 20
178.066981
 30
0.0
 10
196.827148
 20
177.721341
 30
0.0
 11
198.822322
 21
180.564039
 31
0.0
 11
198.047860
 21
179.695665
 31
0.0
 11
197.380539
 21
178.744876
 31
0.0
 11
196.827148
 21
177.721341
 31
0.0
  0
LWPOLYLINE
  5
1fe
100
AcDbEntity
  8
Capa_1
 62
7
100
AcDbPolyline
 90
3
 70
0
 10
197.291711
 20
174.397651
 30
0.0
 10
200.796440
 20
180.110119
 30
0.0
 10
200.946265
 20
181.424357
 30
0.0
  0
LWPOLYLINE
  5
1ff
100
AcDbEntity
  8
Capa_1
 62
7
100
AcDbPolyline
 90
2
 70
0
 10
177.378784
 20
160.211163
 30
0.0
 10
190.949785
 20
161.383607
 30
0.0
  0
LWPOLYLINE
  5
200
100
AcDbEntity
  8
Capa_1
 62
7
100
AcDbPolyline
 90
2
 70
0
 10
177.568159
 20
167.277877
 30
0.0
 10
191.056223
 20
165.381580
 30
0.0
  0
LWPOLYLINE
  5
201
100
AcDbEntity
  8
Capa_1
 62
7
100
AcDbPolyline
 90
2
 70
0
 10
172.336309
 20
166.781435
 30
0.0
 10
174.097481
 20
167.156741
 30
0.0
  0
SPLINE
  5
202
100
AcDbEntity
  8
Capa_1
 62
7
100
AcDbSpline
 70
0
 71
3
 72
13
 73
9
 74
7
 40
0.000000
 40
0.000000
 40
0.000000
 40
0.000000
 40
0.205642
 40
0.407294
 40
0.612936
 40
0.818577
 40
1.020230
 40
1.225871
 40
1.225871
 40
1.225871
 40
1.225871
 10
200.946390
 20
181.424560
 30
0.0
 10
200.945929
 20
181.494100
 30
0.0
 10
200.945014
 20
181.631833
 30
0.0
 10
200.839000
 20
181.816258
 30
0.0
 10
200.673606
 20
181.944814
 30
0.0
 10
200.470117
 20
181.994549
 30
0.0
 10
200.259738
 20
181.963045
 30
0.0
 10
200.151243
 20
181.878194
 30
0.0
 10
200.096464
 20
181.835352
 30
0.0
 11
200.946390
 21
181.424560
 31
0.0
 11
200.927280
 21
181.629311
 31
0.0
 11
200.830018
 21
181.805957
 31
0.0
 11
200.667216
 21
181.931591
 31
0.0
 11
200.467625
 21
181.981111
 31
0.0
 11
200.268780
 21
181.947582
 31
0.0
 11
200.096464
 21
181.835352
 31
0.0
  0
SPLINE
  5
203
100
AcDbEntity
  8
Capa_1
 62
7
100
AcDbSpline
 70
0
 71
3
 72
10
 73
6
 74
4
 40
0.000000
 40
0.000000
 40
0.000000
 40
0.000000
 40
1.163548
 40
2.325141
 40
3.488689
 40
3.488689
 40
3.488689
 40
3.488689
 10
173.919814
 20
160.518411
 30
0.0
 10
174.297900
 20
160.430673
 30
0.0
 10
175.053437
 20
160.255344
 30
0.0
 10
176.217008
 20
160.152244
 30
0.0
 10
176.991601
 20
160.191995
 30
0.0
 10
177.379224
 20
160.211887
 30
0.0
 11
173.919814
 21
160.518411
 31
0.0
 11
175.059071
 21
160.281895
 31
0.0
 11
176.216130
 21
160.179372
 31
0.0
 11
177.379224
 21
160.211887
 31
0.0
  0
LWPOLYLINE
  5
204
100
AcDbEntity
  8
Capa_1
 62
7
100
AcDbPolyline
 90
2
 70
0
 10
172.181068
 20
160.985087
 30
0.0
 10
173.919368
 20
160.517692
 30
0.0
  0
LWPOLYLINE
  5
205
100
AcDbEntity
  8
Capa_1
 62
7
100
AcDbPolyline
 90
2
 70
0
 10
180.099898
 20
165.075840
 30
0.0
 10
173.402485
 20
165.255057
 30
0.0
  0
SPLINE
  5
206
100
AcDbEntity
  8
Capa_1
 62
7
100
AcDbSpline
 70
0
 71
3
 72
10
 73
6
 74
4
 40
0.000000
 40
0.000000
 40
0.000000
 40
0.000000
 40
1.163549
 40
2.325142
 40
3.488691
 40
3.488691
 40
3.488691
 40
3.488691
 10
177.567953
 20
167.277538
 30
0.0
 10
177.181945
 20
167.318095
 30
0.0
 10
176.410577
 20
167.399140
 30
0.0
 10
175.243161
 20
167.358304
 30
0.0
 10
174.479342
 20
167.223559
 30
0.0
 10
174.097111
 20
167.156130
 30
0.0
 11
177.567953
 21
167.277538
 31
0.0
 11
176.408253
 21
167.372097
 31
0.0
 11
175.247370
 21
167.331490
 31
0.0
 11
174.097111
 21
167.156130
 31
0.0
  0
LWPOLYLINE
  5
207
100
AcDbEntity
  8
Capa_1
 62
7
100
AcDbPolyline
 90
3
 70
0
 10
180.024414
 20
162.275686
 30
0.0
 10
173.327002
 20
162.454903
 30
0.0
 10
172.112400
 20
161.927406
 30
0.0
  0
SPLINE
  5
208
100
AcDbEntity
  8
Capa_1
 62
7
100
AcDbSpline
 70
0
 71
3
 72
13
 73
9
 74
7
 40
0.000000
 40
0.000000
 40
0.000000
 40
0.000000
 40
0.205632
 40
0.407276
 40
0.612908
 40
0.818540
 40
1.020183
 40
1.225815
 40
1.225815
 40
1.225815
 40
1.225815
 10
172.112535
 20
161.927634
 30
0.0
 10
172.052547
 20
161.892462
 30
0.0
 10
171.933733
 20
161.822802
 30
0.0
 10
171.827033
 20
161.638785
 30
0.0
 10
171.798399
 20
161.431282
 30
0.0
 10
171.857066
 20
161.230196
 30
0.0
 10
171.989526
 20
161.063758
 30
0.0
 10
172.117249
 20
161.012219
 30
0.0
 10
172.181735
 20
160.986197
 30
0.0
 11
172.112535
 21
161.927634
 31
0.0
 11
171.944783
 21
161.808706
 31
0.0
 11
171.840443
 21
161.636157
 31
0.0
 11
171.813044
 21
161.432358
 31
0.0
 11
171.869948
 21
161.234757
 31
0.0
 11
171.998397
 21
161.079318
 31
0.0
 11
172.181735
 21
160.986197
 31
0.0
  0
LWPOLYLINE
  5
209
100
AcDbEntity
  8
Capa_1
 62
7
100
AcDbPolyline
 90
2
 70
0
 10
173.402485
 20
165.255057
 30
0.0
 10
172.217312
 20
165.845608
 30
0.0
  0
LWPOLYLINE
  5
20a
100
AcDbEntity
  8
Capa_1
 62
7
100
AcDbPolyline
 90
2
 70
0
 10
180.024414
 20
162.275686
 30
0.0
 10
180.099898
 20
165.075840
 30
0.0
  0
LWPOLYLINE
  5
20b
100
AcDbEntity
  8
Capa_1
 62
7
100
AcDbPolyline
 90
2
 70
0
 10
202.267039
 20
152.124551
 30
0.0
 10
194.465686
 20
163.289797
 30
0.0
  0
LWPOLYLINE
  5
20c
100
AcDbEntity
  8
Capa_1
 62
7
100
AcDbPolyline
 90
2
 70
0
 10
196.052984
 20
148.754115
 30
0.0
 10
190.949785
 20
161.383607
 30
0.0
  0
LWPOLYLINE
  5
20d
100
AcDbEntity
  8
Capa_1
 62
7
100
AcDbPolyline
 90
2
 70
0
 10
199.097775
 20
144.471072
 30
0.0
 10
197.893556
 20
145.808981
 30
0.0
  0
SPLINE
  5
20e
100
AcDbEntity
  8
Capa_1
 62
7
100
AcDbSpline
 70
0
 71
3
 72
13
 73
9
 74
7
 40
0.000000
 40
0.000000
 40
0.000000
 40
0.000000
 40
0.205641
 40
0.407293
 40
0.612933
 40
0.818574
 40
1.020226
 40
1.225866
 40
1.225866
 40
1.225866
 40
1.225866
 10
172.336532
 20
166.781795
 30
0.0
 10
172.270745
 20
166.759254
 30
0.0
 10
172.140446
 20
166.714609
 30
0.0
 10
171.999281
 20
166.555475
 30
0.0
 10
171.929961
 20
166.357799
 30
0.0
 10
171.947482
 20
166.149054
 30
0.0
 10
172.044218
 20
165.959599
 30
0.0
 10
172.159153
 20
165.883698
 30
0.0
 10
172.217183
 20
165.845377
 30
0.0
 11
172.336532
 21
166.781795
 31
0.0
 11
172.148473
 21
166.698596
 31
0.0
 11
172.011902
 21
166.550233
 31
0.0
 11
171.944528
 21
166.355942
 31
0.0
 11
171.961014
 21
166.150963
 31
0.0
 11
172.056005
 21
165.973086
 31
0.0
 11
172.217183
 21
165.845377
 31
0.0
  0
SPLINE
  5
20f
100
AcDbEntity
  8
Capa_1
 62
7
100
AcDbSpline
 70
0
 71
3
 72
10
 73
6
 74
4
 40
0.000000
 40
0.000000
 40
0.000000
 40
0.000000
 40
1.163549
 40
2.325142
 40
3.488691
 40
3.488691
 40
3.488691
 40
3.488691
 10
203.731079
 20
148.975014
 30
0.0
 10
203.618020
 20
149.346315
 30
0.0
 10
203.392090
 20
150.088294
 30
0.0
 10
202.899590
 20
151.147526
 30
0.0
 10
202.477868
 20
151.798468
 30
0.0
 10
202.266829
 20
152.124213
 30
0.0
 11
203.731079
 21
148.975014
 31
0.0
 11
203.366279
 21
150.079897
 31
0.0
 11
202.876536
 21
151.133201
 31
0.0
 11
202.266829
 21
152.124213
 31
0.0
  0
LWPOLYLINE
  5
210
100
AcDbEntity
  8
Capa_1
 62
7
100
AcDbPolyline
 90
2
 70
0
 10
204.194785
 20
147.235532
 30
0.0
 10
203.731456
 20
148.975621
 30
0.0
  0
LWPOLYLINE
  5
211
100
AcDbEntity
  8
Capa_1
 62
7
100
AcDbPolyline
 90
2
 70
0
 10
196.694854
 20
152.047991
 30
0.0
 10
199.888919
 20
146.158561
 30
0.0
  0
SPLINE
  5
212
100
AcDbEntity
  8
Capa_1
 62
7
100
AcDbSpline
 70
0
 71
3
 72
10
 73
6
 74
4
 40
0.000000
 40
0.000000
 40
0.000000
 40
0.000000
 40
1.163548
 40
2.325141
 40
3.488689
 40
3.488689
 40
3.488689
 40
3.488689
 10
196.053429
 20
148.754835
 30
0.0
 10
196.211311
 20
148.400264
 30
0.0
 10
196.526807
 20
147.691718
 30
0.0
 10
197.145881
 20
146.701125
 30
0.0
 10
197.644483
 20
146.107011
 30
0.0
 10
197.893994
 20
145.809704
 30
0.0
 11
196.053429
 21
148.754835
 31
0.0
 11
196.551389
 21
147.703227
 31
0.0
 11
197.166998
 21
146.718177
 31
0.0
 11
197.893994
 21
145.809704
 31
0.0
  0
LWPOLYLINE
  5
213
100
AcDbEntity
  8
Capa_1
 62
7
100
AcDbPolyline
 90
3
 70
0
 10
199.156943
 20
153.383907
 30
0.0
 10
202.351010
 20
147.494477
 30
0.0
 10
203.414424
 20
146.705468
 30
0.0
  0
SPLINE
  5
214
100
AcDbEntity
  8
Capa_1
 62
7
100
AcDbSpline
 70
0
 71
3
 72
13
 73
9
 74
7
 40
0.000000
 40
0.000000
 40
0.000000
 40
0.000000
 40
0.205641
 40
0.407293
 40
0.612933
 40
0.818574
 40
1.020226
 40
1.225866
 40
1.225866
 40
1.225866
 40
1.225866
 10
203.414276
 20
146.705248
 30
0.0
 10
203.474731
 20
146.670877
 30
0.0
 10
203.594466
 20
146.602801
 30
0.0
 10
203.807189
 20
146.602396
 30
0.0
 10
204.001219
 20
146.681349
 30
0.0
 10
204.146038
 20
146.832706
 30
0.0
 10
204.223948
 20
147.030648
 30
0.0
 10
204.204716
 20
147.167034
 30
0.0
 10
204.195005
 20
147.235894
 30
0.0
 11
203.414276
 21
146.705248
 31
0.0
 11
203.601150
 21
146.619420
 31
0.0
 11
203.802760
 21
146.615325
 31
0.0
 11
203.992964
 21
146.693495
 31
0.0
 11
204.135647
 21
146.841582
 31
0.0
 11
204.206036
 21
147.030550
 31
0.0
 11
204.195005
 21
147.235894
 31
0.0
  0
LWPOLYLINE
  5
215
100
AcDbEntity
  8
Capa_1
 62
7
100
AcDbPolyline
 90
2
 70
0
 10
199.888919
 20
146.158561
 30
0.0
 10
199.968947
 20
144.836778
 30
0.0
  0
LWPOLYLINE
  5
216
100
AcDbEntity
  8
Capa_1
 62
7
100
AcDbPolyline
 90
2
 70
0
 10
199.156943
 20
153.383907
 30
0.0
 10
196.694854
 20
152.047991
 30
0.0
  0
LWPOLYLINE
  5
217
100
AcDbEntity
  8
Capa_1
 62
7
100
AcDbPolyline
 90
4
 70
0
 10
199.631711
 20
30.665251
 30
0.0
 10
202.018335
 20
29.201002
 30
0.0
 10
205.523065
 20
34.913470
 30
0.0
 10
206.626807
 20
35.642459
 30
0.0
  0
SPLINE
  5
218
100
AcDbEntity
  8
Capa_1
 62
7
100
AcDbSpline
 70
0
 71
3
 72
13
 73
9
 74
7
 40
0.000000
 40
0.000000
 40
0.000000
 40
0.000000
 40
0.205632
 40
0.407276
 40
0.612908
 40
0.818540
 40
1.020183
 40
1.225815
 40
1.225815
 40
1.225815
 40
1.225815
 10
199.098463
 20
144.472170
 30
0.0
 10
199.150877
 20
144.426471
 30
0.0
 10
199.254689
 20
144.335959
 30
0.0
 10
199.463076
 20
144.293278
 30
0.0
 10
199.668920
 20
144.332080
 30
0.0
 10
199.840933
 20
144.451617
 30
0.0
 10
199.956640
 20
144.630109
 30
0.0
 10
199.964912
 20
144.767589
 30
0.0
 10
199.969088
 20
144.837002
 30
0.0
 11
199.098463
 21
144.472170
 31
0.0
 11
199.264541
 21
144.350916
 31
0.0
 11
199.461306
 21
144.306829
 31
0.0
 11
199.663245
 21
144.345624
 31
0.0
 11
199.832514
 21
144.462382
 31
0.0
 11
199.939067
 21
144.633573
 31
0.0
 11
199.969088
 21
144.837002
 31
0.0
  0
LWPOLYLINE
  5
219
100
AcDbEntity
  8
Capa_1
 62
7
100
AcDbPolyline
 90
2
 70
0
 10
207.377588
 20
35.070090
 30
0.0
 10
206.822041
 20
33.359117
 30
0.0
  0
SPLINE
  5
21a
100
AcDbEntity
  8
Capa_1
 62
7
100
AcDbSpline
 70
0
 71
3
 72
13
 73
9
 74
7
 40
0.000000
 40
0.000000
 40
0.000000
 40
0.000000
 40
0.205642
 40
0.407294
 40
0.612936
 40
0.818577
 40
1.020230
 40
1.225871
 40
1.225871
 40
1.225871
 40
1.225871
 10
207.378207
 20
35.071075
 30
0.0
 10
207.391581
 20
35.139319
 30
0.0
 10
207.418070
 20
35.274484
 30
0.0
 10
207.350842
 20
35.476305
 30
0.0
 10
207.214312
 20
35.635180
 30
0.0
 10
207.024774
 20
35.724382
 30
0.0
 10
206.812332
 20
35.735337
 30
0.0
 10
206.689132
 20
35.673753
 30
0.0
 10
206.626928
 20
35.642659
 30
0.0
 11
207.378207
 21
35.071075
 31
0.0
 11
207.400189
 21
35.275539
 31
0.0
 11
207.339991
 21
35.467996
 31
0.0
 11
207.205420
 21
35.623493
 31
0.0
 11
207.019661
 21
35.711708
 31
0.0
 11
206.818119
 21
35.718386
 31
0.0
 11
206.626928
 21
35.642659
 31
0.0
  0
LWPOLYLINE
  5
21b
100
AcDbEntity
  8
Capa_1
 62
7
100
AcDbPolyline
 90
2
 70
0
 10
205.191935
 20
30.292846
 30
0.0
 10
196.805686
 20
19.557397
 30
0.0
  0
SPLINE
  5
21c
100
AcDbEntity
  8
Capa_1
 62
7
100
AcDbSpline
 70
0
 71
3
 72
10
 73
6
 74
4
 40
0.000000
 40
0.000000
 40
0.000000
 40
0.000000
 40
1.163557
 40
2.325158
 40
3.488715
 40
3.488715
 40
3.488715
 40
3.488715
 10
205.191820
 20
30.292668
 30
0.0
 10
205.419949
 20
30.606684
 30
0.0
 10
205.875824
 20
31.234189
 30
0.0
 10
206.424172
 20
32.265626
 30
0.0
 10
206.689390
 20
32.994490
 30
0.0
 10
206.822111
 20
33.359229
 30
0.0
 11
205.191820
 21
30.292668
 31
0.0
 11
205.853566
 21
31.249724
 31
0.0
 11
206.398846
 21
32.275388
 31
0.0
 11
206.822111
 21
33.359229
 31
0.0
  0
LWPOLYLINE
  5
21d
100
AcDbEntity
  8
Capa_1
 62
7
100
AcDbPolyline
 90
2
 70
0
 10
199.167255
 20
33.989124
 30
0.0
 10
193.396223
 20
21.649180
 30
0.0
  0
LWPOLYLINE
  5
21e
100
AcDbEntity
  8
Capa_1
 62
7
100
AcDbPolyline
 90
2
 70
0
 10
202.435863
 20
38.101951
 30
0.0
 10
201.162254
 20
36.831526
 30
0.0
  0
SPLINE
  5
21f
100
AcDbEntity
  8
Capa_1
 62
7
100
AcDbSpline
 70
0
 71
3
 72
10
 73
6
 74
4
 40
0.000000
 40
0.000000
 40
0.000000
 40
0.000000
 40
1.163557
 40
2.325158
 40
3.488715
 40
3.488715
 40
3.488715
 40
3.488715
 10
201.162322
 20
36.831639
 30
0.0
 10
200.897294
 20
36.548074
 30
0.0
 10
200.367682
 20
35.981420
 30
0.0
 10
199.696606
 20
35.025280
 30
0.0
 10
199.343733
 20
34.334581
 30
0.0
 10
199.167148
 20
33.988941
 30
0.0
 11
201.162322
 21
36.831639
 31
0.0
 11
200.387860
 21
35.963265
 31
0.0
 11
199.720539
 21
35.012476
 31
0.0
 11
199.167148
 21
33.988941
 31
0.0
  0
LWPOLYLINE
  5
220
100
AcDbEntity
  8
Capa_1
 62
7
100
AcDbPolyline
 90
3
 70
0
 10
199.631711
 20
30.665251
 30
0.0
 10
203.136440
 20
36.377719
 30
0.0
 10
203.286265
 20
37.691957
 30
0.0
  0
LWPOLYLINE
  5
221
100
AcDbEntity
  8
Capa_1
 62
7
100
AcDbPolyline
 90
2
 70
0
 10
179.718784
 20
16.478763
 30
0.0
 10
193.289785
 20
17.651207
 30
0.0
  0
LWPOLYLINE
  5
222
100
AcDbEntity
  8
Capa_1
 62
7
100
AcDbPolyline
 90
2
 70
0
 10
179.908159
 20
23.545477
 30
0.0
 10
193.396223
 20
21.649180
 30
0.0
  0
LWPOLYLINE
  5
223
100
AcDbEntity
  8
Capa_1
 62
7
100
AcDbPolyline
 90
2
 70
0
 10
174.676309
 20
23.049035
 30
0.0
 10
176.437481
 20
23.424341
 30
0.0
  0
SPLINE
  5
224
100
AcDbEntity
  8
Capa_1
 62
7
100
AcDbSpline
 70
0
 71
3
 72
13
 73
9
 74
7
 40
0.000000
 40
0.000000
 40
0.000000
 40
0.000000
 40
0.205642
 40
0.407294
 40
0.612936
 40
0.818577
 40
1.020230
 40
1.225871
 40
1.225871
 40
1.225871
 40
1.225871
 10
203.286390
 20
37.692160
 30
0.0
 10
203.285929
 20
37.761700
 30
0.0
 10
203.285014
 20
37.899433
 30
0.0
 10
203.179000
 20
38.083858
 30
0.0
 10
203.013606
 20
38.212414
 30
0.0
 10
202.810117
 20
38.262149
 30
0.0
 10
202.599738
 20
38.230645
 30
0.0
 10
202.491243
 20
38.145794
 30
0.0
 10
202.436464
 20
38.102952
 30
0.0
 11
203.286390
 21
37.692160
 31
0.0
 11
203.267280
 21
37.896911
 31
0.0
 11
203.170018
 21
38.073557
 31
0.0
 11
203.007216
 21
38.199191
 31
0.0
 11
202.807625
 21
38.248711
 31
0.0
 11
202.608780
 21
38.215182
 31
0.0
 11
202.436464
 21
38.102952
 31
0.0
  0
SPLINE
  5
225
100
AcDbEntity
  8
Capa_1
 62
7
100
AcDbSpline
 70
0
 71
3
 72
10
 73
6
 74
4
 40
0.000000
 40
0.000000
 40
0.000000
 40
0.000000
 40
1.163548
 40
2.325141
 40
3.488689
 40
3.488689
 40
3.488689
 40
3.488689
 10
176.259814
 20
16.786011
 30
0.0
 10
176.637900
 20
16.698273
 30
0.0
 10
177.393437
 20
16.522944
 30
0.0
 10
178.557008
 20
16.419844
 30
0.0
 10
179.331601
 20
16.459595
 30
0.0
 10
179.719224
 20
16.479487
 30
0.0
 11
176.259814
 21
16.786011
 31
0.0
 11
177.399071
 21
16.549495
 31
0.0
 11
178.556130
 21
16.446972
 31
0.0
 11
179.719224
 21
16.479487
 31
0.0
  0
LWPOLYLINE
  5
226
100
AcDbEntity
  8
Capa_1
 62
7
100
AcDbPolyline
 90
2
 70
0
 10
174.521068
 20
17.252687
 30
0.0
 10
176.259368
 20
16.785292
 30
0.0
  0
LWPOLYLINE
  5
227
100
AcDbEntity
  8
Capa_1
 62
7
100
AcDbPolyline
 90
2
 70
0
 10
182.439898
 20
21.343440
 30
0.0
 10
175.742485
 20
21.522657
 30
0.0
  0
SPLINE
  5
228
100
AcDbEntity
  8
Capa_1
 62
7
100
AcDbSpline
 70
0
 71
3
 72
10
 73
6
 74
4
 40
0.000000
 40
0.000000
 40
0.000000
 40
0.000000
 40
1.163549
 40
2.325142
 40
3.488691
 40
3.488691
 40
3.488691
 40
3.488691
 10
179.907953
 20
23.545138
 30
0.0
 10
179.521945
 20
23.585695
 30
0.0
 10
178.750577
 20
23.666740
 30
0.0
 10
177.583161
 20
23.625904
 30
0.0
 10
176.819342
 20
23.491159
 30
0.0
 10
176.437111
 20
23.423730
 30
0.0
 11
179.907953
 21
23.545138
 31
0.0
 11
178.748253
 21
23.639697
 31
0.0
 11
177.587370
 21
23.599090
 31
0.0
 11
176.437111
 21
23.423730
 31
0.0
  0
LWPOLYLINE
  5
229
100
AcDbEntity
  8
Capa_1
 62
7
100
AcDbPolyline
 90
3
 70
0
 10
182.364414
 20
18.543286
 30
0.0
 10
175.667002
 20
18.722503
 30
0.0
 10
174.452400
 20
18.195006
 30
0.0
  0
SPLINE
  5
22a
100
AcDbEntity
  8
Capa_1
 62
7
100
AcDbSpline
 70
0
 71
3
 72
13
 73
9
 74
7
 40
0.000000
 40
0.000000
 40
0.000000
 40
0.000000
 40
0.205632
 40
0.407276
 40
0.612908
 40
0.818540
 40
1.020183
 40
1.225815
 40
1.225815
 40
1.225815
 40
1.225815
 10
174.452535
 20
18.195234
 30
0.0
 10
174.392547
 20
18.160062
 30
0.0
 10
174.273733
 20
18.090402
 30
0.0
 10
174.167033
 20
17.906385
 30
0.0
 10
174.138399
 20
17.698882
 30
0.0
 10
174.197066
 20
17.497796
 30
0.0
 10
174.329526
 20
17.331358
 30
0.0
 10
174.457249
 20
17.279819
 30
0.0
 10
174.521735
 20
17.253797
 30
0.0
 11
174.452535
 21
18.195234
 31
0.0
 11
174.284783
 21
18.076306
 31
0.0
 11
174.180443
 21
17.903757
 31
0.0
 11
174.153044
 21
17.699958
 31
0.0
 11
174.209948
 21
17.502357
 31
0.0
 11
174.338397
 21
17.346918
 31
0.0
 11
174.521735
 21
17.253797
 31
0.0
  0
LWPOLYLINE
  5
22b
100
AcDbEntity
  8
Capa_1
 62
7
100
AcDbPolyline
 90
2
 70
0
 10
175.742485
 20
21.522657
 30
0.0
 10
174.557312
 20
22.113208
 30
0.0
  0
LWPOLYLINE
  5
22c
100
AcDbEntity
  8
Capa_1
 62
7
100
AcDbPolyline
 90
2
 70
0
 10
182.364414
 20
18.543286
 30
0.0
 10
182.439898
 20
21.343440
 30
0.0
  0
LWPOLYLINE
  5
22d
100
AcDbEntity
  8
Capa_1
 62
7
100
AcDbPolyline
 90
2
 70
0
 10
204.607039
 20
8.392151
 30
0.0
 10
196.805686
 20
19.557397
 30
0.0
  0
LWPOLYLINE
  5
22e
100
AcDbEntity
  8
Capa_1
 62
7
100
AcDbPolyline
 90
2
 70
0
 10
198.392984
 20
5.021715
 30
0.0
 10
193.289785
 20
17.651207
 30
0.0
  0
LWPOLYLINE
  5
22f
100
AcDbEntity
  8
Capa_1
 62
7
100
AcDbPolyline
 90
2
 70
0
 10
201.437775
 20
0.738672
 30
0.0
 10
200.233556
 20
2.076581
 30
0.0
  0
SPLINE
  5
230
100
AcDbEntity
  8
Capa_1
 62
7
100
AcDbSpline
 70
0
 71
3
 72
13
 73
9
 74
7
 40
0.000000
 40
0.000000
 40
0.000000
 40
0.000000
 40
0.205641
 40
0.407293
 40
0.612933
 40
0.818574
 40
1.020226
 40
1.225866
 40
1.225866
 40
1.225866
 40
1.225866
 10
174.676532
 20
23.049395
 30
0.0
 10
174.610745
 20
23.026854
 30
0.0
 10
174.480446
 20
22.982209
 30
0.0
 10
174.339281
 20
22.823075
 30
0.0
 10
174.269961
 20
22.625399
 30
0.0
 10
174.287482
 20
22.416654
 30
0.0
 10
174.384218
 20
22.227199
 30
0.0
 10
174.499153
 20
22.151298
 30
0.0
 10
174.557183
 20
22.112977
 30
0.0
 11
174.676532
 21
23.049395
 31
0.0
 11
174.488473
 21
22.966196
 31
0.0
 11
174.351902
 21
22.817833
 31
0.0
 11
174.284528
 21
22.623542
 31
0.0
 11
174.301014
 21
22.418563
 31
0.0
 11
174.396005
 21
22.240686
 31
0.0
 11
174.557183
 21
22.112977
 31
0.0
  0
SPLINE
  5
231
100
AcDbEntity
  8
Capa_1
 62
7
100
AcDbSpline
 70
0
 71
3
 72
10
 73
6
 74
4
 40
0.000000
 40
0.000000
 40
0.000000
 40
0.000000
 40
1.163549
 40
2.325142
 40
3.488691
 40
3.488691
 40
3.488691
 40
3.488691
 10
206.071079
 20
5.242614
 30
0.0
 10
205.958020
 20
5.613915
 30
0.0
 10
205.732090
 20
6.355894
 30
0.0
 10
205.239590
 20
7.415126
 30
0.0
 10
204.817868
 20
8.066068
 30
0.0
 10
204.606829
 20
8.391813
 30
0.0
 11
206.071079
 21
5.242614
 31
0.0
 11
205.706279
 21
6.347497
 31
0.0
 11
205.216536
 21
7.400801
 31
0.0
 11
204.606829
 21
8.391813
 31
0.0
  0
LWPOLYLINE
  5
232
100
AcDbEntity
  8
Capa_1
 62
7
100
AcDbPolyline
 90
2
 70
0
 10
206.534785
 20
3.503132
 30
0.0
 10
206.071456
 20
5.243221
 30
0.0
  0
LWPOLYLINE
  5
233
100
AcDbEntity
  8
Capa_1
 62
7
100
AcDbPolyline
 90
2
 70
0
 10
199.034854
 20
8.315591
 30
0.0
 10
202.228919
 20
2.426161
 30
0.0
  0
SPLINE
  5
234
100
AcDbEntity
  8
Capa_1
 62
7
100
AcDbSpline
 70
0
 71
3
 72
10
 73
6
 74
4
 40
0.000000
 40
0.000000
 40
0.000000
 40
0.000000
 40
1.163548
 40
2.325141
 40
3.488689
 40
3.488689
 40
3.488689
 40
3.488689
 10
198.393429
 20
5.022435
 30
0.0
 10
198.551311
 20
4.667864
 30
0.0
 10
198.866807
 20
3.959318
 30
0.0
 10
199.485881
 20
2.968725
 30
0.0
 10
199.984483
 20
2.374611
 30
0.0
 10
200.233994
 20
2.077304
 30
0.0
 11
198.393429
 21
5.022435
 31
0.0
 11
198.891389
 21
3.970827
 31
0.0
 11
199.506998
 21
2.985777
 31
0.0
 11
200.233994
 21
2.077304
 31
0.0
  0
LWPOLYLINE
  5
235
100
AcDbEntity
  8
Capa_1
 62
7
100
AcDbPolyline
 90
3
 70
0
 10
201.496943
 20
9.651507
 30
0.0
 10
204.691010
 20
3.762077
 30
0.0
 10
205.754424
 20
2.973068
 30
0.0
  0
SPLINE
  5
236
100
AcDbEntity
  8
Capa_1
 62
7
100
AcDbSpline
 70
0
 71
3
 72
13
 73
9
 74
7
 40
0.000000
 40
0.000000
 40
0.000000
 40
0.000000
 40
0.205641
 40
0.407293
 40
0.612933
 40
0.818574
 40
1.020226
 40
1.225866
 40
1.225866
 40
1.225866
 40
1.225866
 10
205.754276
 20
2.972848
 30
0.0
 10
205.814731
 20
2.938477
 30
0.0
 10
205.934466
 20
2.870401
 30
0.0
 10
206.147189
 20
2.869996
 30
0.0
 10
206.341219
 20
2.948949
 30
0.0
 10
206.486038
 20
3.100306
 30
0.0
 10
206.563948
 20
3.298248
 30
0.0
 10
206.544716
 20
3.434634
 30
0.0
 10
206.535005
 20
3.503494
 30
0.0
 11
205.754276
 21
2.972848
 31
0.0
 11
205.941150
 21
2.887020
 31
0.0
 11
206.142760
 21
2.882925
 31
0.0
 11
206.332964
 21
2.961095
 31
0.0
 11
206.475647
 21
3.109182
 31
0.0
 11
206.546036
 21
3.298150
 31
0.0
 11
206.535005
 21
3.503494
 31
0.0
  0
LWPOLYLINE
  5
237
100
AcDbEntity
  8
Capa_1
 62
7
100
AcDbPolyline
 90
2
 70
0
 10
202.228919
 20
2.426161
 30
0.0
 10
202.308947
 20
1.104378
 30
0.0
  0
LWPOLYLINE
  5
238
100
AcDbEntity
  8
Capa_1
 62
7
100
AcDbPolyline
 90
2
 70
0
 10
201.496943
 20
9.651507
 30
0.0
 10
199.034854
 20
8.315591
 30
0.0
  0
LWPOLYLINE
  5
239
100
AcDbEntity
  8
Capa_1
 62
7
100
AcDbPolyline
 90
4
 70
0
 10
9.743196
 20
124.944390
 30
0.0
 10
11.712304
 20
126.935022
 30
0.0
 10
6.947658
 20
131.648151
 30
0.0
 10
6.489072
 20
132.888864
 30
0.0
  0
SPLINE
  5
23a
100
AcDbEntity
  8
Capa_1
 62
7
100
AcDbSpline
 70
0
 71
3
 72
13
 73
9
 74
7
 40
0.000000
 40
0.000000
 40
0.000000
 40
0.000000
 40
0.205632
 40
0.407276
 40
0.612908
 40
0.818540
 40
1.020183
 40
1.225815
 40
1.225815
 40
1.225815
 40
1.225815
 10
201.438463
 20
0.739770
 30
0.0
 10
201.490877
 20
0.694071
 30
0.0
 10
201.594689
 20
0.603559
 30
0.0
 10
201.803076
 20
0.560878
 30
0.0
 10
202.008920
 20
0.599680
 30
0.0
 10
202.180933
 20
0.719217
 30
0.0
 10
202.296640
 20
0.897709
 30
0.0
 10
202.304912
 20
1.035189
 30
0.0
 10
202.309088
 20
1.104602
 30
0.0
 11
201.438463
 21
0.739770
 31
0.0
 11
201.604541
 21
0.618516
 31
0.0
 11
201.801306
 21
0.574429
 31
0.0
 11
202.003245
 21
0.613224
 31
0.0
 11
202.172514
 21
0.729982
 31
0.0
 11
202.279067
 21
0.901173
 31
0.0
 11
202.309088
 21
1.104602
 31
0.0
  0
LWPOLYLINE
  5
23b
100
AcDbEntity
  8
Capa_1
 62
7
100
AcDbPolyline
 90
2
 70
0
 10
7.217325
 20
133.489635
 30
0.0
 10
8.756907
 20
132.559179
 30
0.0
  0
SPLINE
  5
23c
100
AcDbEntity
  8
Capa_1
 62
7
100
AcDbSpline
 70
0
 71
3
 72
13
 73
9
 74
7
 40
0.000000
 40
0.000000
 40
0.000000
 40
0.000000
 40
0.205642
 40
0.407294
 40
0.612936
 40
0.818577
 40
1.020230
 40
1.225871
 40
1.225871
 40
1.225871
 40
1.225871
 10
7.216506
 20
133.490462
 30
0.0
 10
7.153098
 20
133.519021
 30
0.0
 10
7.027513
 20
133.575584
 30
0.0
 10
6.815686
 20
133.556065
 30
0.0
 10
6.629902
 20
133.459287
 30
0.0
 10
6.499895
 20
133.295032
 30
0.0
 10
6.440866
 20
133.090661
 30
0.0
 10
6.472788
 20
132.956676
 30
0.0
 10
6.488905
 20
132.889027
 30
0.0
 11
7.216506
 21
133.490462
 31
0.0
 11
7.022415
 21
133.558412
 31
0.0
 11
6.821307
 21
133.543607
 31
0.0
 11
6.639259
 21
133.447967
 31
0.0
 11
6.511072
 21
133.287167
 31
0.0
 11
6.458690
 21
133.092437
 31
0.0
 11
6.488905
 21
132.889027
 31
0.0
  0
LWPOLYLINE
  5
23d
100
AcDbEntity
  8
Capa_1
 62
7
100
AcDbPolyline
 90
2
 70
0
 10
11.371584
 20
130.273849
 30
0.0
 10
19.916071
 20
119.663910
 30
0.0
  0
SPLINE
  5
23e
100
AcDbEntity
  8
Capa_1
 62
7
100
AcDbSpline
 70
0
 71
3
 72
10
 73
6
 74
4
 40
0.000000
 40
0.000000
 40
0.000000
 40
0.000000
 40
1.163557
 40
2.325158
 40
3.488715
 40
3.488715
 40
3.488715
 40
3.488715
 10
11.371731
 20
130.273697
 30
0.0
 10
11.117892
 20
130.567321
 30
0.0
 10
10.610641
 20
131.154075
 30
0.0
 10
9.731114
 20
131.922828
 30
0.0
 10
9.081763
 20
132.347005
 30
0.0
 10
8.756814
 20
132.559273
 30
0.0
 11
11.371731
 21
130.273697
 31
0.0
 11
10.590447
 21
131.135938
 31
0.0
 11
9.715843
 21
131.900389
 31
0.0
 11
8.756814
 21
132.559273
 31
0.0
  0
LWPOLYLINE
  5
23f
100
AcDbEntity
  8
Capa_1
 62
7
100
AcDbPolyline
 90
2
 70
0
 10
6.400862
 20
125.248795
 30
0.0
 10
17.103060
 20
116.820152
 30
0.0
  0
LWPOLYLINE
  5
240
100
AcDbEntity
  8
Capa_1
 62
7
100
AcDbPolyline
 90
2
 70
0
 10
3.140106
 20
129.367849
 30
0.0
 10
4.087243
 20
127.838474
 30
0.0
  0
SPLINE
  5
241
100
AcDbEntity
  8
Capa_1
 62
7
100
AcDbSpline
 70
0
 71
3
 72
10
 73
6
 74
4
 40
0.000000
 40
0.000000
 40
0.000000
 40
0.000000
 40
1.163557
 40
2.325158
 40
3.488715
 40
3.488715
 40
3.488715
 40
3.488715
 10
4.087149
 20
127.838566
 30
0.0
 10
4.302936
 20
127.515943
 30
0.0
 10
4.734148
 20
126.871241
 30
0.0
 10
5.512416
 20
126.000124
 30
0.0
 10
6.104650
 20
125.499281
 30
0.0
 10
6.401016
 20
125.248649
 30
0.0
 11
4.087149
 21
127.838566
 31
0.0
 11
4.756419
 21
126.886756
 31
0.0
 11
5.530333
 21
126.020513
 31
0.0
 11
6.401016
 21
125.248649
 31
0.0
  0
LWPOLYLINE
  5
242
100
AcDbEntity
  8
Capa_1
 62
7
100
AcDbPolyline
 90
3
 70
0
 10
9.743196
 20
124.944390
 30
0.0
 10
4.978550
 20
129.657519
 30
0.0
 10
3.732925
 20
130.102590
 30
0.0
  0
LWPOLYLINE
  5
243
100
AcDbEntity
  8
Capa_1
 62
7
100
AcDbPolyline
 90
2
 70
0
 10
19.024114
 20
102.324802
 30
0.0
 10
20.971833
 20
115.806387
 30
0.0
  0
LWPOLYLINE
  5
244
100
AcDbEntity
  8
Capa_1
 62
7
100
AcDbPolyline
 90
2
 70
0
 10
12.186053
 20
104.117912
 30
0.0
 10
17.103060
 20
116.820152
 30
0.0
  0
LWPOLYLINE
  5
245
100
AcDbEntity
  8
Capa_1
 62
7
100
AcDbPolyline
 90
2
 70
0
 10
11.478453
 20
98.910416
 30
0.0
 10
11.513924
 20
100.710784
 30
0.0
  0
SPLINE
  5
246
100
AcDbEntity
  8
Capa_1
 62
7
100
AcDbSpline
 70
0
 71
3
 72
13
 73
9
 74
7
 40
0.000000
 40
0.000000
 40
0.000000
 40
0.000000
 40
0.205642
 40
0.407294
 40
0.612936
 40
0.818577
 40
1.020230
 40
1.225871
 40
1.225871
 40
1.225871
 40
1.225871
 10
3.732757
 20
130.102758
 30
0.0
 10
3.664937
 20
130.118139
 30
0.0
 10
3.530612
 20
130.148603
 30
0.0
 10
3.326896
 20
130.087356
 30
0.0
 10
3.164064
 20
129.955570
 30
0.0
 10
3.069311
 20
129.768745
 30
0.0
 10
3.052096
 20
129.556719
 30
0.0
 10
3.110021
 20
129.431756
 30
0.0
 10
3.139267
 20
129.368662
 30
0.0
 11
3.732757
 21
130.102758
 31
0.0
 11
3.529030
 21
130.130760
 31
0.0
 11
3.334881
 21
130.076264
 31
0.0
 11
3.175484
 21
129.946337
 31
0.0
 11
3.081829
 21
129.763260
 31
0.0
 11
3.069211
 21
129.562003
 31
0.0
 11
3.139267
 21
129.368662
 31
0.0
  0
SPLINE
  5
247
100
AcDbEntity
  8
Capa_1
 62
7
100
AcDbSpline
 70
0
 71
3
 72
10
 73
6
 74
4
 40
0.000000
 40
0.000000
 40
0.000000
 40
0.000000
 40
1.163548
 40
2.325141
 40
3.488690
 40
3.488690
 40
3.488690
 40
3.488690
 10
17.937513
 20
99.026595
 30
0.0
 10
18.109018
 20
99.374781
 30
0.0
 10
18.451738
 20
100.070567
 30
0.0
 10
18.817012
 20
101.180117
 30
0.0
 10
18.954638
 20
101.943422
 30
0.0
 10
19.023509
 20
102.325396
 30
0.0
 11
17.937513
 21
99.026595
 31
0.0
 11
18.427166
 21
100.082097
 31
0.0
 11
18.790397
 21
101.185438
 31
0.0
 11
19.023509
 21
102.325396
 31
0.0
  0
LWPOLYLINE
  5
248
100
AcDbEntity
  8
Capa_1
 62
7
100
AcDbPolyline
 90
2
 70
0
 10
17.087273
 20
97.439738
 30
0.0
 10
17.938111
 20
99.025997
 30
0.0
  0
LWPOLYLINE
  5
249
100
AcDbEntity
  8
Capa_1
 62
7
100
AcDbPolyline
 90
2
 70
0
 10
14.906613
 20
106.081894
 30
0.0
 10
13.207464
 20
99.601126
 30
0.0
  0
SPLINE
  5
24a
100
AcDbEntity
  8
Capa_1
 62
7
100
AcDbSpline
 70
0
 71
3
 72
10
 73
6
 74
4
 40
0.000000
 40
0.000000
 40
0.000000
 40
0.000000
 40
1.163549
 40
2.325142
 40
3.488691
 40
3.488691
 40
3.488691
 40
3.488691
 10
12.186336
 20
104.117634
 30
0.0
 10
12.058971
 20
103.750994
 30
0.0
 10
11.804455
 20
103.018329
 30
0.0
 10
11.578462
 20
101.872268
 30
0.0
 10
11.535789
 20
101.097830
 30
0.0
 10
11.514434
 20
100.710285
 30
0.0
 11
12.186336
 21
104.117634
 31
0.0
 11
11.830259
 21
103.009909
 31
0.0
 11
11.605530
 21
101.870262
 31
0.0
 11
11.514434
 21
100.710285
 31
0.0
  0
LWPOLYLINE
  5
24b
100
AcDbEntity
  8
Capa_1
 62
7
100
AcDbPolyline
 90
3
 70
0
 10
17.616063
 20
105.370949
 30
0.0
 10
15.916915
 20
98.890182
 30
0.0
 10
16.154063
 20
97.587387
 30
0.0
  0
SPLINE
  5
24c
100
AcDbEntity
  8
Capa_1
 62
7
100
AcDbSpline
 70
0
 71
3
 72
13
 73
9
 74
7
 40
0.000000
 40
0.000000
 40
0.000000
 40
0.000000
 40
0.205632
 40
0.407276
 40
0.612908
 40
0.818540
 40
1.020183
 40
1.225815
 40
1.225815
 40
1.225815
 40
1.225815
 10
16.153872
 20
97.587571
 30
0.0
 10
16.174464
 20
97.521151
 30
0.0
 10
16.215248
 20
97.389599
 30
0.0
 10
16.370144
 20
97.243810
 30
0.0
 10
16.565680
 20
97.168690
 30
0.0
 10
16.774842
 20
97.180041
 30
0.0
 10
16.967063
 20
97.271135
 30
0.0
 10
17.046324
 20
97.383771
 30
0.0
 10
17.086343
 20
97.440640
 30
0.0
 11
16.153872
 21
97.587571
 31
0.0
 11
16.231489
 21
97.397150
 31
0.0
 11
16.375755
 21
97.256270
 31
0.0
 11
16.567966
 21
97.183196
 31
0.0
 11
16.773333
 21
97.193623
 31
0.0
 11
16.953931
 21
97.283314
 31
0.0
 11
17.086343
 21
97.440640
 31
0.0
  0
LWPOLYLINE
  5
24d
100
AcDbEntity
  8
Capa_1
 62
7
100
AcDbPolyline
 90
2
 70
0
 10
13.207464
 20
99.601126
 30
0.0
 10
12.362619
 20
98.581507
 30
0.0
  0
LWPOLYLINE
  5
24e
100
AcDbEntity
  8
Capa_1
 62
7
100
AcDbPolyline
 90
2
 70
0
 10
17.616063
 20
105.370949
 30
0.0
 10
14.906613
 20
106.081894
 30
0.0
  0
LWPOLYLINE
  5
24f
100
AcDbEntity
  8
Capa_1
 62
7
100
AcDbPolyline
 90
2
 70
0
 10
32.564108
 20
124.718712
 30
0.0
 10
19.916071
 20
119.663910
 30
0.0
  0
LWPOLYLINE
  5
250
100
AcDbEntity
  8
Capa_1
 62
7
100
AcDbPolyline
 90
2
 70
0
 10
34.431447
 20
117.900548
 30
0.0
 10
20.971833
 20
115.806387
 30
0.0
  0
LWPOLYLINE
  5
251
100
AcDbEntity
  8
Capa_1
 62
7
100
AcDbPolyline
 90
2
 70
0
 10
39.295168
 20
119.890380
 30
0.0
 10
37.718253
 20
119.022347
 30
0.0
  0
SPLINE
  5
252
100
AcDbEntity
  8
Capa_1
 62
7
100
AcDbSpline
 70
0
 71
3
 72
13
 73
9
 74
7
 40
0.000000
 40
0.000000
 40
0.000000
 40
0.000000
 40
0.205641
 40
0.407293
 40
0.612933
 40
0.818574
 40
1.020226
 40
1.225867
 40
1.225867
 40
1.225867
 40
1.225867
 10
11.478153
 20
98.910715
 30
0.0
 10
11.485126
 20
98.841524
 30
0.0
 10
11.498936
 20
98.704483
 30
0.0
 10
11.621757
 20
98.530799
 30
0.0
 10
11.798462
 20
98.418298
 30
0.0
 10
12.005715
 20
98.387839
 30
0.0
 10
12.212217
 20
98.438907
 30
0.0
 10
12.312289
 20
98.533546
 30
0.0
 10
12.362815
 20
98.581328
 30
0.0
 11
11.478153
 21
98.910715
 31
0.0
 11
11.516356
 21
98.708654
 31
0.0
 11
11.629735
 21
98.541895
 31
0.0
 11
11.803587
 21
98.432061
 31
0.0
 11
12.006937
 21
98.401451
 31
0.0
 11
12.201767
 21
98.453455
 31
0.0
 11
12.362815
 21
98.581328
 31
0.0
  0
SPLINE
  5
253
100
AcDbEntity
  8
Capa_1
 62
7
100
AcDbSpline
 70
0
 71
3
 72
10
 73
6
 74
4
 40
0.000000
 40
0.000000
 40
0.000000
 40
0.000000
 40
1.163549
 40
2.325142
 40
3.488691
 40
3.488691
 40
3.488691
 40
3.488691
 10
35.964233
 20
125.427335
 30
0.0
 10
35.576943
 20
125.401769
 30
0.0
 10
34.803014
 20
125.350680
 30
0.0
 10
33.659478
 20
125.112240
 30
0.0
 10
32.929623
 20
124.849775
 30
0.0
 10
32.564389
 20
124.718432
 30
0.0
 11
35.964233
 21
125.427335
 31
0.0
 11
34.805314
 21
125.323635
 31
0.0
 11
33.668178
 21
125.086530
 31
0.0
 11
32.564389
 21
124.718432
 31
0.0
  0
LWPOLYLINE
  5
254
100
AcDbEntity
  8
Capa_1
 62
7
100
AcDbPolyline
 90
2
 70
0
 10
37.763604
 20
125.482880
 30
0.0
 10
35.963728
 20
125.427840
 30
0.0
  0
LWPOLYLINE
  5
255
100
AcDbEntity
  8
Capa_1
 62
7
100
AcDbPolyline
 90
2
 70
0
 10
31.370174
 20
119.275401
 30
0.0
 10
37.832087
 20
121.044901
 30
0.0
  0
SPLINE
  5
256
100
AcDbEntity
  8
Capa_1
 62
7
100
AcDbSpline
 70
0
 71
3
 72
10
 73
6
 74
4
 40
0.000000
 40
0.000000
 40
0.000000
 40
0.000000
 40
1.163548
 40
2.325141
 40
3.488690
 40
3.488690
 40
3.488690
 40
3.488690
 10
34.430847
 20
117.901146
 30
0.0
 10
34.812050
 20
117.974165
 30
0.0
 10
35.573813
 20
118.120081
 30
0.0
 10
36.679327
 20
118.497395
 30
0.0
 10
37.371347
 20
118.847659
 30
0.0
 10
37.717648
 20
119.022939
 30
0.0
 11
34.430847
 21
117.901146
 31
0.0
 11
35.568203
 21
118.146637
 31
0.0
 11
36.667531
 21
118.521840
 31
0.0
 11
37.717648
 21
119.022939
 31
0.0
  0
LWPOLYLINE
  5
257
100
AcDbEntity
  8
Capa_1
 62
7
100
AcDbPolyline
 90
3
 70
0
 10
30.629817
 20
121.976962
 30
0.0
 10
37.091731
 20
123.746463
 30
0.0
 10
38.102105
 20
124.602342
 30
0.0
  0
SPLINE
  5
258
100
AcDbEntity
  8
Capa_1
 62
7
100
AcDbSpline
 70
0
 71
3
 72
13
 73
9
 74
7
 40
0.000000
 40
0.000000
 40
0.000000
 40
0.000000
 40
0.205641
 40
0.407293
 40
0.612933
 40
0.818574
 40
1.020226
 40
1.225867
 40
1.225867
 40
1.225867
 40
1.225867
 10
38.102286
 20
124.602148
 30
0.0
 10
38.149517
 20
124.653190
 30
0.0
 10
38.243062
 20
124.754285
 30
0.0
 10
38.291882
 20
124.961331
 30
0.0
 10
38.259172
 20
125.168240
 30
0.0
 10
38.144757
 20
125.343712
 30
0.0
 10
37.969747
 20
125.464637
 30
0.0
 10
37.832564
 20
125.476957
 30
0.0
 10
37.763301
 20
125.483177
 30
0.0
 11
38.102286
 21
124.602148
 31
0.0
 11
38.228401
 21
124.764576
 31
0.0
 11
38.278284
 21
124.959961
 31
0.0
 11
38.245466
 21
125.162966
 31
0.0
 11
38.133748
 21
125.335614
 31
0.0
 11
37.965766
 21
125.447173
 31
0.0
 11
37.763301
 21
125.483177
 31
0.0
  0
LWPOLYLINE
  5
259
100
AcDbEntity
  8
Capa_1
 62
7
100
AcDbPolyline
 90
2
 70
0
 10
37.832087
 20
121.044901
 30
0.0
 10
39.137382
 20
120.821929
 30
0.0
  0
LWPOLYLINE
  5
25a
100
AcDbEntity
  8
Capa_1
 62
7
100
AcDbPolyline
 90
2
 70
0
 10
30.629817
 20
121.976962
 30
0.0
 10
31.370174
 20
119.275401
 30
0.0
  0
LWPOLYLINE
  5
25b
100
AcDbEntity
  8
Capa_1
 62
7
100
AcDbPolyline
 90
4
 70
0
 10
99.118933
 20
242.287252
 30
0.0
 10
101.012134
 20
244.350208
 30
0.0
 10
96.074378
 20
248.881648
 30
0.0
 10
95.569663
 20
250.104322
 30
0.0
  0
SPLINE
  5
25c
100
AcDbEntity
  8
Capa_1
 62
7
100
AcDbSpline
 70
0
 71
3
 72
13
 73
9
 74
7
 40
0.000000
 40
0.000000
 40
0.000000
 40
0.000000
 40
0.205632
 40
0.407276
 40
0.612908
 40
0.818540
 40
1.020183
 40
1.225815
 40
1.225815
 40
1.225815
 40
1.225815
 10
39.294256
 20
119.891299
 30
0.0
 10
39.350687
 20
119.931934
 30
0.0
 10
39.462455
 20
120.012415
 30
0.0
 10
39.551453
 20
120.205616
 30
0.0
 10
39.560529
 20
120.414888
 30
0.0
 10
39.483289
 20
120.609596
 30
0.0
 10
39.335824
 20
120.762898
 30
0.0
 10
39.203837
 20
120.802250
 30
0.0
 10
39.137197
 20
120.822118
 30
0.0
 11
39.294256
 21
119.891299
 31
0.0
 11
39.450133
 21
120.025414
 31
0.0
 11
39.537856
 21
120.206976
 31
0.0
 11
39.546050
 21
120.412445
 31
0.0
 11
39.470891
 21
120.603849
 31
0.0
 11
39.328450
 21
120.746576
 31
0.0
 11
39.137197
 21
120.822118
 31
0.0
  0
LWPOLYLINE
  5
25d
100
AcDbEntity
  8
Capa_1
 62
7
100
AcDbPolyline
 90
2
 70
0
 10
96.274913
 20
250.731937
 30
0.0
 10
97.848249
 20
249.859774
 30
0.0
  0
SPLINE
  5
25e
100
AcDbEntity
  8
Capa_1
 62
7
100
AcDbSpline
 70
0
 71
3
 72
13
 73
9
 74
7
 40
0.000000
 40
0.000000
 40
0.000000
 40
0.000000
 40
0.205641
 40
0.407294
 40
0.612935
 40
0.818577
 40
1.020229
 40
1.225871
 40
1.225871
 40
1.225871
 40
1.225871
 10
96.274063
 20
250.732733
 30
0.0
 10
96.209631
 20
250.758897
 30
0.0
 10
96.082016
 20
250.810719
 30
0.0
 10
95.871069
 20
250.783283
 30
0.0
 10
95.689038
 20
250.679617
 30
0.0
 10
95.565271
 20
250.510610
 30
0.0
 10
95.513935
 20
250.304174
 30
0.0
 10
95.550851
 20
250.171477
 30
0.0
 10
95.569490
 20
250.104480
 30
0.0
 11
96.274063
 21
250.732733
 31
0.0
 11
96.077565
 21
250.793368
 31
0.0
 11
95.877152
 21
250.771045
 31
0.0
 11
95.698812
 21
250.668656
 31
0.0
 11
95.576735
 21
250.503170
 31
0.0
 11
95.531680
 21
250.306615
 31
0.0
 11
95.569490
 21
250.104480
 31
0.0
  0
LWPOLYLINE
  5
25f
100
AcDbEntity
  8
Capa_1
 62
7
100
AcDbPolyline
 90
2
 70
0
 10
100.546651
 20
247.673937
 30
0.0
 10
109.482365
 20
237.391335
 30
0.0
  0
SPLINE
  5
260
100
AcDbEntity
  8
Capa_1
 62
7
100
AcDbSpline
 70
0
 71
3
 72
10
 73
6
 74
4
 40
0.000000
 40
0.000000
 40
0.000000
 40
0.000000
 40
1.163556
 40
2.325157
 40
3.488713
 40
3.488713
 40
3.488713
 40
3.488713
 10
100.546804
 20
247.673790
 30
0.0
 10
100.282150
 20
247.957705
 30
0.0
 10
99.753288
 20
248.525056
 30
0.0
 10
98.845597
 20
249.260342
 30
0.0
 10
98.180820
 20
249.659911
 30
0.0
 10
97.848152
 20
249.859864
 30
0.0
 11
100.546804
 21
247.673790
 31
0.0
 11
99.733787
 21
248.506176
 31
0.0
 11
98.831176
 21
249.237347
 31
0.0
 11
97.848152
 21
249.859864
 31
0.0
  0
LWPOLYLINE
  5
261
100
AcDbEntity
  8
Capa_1
 62
7
100
AcDbPolyline
 90
2
 70
0
 10
95.767548
 20
242.466311
 30
0.0
 10
106.777794
 20
234.444257
 30
0.0
  0
LWPOLYLINE
  5
262
100
AcDbEntity
  8
Capa_1
 62
7
100
AcDbPolyline
 90
2
 70
0
 10
92.354868
 20
246.460398
 30
0.0
 10
93.358599
 20
244.967554
 30
0.0
  0
SPLINE
  5
263
100
AcDbEntity
  8
Capa_1
 62
7
100
AcDbSpline
 70
0
 71
3
 72
10
 73
6
 74
4
 40
0.000000
 40
0.000000
 40
0.000000
 40
0.000000
 40
1.163556
 40
2.325157
 40
3.488713
 40
3.488713
 40
3.488713
 40
3.488713
 10
93.358501
 20
244.967643
 30
0.0
 10
93.586215
 20
244.653326
 30
0.0
 10
94.041261
 20
244.025220
 30
0.0
 10
94.851597
 20
243.183851
 30
0.0
 10
95.462166
 20
242.705532
 30
0.0
 10
95.767708
 20
242.466171
 30
0.0
 11
93.358501
 21
244.967643
 31
0.0
 11
94.062936
 21
244.041558
 31
0.0
 11
94.868737
 21
243.204897
 31
0.0
 11
95.767708
 21
242.466171
 31
0.0
  0
LWPOLYLINE
  5
264
100
AcDbEntity
  8
Capa_1
 62
7
100
AcDbPolyline
 90
3
 70
0
 10
99.118933
 20
242.287252
 30
0.0
 10
94.181177
 20
246.818692
 30
0.0
 10
92.919764
 20
247.216817
 30
0.0
  0
LWPOLYLINE
  5
265
100
AcDbEntity
  8
Capa_1
 62
7
100
AcDbPolyline
 90
2
 70
0
 10
109.240185
 20
220.030999
 30
0.0
 10
110.681806
 20
233.576045
 30
0.0
  0
LWPOLYLINE
  5
266
100
AcDbEntity
  8
Capa_1
 62
7
100
AcDbPolyline
 90
2
 70
0
 10
102.339790
 20
221.566843
 30
0.0
 10
106.777794
 20
234.444257
 30
0.0
  0
LWPOLYLINE
  5
267
100
AcDbEntity
  8
Capa_1
 62
7
100
AcDbPolyline
 90
2
 70
0
 10
101.827648
 20
216.336509
 30
0.0
 10
101.795691
 20
218.136942
 30
0.0
  0
SPLINE
  5
268
100
AcDbEntity
  8
Capa_1
 62
7
100
AcDbSpline
 70
0
 71
3
 72
13
 73
9
 74
7
 40
0.000000
 40
0.000000
 40
0.000000
 40
0.000000
 40
0.205641
 40
0.407294
 40
0.612935
 40
0.818577
 40
1.020229
 40
1.225871
 40
1.225871
 40
1.225871
 40
1.225871
 10
92.919589
 20
247.216979
 30
0.0
 10
92.851241
 20
247.229810
 30
0.0
 10
92.715870
 20
247.255223
 30
0.0
 10
92.514590
 20
247.186392
 30
0.0
 10
92.356806
 20
247.048603
 30
0.0
 10
92.269114
 20
246.858362
 30
0.0
 10
92.259849
 20
246.645839
 30
0.0
 10
92.322412
 20
246.523133
 30
0.0
 10
92.354000
 20
246.461179
 30
0.0
 11
92.919589
 21
247.216979
 31
0.0
 11
92.714957
 21
247.237334
 31
0.0
 11
92.522985
 21
247.175608
 31
0.0
 11
92.368564
 21
247.039804
 31
0.0
 11
92.281828
 21
246.853349
 31
0.0
 11
92.276754
 21
246.651761
 31
0.0
 11
92.354000
 21
246.461179
 31
0.0
  0
SPLINE
  5
269
100
AcDbEntity
  8
Capa_1
 62
7
100
AcDbSpline
 70
0
 71
3
 72
10
 73
6
 74
4
 40
0.000000
 40
0.000000
 40
0.000000
 40
0.000000
 40
1.163548
 40
2.325140
 40
3.488688
 40
3.488688
 40
3.488688
 40
3.488688
 10
108.277827
 20
216.694425
 30
0.0
 10
108.436176
 20
217.048787
 30
0.0
 10
108.752606
 20
217.756916
 30
0.0
 10
109.076084
 20
218.879364
 30
0.0
 10
109.185037
 20
219.647286
 30
0.0
 10
109.239559
 20
220.031570
 30
0.0
 11
108.277827
 21
216.694425
 31
0.0
 11
108.727620
 21
217.767519
 31
0.0
 11
109.049288
 21
218.883685
 31
0.0
 11
109.239559
 21
220.031570
 31
0.0
  0
LWPOLYLINE
  5
26a
100
AcDbEntity
  8
Capa_1
 62
7
100
AcDbPolyline
 90
2
 70
0
 10
107.487593
 20
215.076849
 30
0.0
 10
108.278447
 20
216.693849
 30
0.0
  0
LWPOLYLINE
  5
26b
100
AcDbEntity
  8
Capa_1
 62
7
100
AcDbPolyline
 90
2
 70
0
 10
104.984913
 20
223.631301
 30
0.0
 10
103.529587
 20
217.091467
 30
0.0
  0
SPLINE
  5
26c
100
AcDbEntity
  8
Capa_1
 62
7
100
AcDbSpline
 70
0
 71
3
 72
10
 73
6
 74
4
 40
0.000000
 40
0.000000
 40
0.000000
 40
0.000000
 40
1.163548
 40
2.325141
 40
3.488689
 40
3.488689
 40
3.488689
 40
3.488689
 10
102.340084
 20
221.566577
 30
0.0
 10
102.226535
 20
221.195425
 30
0.0
 10
101.999627
 20
220.453745
 30
0.0
 10
101.816699
 20
219.300028
 30
0.0
 10
101.803050
 20
218.524535
 30
0.0
 10
101.796220
 20
218.136462
 30
0.0
 11
102.340084
 21
221.566577
 31
0.0
 11
102.025728
 21
220.446297
 31
0.0
 11
101.843823
 21
219.299036
 31
0.0
 11
101.796220
 21
218.136462
 31
0.0
  0
LWPOLYLINE
  5
26d
100
AcDbEntity
  8
Capa_1
 62
7
100
AcDbPolyline
 90
3
 70
0
 10
107.719079
 20
223.022293
 30
0.0
 10
106.263753
 20
216.482459
 30
0.0
 10
106.549510
 20
215.189457
 30
0.0
  0
SPLINE
  5
26e
100
AcDbEntity
  8
Capa_1
 62
7
100
AcDbSpline
 70
0
 71
3
 72
13
 73
9
 74
7
 40
0.000000
 40
0.000000
 40
0.000000
 40
0.000000
 40
0.205632
 40
0.407275
 40
0.612907
 40
0.818539
 40
1.020183
 40
1.225814
 40
1.225814
 40
1.225814
 40
1.225814
 10
106.549312
 20
215.189634
 30
0.0
 10
106.572376
 20
215.124031
 30
0.0
 10
106.618057
 20
214.994098
 30
0.0
 10
106.778302
 20
214.854210
 30
0.0
 10
106.976514
 20
214.786464
 30
0.0
 10
107.185104
 20
214.805638
 30
0.0
 10
107.373780
 20
214.903864
 30
0.0
 10
107.448768
 20
215.019389
 30
0.0
 10
107.486630
 20
215.077717
 30
0.0
 11
106.549312
 21
215.189634
 31
0.0
 11
106.634004
 21
215.002252
 31
0.0
 11
106.783444
 21
214.866872
 31
0.0
 11
106.978255
 21
214.801045
 31
0.0
 11
107.183088
 21
214.819154
 31
0.0
 11
107.360201
 21
214.915543
 31
0.0
 11
107.486630
 21
215.077717
 31
0.0
  0
LWPOLYLINE
  5
26f
100
AcDbEntity
  8
Capa_1
 62
7
100
AcDbPolyline
 90
2
 70
0
 10
103.529587
 20
217.091467
 30
0.0
 10
102.723508
 20
216.040933
 30
0.0
  0
LWPOLYLINE
  5
270
100
AcDbEntity
  8
Capa_1
 62
7
100
AcDbPolyline
 90
2
 70
0
 10
107.719079
 20
223.022293
 30
0.0
 10
104.984913
 20
223.631301
 30
0.0
  0
LWPOLYLINE
  5
271
100
AcDbEntity
  8
Capa_1
 62
7
100
AcDbPolyline
 90
2
 70
0
 10
121.932283
 20
242.916116
 30
0.0
 10
109.482365
 20
237.391335
 30
0.0
  0
LWPOLYLINE
  5
272
100
AcDbEntity
  8
Capa_1
 62
7
100
AcDbPolyline
 90
2
 70
0
 10
124.053575
 20
236.172646
 30
0.0
 10
110.681806
 20
233.576045
 30
0.0
  0
LWPOLYLINE
  5
273
100
AcDbEntity
  8
Capa_1
 62
7
100
AcDbPolyline
 90
2
 70
0
 10
128.839387
 20
238.343172
 30
0.0
 10
127.296075
 20
237.416711
 30
0.0
  0
SPLINE
  5
274
100
AcDbEntity
  8
Capa_1
 62
7
100
AcDbSpline
 70
0
 71
3
 72
13
 73
9
 74
7
 40
0.000000
 40
0.000000
 40
0.000000
 40
0.000000
 40
0.205641
 40
0.407292
 40
0.612933
 40
0.818574
 40
1.020225
 40
1.225866
 40
1.225866
 40
1.225866
 40
1.225866
 10
101.827337
 20
216.336797
 30
0.0
 10
101.836896
 20
216.267916
 30
0.0
 10
101.855827
 20
216.131488
 30
0.0
 10
101.985064
 20
215.962523
 30
0.0
 10
102.165857
 20
215.856717
 30
0.0
 10
102.374105
 20
215.834039
 30
0.0
 10
102.578551
 20
215.892802
 30
0.0
 10
102.675009
 20
215.991121
 30
0.0
 10
102.723711
 20
216.040762
 30
0.0
 11
101.827337
 21
216.336797
 31
0.0
 11
101.873078
 21
216.136309
 31
0.0
 11
101.992621
 21
215.973911
 31
0.0
 11
102.170463
 21
215.870662
 31
0.0
 11
102.374816
 21
215.847687
 31
0.0
 11
102.567563
 21
215.906949
 31
0.0
 11
102.723711
 21
216.040762
 31
0.0
  0
SPLINE
  5
275
100
AcDbEntity
  8
Capa_1
 62
7
100
AcDbSpline
 70
0
 71
3
 72
10
 73
6
 74
4
 40
0.000000
 40
0.000000
 40
0.000000
 40
0.000000
 40
1.163548
 40
2.325141
 40
3.488689
 40
3.488689
 40
3.488689
 40
3.488689
 10
125.303493
 20
243.751537
 30
0.0
 10
124.917432
 20
243.711489
 30
0.0
 10
124.145958
 20
243.631461
 30
0.0
 10
123.012151
 20
243.350377
 30
0.0
 10
122.292635
 20
243.060771
 30
0.0
 10
121.932574
 20
242.915846
 30
0.0
 11
125.303493
 21
243.751537
 31
0.0
 11
124.149269
 21
243.604522
 31
0.0
 11
123.021807
 21
243.325010
 31
0.0
 11
121.932574
 21
242.915846
 31
0.0
  0
LWPOLYLINE
  5
276
100
AcDbEntity
  8
Capa_1
 62
7
100
AcDbPolyline
 90
2
 70
0
 10
127.099522
 20
243.874409
 30
0.0
 10
125.302969
 20
243.752023
 30
0.0
  0
LWPOLYLINE
  5
277
100
AcDbEntity
  8
Capa_1
 62
7
100
AcDbPolyline
 90
2
 70
0
 10
120.942977
 20
237.431925
 30
0.0
 10
127.334108
 20
239.442108
 30
0.0
  0
SPLINE
  5
278
100
AcDbEntity
  8
Capa_1
 62
7
100
AcDbSpline
 70
0
 71
3
 72
10
 73
6
 74
4
 40
0.000000
 40
0.000000
 40
0.000000
 40
0.000000
 40
1.163548
 40
2.325140
 40
3.488688
 40
3.488688
 40
3.488688
 40
3.488688
 10
124.052953
 20
236.173221
 30
0.0
 10
124.431154
 20
236.260460
 30
0.0
 10
125.186920
 20
236.434793
 30
0.0
 10
126.277533
 20
236.853232
 30
0.0
 10
126.955953
 20
237.229158
 30
0.0
 10
127.295449
 20
237.417279
 30
0.0
 11
124.052953
 21
236.173221
 31
0.0
 11
125.180320
 21
236.461121
 31
0.0
 11
126.264829
 21
236.877218
 31
0.0
 11
127.295449
 21
237.417279
 31
0.0
  0
LWPOLYLINE
  5
279
100
AcDbEntity
  8
Capa_1
 62
7
100
AcDbPolyline
 90
3
 70
0
 10
120.101997
 20
240.103872
 30
0.0
 10
126.493129
 20
242.114056
 30
0.0
 10
127.470752
 20
243.007162
 30
0.0
  0
SPLINE
  5
27a
100
AcDbEntity
  8
Capa_1
 62
7
100
AcDbSpline
 70
0
 71
3
 72
13
 73
9
 74
7
 40
0.000000
 40
0.000000
 40
0.000000
 40
0.000000
 40
0.205641
 40
0.407292
 40
0.612933
 40
0.818574
 40
1.020225
 40
1.225866
 40
1.225866
 40
1.225866
 40
1.225866
 10
127.470939
 20
243.006974
 30
0.0
 10
127.516226
 20
243.059749
 30
0.0
 10
127.605921
 20
243.164275
 30
0.0
 10
127.646955
 20
243.373003
 30
0.0
 10
127.606522
 20
243.578543
 30
0.0
 10
127.485617
 20
243.749608
 30
0.0
 10
127.306203
 20
243.863896
 30
0.0
 10
127.168656
 20
243.871072
 30
0.0
 10
127.099208
 20
243.874695
 30
0.0
 11
127.470939
 21
243.006974
 31
0.0
 11
127.590885
 21
243.174011
 31
0.0
 11
127.633418
 21
243.371126
 31
0.0
 11
127.593022
 21
243.572760
 31
0.0
 11
127.474919
 21
243.741104
 31
0.0
 11
127.302878
 21
243.846295
 31
0.0
 11
127.099208
 21
243.874695
 31
0.0
  0
LWPOLYLINE
  5
27b
100
AcDbEntity
  8
Capa_1
 62
7
100
AcDbPolyline
 90
2
 70
0
 10
127.334108
 20
239.442108
 30
0.0
 10
128.646836
 20
239.268161
 30
0.0
  0
SPLINE
  5
27c
100
AcDbEntity
  8
Capa_1
 62
7
100
AcDbSpline
 70
0
 71
3
 72
13
 73
9
 74
7
 40
0.000000
 40
0.000000
 40
0.000000
 40
0.000000
 40
0.205632
 40
0.407275
 40
0.612907
 40
0.818539
 40
1.020183
 40
1.225814
 40
1.225814
 40
1.225814
 40
1.225814
 10
128.838440
 20
238.344057
 30
0.0
 10
128.893311
 20
238.386776
 30
0.0
 10
129.001987
 20
238.471385
 30
0.0
 10
129.083690
 20
238.667782
 30
0.0
 10
129.084925
 20
238.877247
 30
0.0
 10
129.000449
 20
239.068927
 30
0.0
 10
128.847348
 20
239.216600
 30
0.0
 10
128.713980
 20
239.250983
 30
0.0
 10
128.646643
 20
239.268343
 30
0.0
 11
128.838440
 21
238.344057
 31
0.0
 11
128.989187
 21
238.483913
 31
0.0
 11
129.070051
 21
238.668632
 31
0.0
 11
129.070547
 21
238.874264
 31
0.0
 11
128.988275
 21
239.062720
 31
0.0
 11
128.840591
 21
239.200013
 31
0.0
 11
128.646643
 21
239.268343
 31
0.0
  0
LWPOLYLINE
  5
27d
100
AcDbEntity
  8
Capa_1
 62
7
100
AcDbPolyline
 90
2
 70
0
 10
120.101997
 20
240.103872
 30
0.0
 10
120.942977
 20
237.431925
 30
0.0
  0
SPLINE
  5
27e
100
AcDbEntity
  8
Capa_1
 62
7
100
AcDbSpline
 70
0
 71
3
 72
10
 73
6
 74
4
 40
0.000000
 40
0.000000
 40
0.000000
 40
0.000000
 40
0.522859
 40
1.030210
 40
1.553070
 40
1.553070
 40
1.553070
 40
1.553070
 10
181.384830
 20
238.947453
 30
0.0
 10
181.560056
 20
238.919948
 30
0.0
 10
181.905310
 20
238.865753
 30
0.0
 10
182.303130
 20
238.467933
 30
0.0
 10
182.357325
 20
238.122679
 30
0.0
 10
182.384830
 20
237.947453
 30
0.0
 11
181.384830
 21
238.947453
 31
0.0
 11
181.889549
 21
238.810924
 31
0.0
 11
182.248301
 21
238.452172
 31
0.0
 11
182.384830
 21
237.947453
 31
0.0
  0
LWPOLYLINE
  5
27f
100
AcDbEntity
  8
Capa_1
 62
7
100
AcDbPolyline
 90
3
 70
0
 10
182.384830
 20
237.947453
 30
0.0
 10
182.384830
 20
230.347453
 30
0.0
 10
162.384830
 20
230.347453
 30
0.0
  0
SPLINE
  5
280
100
AcDbEntity
  8
Capa_1
 62
7
100
AcDbSpline
 70
0
 71
3
 72
13
 73
9
 74
7
 40
0.000000
 40
0.000000
 40
0.000000
 40
0.000000
 40
7.280616
 40
14.500981
 40
21.781597
 40
29.062212
 40
36.282578
 40
43.563194
 40
43.563194
 40
43.563194
 40
43.563194
 10
162.384830
 20
230.347453
 30
0.0
 10
159.950867
 20
230.162049
 30
0.0
 10
155.103084
 20
229.792775
 30
0.0
 10
148.321250
 20
226.874544
 30
0.0
 10
142.485038
 20
222.434742
 30
0.0
 10
138.045234
 20
216.598532
 30
0.0
 10
135.127001
 20
209.816699
 30
0.0
 10
134.757725
 20
204.968916
 30
0.0
 10
134.572320
 20
202.534953
 30
0.0
 11
162.384830
 21
230.347453
 31
0.0
 11
155.166838
 21
229.394584
 31
0.0
 11
148.496089
 21
226.631472
 31
0.0
 11
142.718416
 21
222.201364
 31
0.0
 11
138.288306
 21
216.423692
 31
0.0
 11
135.525191
 21
209.752944
 31
0.0
 11
134.572320
 21
202.534953
 31
0.0
  0
LWPOLYLINE
  5
281
100
AcDbEntity
  8
Capa_1
 62
7
100
AcDbPolyline
 90
3
 70
0
 10
134.572320
 20
202.534953
 30
0.0
 10
134.572320
 20
182.534960
 30
0.0
 10
126.972320
 20
182.534960
 30
0.0
  0
SPLINE
  5
282
100
AcDbEntity
  8
Capa_1
 62
7
100
AcDbSpline
 70
0
 71
3
 72
10
 73
6
 74
4
 40
0.000000
 40
0.000000
 40
0.000000
 40
0.000000
 40
0.522859
 40
1.030210
 40
1.553070
 40
1.553070
 40
1.553070
 40
1.553070
 10
126.972320
 20
182.534960
 30
0.0
 10
126.797094
 20
182.562465
 30
0.0
 10
126.451840
 20
182.616660
 30
0.0
 10
126.054020
 20
183.014480
 30
0.0
 10
125.999825
 20
183.359734
 30
0.0
 10
125.972320
 20
183.534960
 30
0.0
 11
126.972320
 21
182.534960
 31
0.0
 11
126.467601
 21
182.671489
 31
0.0
 11
126.108849
 21
183.030241
 31
0.0
 11
125.972320
 21
183.534960
 31
0.0
  0
LWPOLYLINE
  5
283
100
AcDbEntity
  8
Capa_1
 62
7
100
AcDbPolyline
 90
4
 70
0
 10
125.972320
 20
183.534960
 30
0.0
 10
125.972320
 20
197.534957
 30
0.0
 10
123.172320
 20
197.534957
 30
0.0
 10
123.172320
 20
183.534960
 30
0.0
  0
SPLINE
  5
284
100
AcDbEntity
  8
Capa_1
 62
7
100
AcDbSpline
 70
0
 71
3
 72
10
 73
6
 74
4
 40
0.000000
 40
0.000000
 40
0.000000
 40
0.000000
 40
0.522859
 40
1.030210
 40
1.553070
 40
1.553070
 40
1.553070
 40
1.553070
 10
123.172320
 20
183.534960
 30
0.0
 10
123.144815
 20
183.359734
 30
0.0
 10
123.090620
 20
183.014480
 30
0.0
 10
122.692800
 20
182.616660
 30
0.0
 10
122.347546
 20
182.562465
 30
0.0
 10
122.172320
 20
182.534960
 30
0.0
 11
123.172320
 21
183.534960
 31
0.0
 11
123.035791
 21
183.030241
 31
0.0
 11
122.677039
 21
182.671489
 31
0.0
 11
122.172320
 21
182.534960
 31
0.0
  0
LWPOLYLINE
  5
285
100
AcDbEntity
  8
Capa_1
 62
7
100
AcDbPolyline
 90
3
 70
0
 10
122.172320
 20
182.534960
 30
0.0
 10
114.572320
 20
182.534960
 30
0.0
 10
114.572320
 20
202.534953
 30
0.0
  0
SPLINE
  5
286
100
AcDbEntity
  8
Capa_1
 62
7
100
AcDbSpline
 70
0
 71
3
 72
13
 73
9
 74
7
 40
0.000000
 40
0.000000
 40
0.000000
 40
0.000000
 40
12.516113
 40
24.928651
 40
37.444764
 40
49.960877
 40
62.373415
 40
74.889528
 40
74.889528
 40
74.889528
 40
74.889528
 10
114.572320
 20
202.534953
 30
0.0
 10
114.891050
 20
206.719180
 30
0.0
 10
115.525872
 20
215.053009
 30
0.0
 10
120.542609
 20
226.711666
 30
0.0
 10
128.175079
 20
236.744701
 30
0.0
 10
138.208116
 20
244.377169
 30
0.0
 10
149.866774
 20
249.393903
 30
0.0
 10
158.200603
 20
250.028724
 30
0.0
 10
162.384830
 20
250.347453
 30
0.0
 11
114.572320
 21
202.534953
 31
0.0
 11
116.210402
 21
214.943409
 31
0.0
 11
120.960475
 21
226.411098
 31
0.0
 11
128.576281
 21
236.343500
 31
0.0
 11
138.508683
 21
243.959303
 31
0.0
 11
149.976374
 21
248.709374
 31
0.0
 11
162.384830
 21
250.347453
 31
0.0
  0
LWPOLYLINE
  5
287
100
AcDbEntity
  8
Capa_1
 62
7
100
AcDbPolyline
 90
3
 70
0
 10
162.384830
 20
250.347453
 30
0.0
 10
182.384830
 20
250.347453
 30
0.0
 10
182.384830
 20
242.747453
 30
0.0
  0
SPLINE
  5
288
100
AcDbEntity
  8
Capa_1
 62
7
100
AcDbSpline
 70
0
 71
3
 72
10
 73
6
 74
4
 40
0.000000
 40
0.000000
 40
0.000000
 40
0.000000
 40
0.522859
 40
1.030210
 40
1.553070
 40
1.553070
 40
1.553070
 40
1.553070
 10
182.384830
 20
242.747453
 30
0.0
 10
182.357325
 20
242.572227
 30
0.0
 10
182.303130
 20
242.226973
 30
0.0
 10
181.905310
 20
241.829153
 30
0.0
 10
181.560056
 20
241.774958
 30
0.0
 10
181.384830
 20
241.747453
 30
0.0
 11
182.384830
 21
242.747453
 31
0.0
 11
182.248301
 21
242.242734
 31
0.0
 11
181.889549
 21
241.883982
 31
0.0
 11
181.384830
 21
241.747453
 31
0.0
  0
LWPOLYLINE
  5
289
100
AcDbEntity
  8
Capa_1
 62
7
100
AcDbPolyline
 90
4
 70
0
 10
181.384830
 20
241.747453
 30
0.0
 10
167.384830
 20
241.747453
 30
0.0
 10
167.384830
 20
238.947453
 30
0.0
 10
181.384830
 20
238.947453
 30
0.0
  0
SPLINE
  5
28a
100
AcDbEntity
  8
Capa_1
 62
7
100
AcDbSpline
 70
0
 71
3
 72
13
 73
9
 74
7
 40
0.000000
 40
0.000000
 40
0.000000
 40
0.000000
 40
0.261776
 40
0.521385
 40
0.783160
 40
1.044936
 40
1.304545
 40
1.566321
 40
1.566321
 40
1.566321
 40
1.566321
 10
156.779860
 20
30.750220
 30
0.0
 10
156.697119
 20
30.720945
 30
0.0
 10
156.532323
 20
30.662637
 30
0.0
 10
156.266877
 20
30.660050
 30
0.0
 10
156.010417
 20
30.721246
 30
0.0
 10
155.779588
 20
30.848659
 30
0.0
 10
155.585056
 20
31.029285
 30
0.0
 10
155.502460
 20
31.183348
 30
0.0
 10
155.460990
 20
31.260700
 30
0.0
 11
156.779860
 21
30.750220
 31
0.0
 11
156.528633
 21
30.676659
 31
0.0
 11
156.269094
 21
30.670585
 31
0.0
 11
156.014701
 21
30.732312
 31
0.0
 11
155.785041
 21
30.857942
 31
0.0
 11
155.597225
 21
31.037168
 31
0.0
 11
155.460990
 21
31.260700
 31
0.0
  0
LWPOLYLINE
  5
28b
100
AcDbEntity
  8
Capa_1
 62
7
100
AcDbPolyline
 90
3
 70
0
 10
155.460990
 20
31.260700
 30
0.0
 10
152.389100
 20
38.212200
 30
0.0
 10
170.682540
 20
46.296140
 30
0.0
  0
SPLINE
  5
28c
100
AcDbEntity
  8
Capa_1
 62
7
100
AcDbSpline
 70
0
 71
3
 72
13
 73
9
 74
7
 40
0.000000
 40
0.000000
 40
0.000000
 40
0.000000
 40
7.280615
 40
14.500981
 40
21.781596
 40
29.062212
 40
36.282578
 40
43.563193
 40
43.563193
 40
43.563193
 40
43.563193
 10
170.682540
 20
46.296140
 30
0.0
 10
172.833878
 20
47.449523
 30
0.0
 10
177.118751
 20
49.746746
 30
0.0
 10
182.142367
 20
55.157164
 30
0.0
 10
185.686035
 20
61.577104
 30
0.0
 10
187.388023
 20
68.709876
 30
0.0
 10
187.316056
 20
76.092570
 30
0.0
 10
185.694365
 20
80.675962
 30
0.0
 10
184.880150
 20
82.977180
 30
0.0
 11
170.682540
 21
46.296140
 31
0.0
 11
176.899489
 21
50.085190
 31
0.0
 11
181.884197
 21
55.308826
 31
0.0
 11
185.378239
 21
61.696238
 31
0.0
 11
187.095022
 21
68.771548
 31
0.0
 11
186.926072
 21
75.989937
 31
0.0
 11
184.880150
 21
82.977180
 31
0.0
  0
LWPOLYLINE
  5
28d
100
AcDbEntity
  8
Capa_1
 62
7
100
AcDbPolyline
 90
3
 70
0
 10
184.880150
 20
82.977180
 30
0.0
 10
176.796220
 20
101.270620
 30
0.0
 10
183.747730
 20
104.342510
 30
0.0
  0
SPLINE
  5
28e
100
AcDbEntity
  8
Capa_1
 62
7
100
AcDbSpline
 70
0
 71
3
 72
10
 73
6
 74
4
 40
0.000000
 40
0.000000
 40
0.000000
 40
0.000000
 40
0.522859
 40
1.030210
 40
1.553068
 40
1.553068
 40
1.553068
 40
1.553068
 10
183.747730
 20
104.342510
 30
0.0
 10
183.919121
 20
104.388178
 30
0.0
 10
184.256821
 20
104.478160
 30
0.0
 10
184.781493
 20
104.275084
 30
0.0
 10
184.970616
 20
103.981196
 30
0.0
 10
185.066600
 20
103.832040
 30
0.0
 11
183.747730
 21
104.342510
 31
0.0
 11
184.264567
 21
104.421638
 31
0.0
 11
184.737713
 21
104.238506
 31
0.0
 11
185.066600
 21
103.832040
 31
0.0
  0
LWPOLYLINE
  5
28f
100
AcDbEntity
  8
Capa_1
 62
7
100
AcDbPolyline
 90
4
 70
0
 10
185.066600
 20
103.832040
 30
0.0
 10
190.725350
 20
91.026630
 30
0.0
 10
193.286430
 20
92.158380
 30
0.0
 10
187.627680
 20
104.963790
 30
0.0
  0
SPLINE
  5
290
100
AcDbEntity
  8
Capa_1
 62
7
100
AcDbSpline
 70
0
 71
3
 72
10
 73
6
 74
4
 40
0.000000
 40
0.000000
 40
0.000000
 40
0.000000
 40
0.522859
 40
1.030210
 40
1.553068
 40
1.553068
 40
1.553068
 40
1.553068
 10
187.627680
 20
104.963790
 30
0.0
 10
187.582012
 20
105.135181
 30
0.0
 10
187.492030
 20
105.472881
 30
0.0
 10
187.695106
 20
105.997553
 30
0.0
 10
187.988994
 20
106.186676
 30
0.0
 10
188.138150
 20
106.282660
 30
0.0
 11
187.627680
 21
104.963790
 31
0.0
 11
187.548552
 21
105.480627
 31
0.0
 11
187.731684
 21
105.953773
 31
0.0
 11
188.138150
 21
106.282660
 31
0.0
  0
LWPOLYLINE
  5
291
100
AcDbEntity
  8
Capa_1
 62
7
100
AcDbPolyline
 90
3
 70
0
 10
188.138150
 20
106.282660
 30
0.0
 10
195.089660
 20
109.354550
 30
0.0
 10
203.173590
 20
91.061110
 30
0.0
  0
SPLINE
  5
292
100
AcDbEntity
  8
Capa_1
 62
7
100
AcDbSpline
 70
0
 71
3
 72
13
 73
9
 74
7
 40
0.000000
 40
0.000000
 40
0.000000
 40
0.000000
 40
12.516112
 40
24.928649
 40
37.444761
 40
49.960872
 40
62.373409
 40
74.889521
 40
74.889521
 40
74.889521
 40
74.889521
 10
203.173590
 20
91.061110
 30
0.0
 10
204.573307
 20
87.105085
 30
0.0
 10
207.361157
 20
79.225771
 30
0.0
 10
207.484875
 20
66.534176
 30
0.0
 10
204.558986
 20
54.272221
 30
0.0
 10
198.467065
 20
43.235697
 30
0.0
 10
189.830964
 20
33.934641
 30
0.0
 10
182.464837
 20
29.985483
 30
0.0
 10
178.766470
 20
28.002700
 30
0.0
 11
203.173590
 21
91.061110
 31
0.0
 11
206.690736
 21
79.049335
 31
0.0
 11
206.981177
 21
66.640197
 31
0.0
 11
204.029855
 21
54.477025
 31
0.0
 11
198.023245
 21
43.496419
 31
0.0
 11
189.454032
 21
34.516461
 31
0.0
 11
178.766470
 21
28.002700
 31
0.0
  0
LWPOLYLINE
  5
293
100
AcDbEntity
  8
Capa_1
 62
7
100
AcDbPolyline
 90
3
 70
0
 10
178.766470
 20
28.002700
 30
0.0
 10
160.473030
 20
19.918770
 30
0.0
 10
157.401130
 20
26.870270
 30
0.0
  0
SPLINE
  5
294
100
AcDbEntity
  8
Capa_1
 62
7
100
AcDbSpline
 70
0
 71
3
 72
13
 73
9
 74
7
 40
0.000000
 40
0.000000
 40
0.000000
 40
0.000000
 40
0.261776
 40
0.521385
 40
0.783160
 40
1.044936
 40
1.304545
 40
1.566321
 40
1.566321
 40
1.566321
 40
1.566321
 10
157.401130
 20
26.870270
 30
0.0
 10
157.371855
 20
26.953011
 30
0.0
 10
157.313547
 20
27.117807
 30
0.0
 10
157.310960
 20
27.383253
 30
0.0
 10
157.372156
 20
27.639713
 30
0.0
 10
157.499569
 20
27.870542
 30
0.0
 10
157.680195
 20
28.065074
 30
0.0
 10
157.834258
 20
28.147670
 30
0.0
 10
157.911610
 20
28.189140
 30
0.0
 11
157.401130
 21
26.870270
 31
0.0
 11
157.327569
 21
27.121497
 31
0.0
 11
157.321495
 21
27.381036
 31
0.0
 11
157.383222
 21
27.635429
 31
0.0
 11
157.508852
 21
27.865089
 31
0.0
 11
157.688078
 21
28.052905
 31
0.0
 11
157.911610
 21
28.189140
 31
0.0
  0
LWPOLYLINE
  5
295
100
AcDbEntity
  8
Capa_1
 62
7
100
AcDbPolyline
 90
4
 70
0
 10
157.911610
 20
28.189140
 30
0.0
 10
170.717020
 20
33.847890
 30
0.0
 10
169.585270
 20
36.408980
 30
0.0
 10
156.779860
 20
30.750220
 30
0.0
  0
SPLINE
  5
296
100
AcDbEntity
  8
Capa_1
 62
7
100
AcDbSpline
 70
0
 71
3
 72
10
 73
6
 74
4
 40
0.000000
 40
0.000000
 40
0.000000
 40
0.000000
 40
0.522859
 40
1.030210
 40
1.553070
 40
1.553070
 40
1.553070
 40
1.553070
 10
70.031254
 20
95.285950
 30
0.0
 10
70.206480
 20
95.258445
 30
0.0
 10
70.551734
 20
95.204250
 30
0.0
 10
70.949554
 20
94.806430
 30
0.0
 10
71.003749
 20
94.461176
 30
0.0
 10
71.031254
 20
94.285950
 30
0.0
 11
70.031254
 21
95.285950
 31
0.0
 11
70.535973
 21
95.149421
 31
0.0
 11
70.894725
 21
94.790669
 31
0.0
 11
71.031254
 21
94.285950
 31
0.0
  0
LWPOLYLINE
  5
297
100
AcDbEntity
  8
Capa_1
 62
7
100
AcDbPolyline
 90
3
 70
0
 10
71.031254
 20
94.285950
 30
0.0
 10
71.031254
 20
86.685950
 30
0.0
 10
51.031254
 20
86.685950
 30
0.0
  0
SPLINE
  5
298
100
AcDbEntity
  8
Capa_1
 62
7
100
AcDbSpline
 70
0
 71
3
 72
13
 73
9
 74
7
 40
0.000000
 40
0.000000
 40
0.000000
 40
0.000000
 40
7.280616
 40
14.500981
 40
21.781597
 40
29.062212
 40
36.282578
 40
43.563194
 40
43.563194
 40
43.563194
 40
43.563194
 10
51.031254
 20
86.685950
 30
0.0
 10
48.597291
 20
86.500546
 30
0.0
 10
43.749508
 20
86.131272
 30
0.0
 10
36.967674
 20
83.213041
 30
0.0
 10
31.131462
 20
78.773239
 30
0.0
 10
26.691658
 20
72.937029
 30
0.0
 10
23.773425
 20
66.155196
 30
0.0
 10
23.404149
 20
61.307413
 30
0.0
 10
23.218744
 20
58.873450
 30
0.0
 11
51.031254
 21
86.685950
 31
0.0
 11
43.813262
 21
85.733081
 31
0.0
 11
37.142513
 21
82.969969
 31
0.0
 11
31.364840
 21
78.539861
 31
0.0
 11
26.934730
 21
72.762189
 31
0.0
 11
24.171615
 21
66.091441
 31
0.0
 11
23.218744
 21
58.873450
 31
0.0
  0
LWPOLYLINE
  5
299
100
AcDbEntity
  8
Capa_1
 62
7
100
AcDbPolyline
 90
3
 70
0
 10
23.218744
 20
58.873450
 30
0.0
 10
23.218744
 20
38.873450
 30
0.0
 10
15.618744
 20
38.873450
 30
0.0
  0
SPLINE
  5
29a
100
AcDbEntity
  8
Capa_1
 62
7
100
AcDbSpline
 70
0
 71
3
 72
10
 73
6
 74
4
 40
0.000000
 40
0.000000
 40
0.000000
 40
0.000000
 40
0.522859
 40
1.030210
 40
1.553070
 40
1.553070
 40
1.553070
 40
1.553070
 10
15.618744
 20
38.873450
 30
0.0
 10
15.443518
 20
38.900955
 30
0.0
 10
15.098264
 20
38.955150
 30
0.0
 10
14.700444
 20
39.352970
 30
0.0
 10
14.646249
 20
39.698224
 30
0.0
 10
14.618744
 20
39.873450
 30
0.0
 11
15.618744
 21
38.873450
 31
0.0
 11
15.114025
 21
39.009979
 31
0.0
 11
14.755273
 21
39.368731
 31
0.0
 11
14.618744
 21
39.873450
 31
0.0
  0
LWPOLYLINE
  5
29b
100
AcDbEntity
  8
Capa_1
 62
7
100
AcDbPolyline
 90
4
 70
0
 10
14.618744
 20
39.873450
 30
0.0
 10
14.618744
 20
53.873450
 30
0.0
 10
11.818744
 20
53.873450
 30
0.0
 10
11.818744
 20
39.873450
 30
0.0
  0
SPLINE
  5
29c
100
AcDbEntity
  8
Capa_1
 62
7
100
AcDbSpline
 70
0
 71
3
 72
10
 73
6
 74
4
 40
0.000000
 40
0.000000
 40
0.000000
 40
0.000000
 40
0.522859
 40
1.030210
 40
1.553070
 40
1.553070
 40
1.553070
 40
1.553070
 10
11.818744
 20
39.873450
 30
0.0
 10
11.791239
 20
39.698224
 30
0.0
 10
11.737044
 20
39.352970
 30
0.0
 10
11.339224
 20
38.955150
 30
0.0
 10
10.993970
 20
38.900955
 30
0.0
 10
10.818744
 20
38.873450
 30
0.0
 11
11.818744
 21
39.873450
 31
0.0
 11
11.682215
 21
39.368731
 31
0.0
 11
11.323463
 21
39.009979
 31
0.0
 11
10.818744
 21
38.873450
 31
0.0
  0
LWPOLYLINE
  5
29d
100
AcDbEntity
  8
Capa_1
 62
7
100
AcDbPolyline
 90
3
 70
0
 10
10.818744
 20
38.873450
 30
0.0
 10
3.218744
 20
38.873450
 30
0.0
 10
3.218744
 20
58.873450
 30
0.0
  0
SPLINE
  5
29e
100
AcDbEntity
  8
Capa_1
 62
7
100
AcDbSpline
 70
0
 71
3
 72
13
 73
9
 74
7
 40
0.000000
 40
0.000000
 40
0.000000
 40
0.000000
 40
12.516113
 40
24.928651
 40
37.444764
 40
49.960877
 40
62.373415
 40
74.889528
 40
74.889528
 40
74.889528
 40
74.889528
 10
3.218744
 20
58.873450
 30
0.0
 10
3.537474
 20
63.057677
 30
0.0
 10
4.172296
 20
71.391506
 30
0.0
 10
9.189033
 20
83.050163
 30
0.0
 10
16.821503
 20
93.083198
 30
0.0
 10
26.854540
 20
100.715666
 30
0.0
 10
38.513198
 20
105.732400
 30
0.0
 10
46.847027
 20
106.367221
 30
0.0
 10
51.031254
 20
106.685950
 30
0.0
 11
3.218744
 21
58.873450
 31
0.0
 11
4.856826
 21
71.281906
 31
0.0
 11
9.606899
 21
82.749595
 31
0.0
 11
17.222704
 21
92.681997
 31
0.0
 11
27.155107
 21
100.297800
 31
0.0
 11
38.622798
 21
105.047871
 31
0.0
 11
51.031254
 21
106.685950
 31
0.0
  0
LWPOLYLINE
  5
29f
100
AcDbEntity
  8
Capa_1
 62
7
100
AcDbPolyline
 90
3
 70
0
 10
51.031254
 20
106.685950
 30
0.0
 10
71.031254
 20
106.685950
 30
0.0
 10
71.031254
 20
99.085950
 30
0.0
  0
SPLINE
  5
2a0
100
AcDbEntity
  8
Capa_1
 62
7
100
AcDbSpline
 70
0
 71
3
 72
10
 73
6
 74
4
 40
0.000000
 40
0.000000
 40
0.000000
 40
0.000000
 40
0.522859
 40
1.030210
 40
1.553070
 40
1.553070
 40
1.553070
 40
1.553070
 10
71.031254
 20
99.085950
 30
0.0
 10
71.003749
 20
98.910724
 30
0.0
 10
70.949554
 20
98.565470
 30
0.0
 10
70.551734
 20
98.167650
 30
0.0
 10
70.206480
 20
98.113455
 30
0.0
 10
70.031254
 20
98.085950
 30
0.0
 11
71.031254
 21
99.085950
 31
0.0
 11
70.894725
 21
98.581231
 31
0.0
 11
70.535973
 21
98.222479
 31
0.0
 11
70.031254
 21
98.085950
 31
0.0
  0
LWPOLYLINE
  5
2a1
100
AcDbEntity
  8
Capa_1
 62
7
100
AcDbPolyline
 90
4
 70
0
 10
70.031254
 20
98.085950
 30
0.0
 10
56.031254
 20
98.085950
 30
0.0
 10
56.031254
 20
95.285950
 30
0.0
 10
70.031254
 20
95.285950
 30
0.0
  0
SPLINE
  5
2a2
100
AcDbEntity
  8
Capa_1
 62
7
100
AcDbSpline
 70
0
 71
3
 72
13
 73
9
 74
7
 40
0.000000
 40
0.000000
 40
0.000000
 40
0.000000
 40
0.436767
 40
0.864087
 40
1.300854
 40
1.737620
 40
2.164940
 40
2.601707
 40
2.601707
 40
2.601707
 40
2.601707
 10
188.357800
 20
217.814473
 30
0.0
 10
188.490417
 20
217.880124
 30
0.0
 10
188.752782
 20
218.010006
 30
0.0
 10
189.204794
 20
217.970810
 30
0.0
 10
189.596242
 20
217.756956
 30
0.0
 10
189.856999
 20
217.395057
 30
0.0
 10
189.951959
 20
216.951398
 30
0.0
 10
189.855624
 20
216.674949
 30
0.0
 10
189.806930
 20
216.535213
 30
0.0
 11
188.357800
 21
217.814473
 31
0.0
 11
188.765329
 21
217.971589
 31
0.0
 11
189.191672
 21
217.942721
 31
0.0
 11
189.574302
 21
217.732103
 31
0.0
 11
189.830755
 21
217.378553
 31
0.0
 11
189.912283
 21
216.959083
 31
0.0
 11
189.806930
 21
216.535213
 31
0.0
  0
LWPOLYLINE
  5
2a3
100
AcDbEntity
  8
Capa_1
 62
7
100
AcDbPolyline
 90
2
 70
0
 10
189.806930
 20
216.535213
 30
0.0
 10
171.047310
 20
179.015980
 30
0.0
  0
SPLINE
  5
2a4
100
AcDbEntity
  8
Capa_1
 62
7
100
AcDbSpline
 70
0
 71
3
 72
13
 73
9
 74
7
 40
0.000000
 40
0.000000
 40
0.000000
 40
0.000000
 40
0.445977
 40
0.881939
 40
1.327915
 40
1.773892
 40
2.209854
 40
2.655831
 40
2.655831
 40
2.655831
 40
2.655831
 10
171.047310
 20
179.015980
 30
0.0
 10
170.962584
 20
178.890744
 30
0.0
 10
170.795036
 20
178.643085
 30
0.0
 10
170.371098
 20
178.454469
 30
0.0
 10
169.915199
 20
178.456306
 30
0.0
 10
169.506606
 20
178.658542
 30
0.0
 10
169.211772
 20
179.016833
 30
0.0
 10
169.172665
 20
179.313275
 30
0.0
 10
169.152890
 20
179.463180
 30
0.0
 11
171.047310
 21
179.015980
 31
0.0
 11
170.763980
 21
178.671569
 31
0.0
 11
170.369108
 21
178.486800
 31
0.0
 11
169.923143
 21
178.489958
 31
0.0
 11
169.522845
 21
178.686570
 31
0.0
 11
169.252288
 21
179.028421
 31
0.0
 11
169.152890
 21
179.463180
 31
0.0
  0
LWPOLYLINE
  5
2a5
100
AcDbEntity
  8
Capa_1
 62
7
100
AcDbPolyline
 90
4
 70
0
 10
169.152890
 20
179.463180
 30
0.0
 10
169.152890
 20
187.427110
 30
0.0
 10
166.352890
 20
187.427110
 30
0.0
 10
166.352890
 20
179.463180
 30
0.0
  0
SPLINE
  5
2a6
100
AcDbEntity
  8
Capa_1
 62
7
100
AcDbSpline
 70
0
 71
3
 72
13
 73
9
 74
7
 40
0.000000
 40
0.000000
 40
0.000000
 40
0.000000
 40
0.445984
 40
0.881952
 40
1.327936
 40
1.773920
 40
2.209888
 40
2.655872
 40
2.655872
 40
2.655872
 40
2.655872
 10
166.352890
 20
179.463180
 30
0.0
 10
166.333117
 20
179.313273
 30
0.0
 10
166.294015
 20
179.016824
 30
0.0
 10
165.999179
 20
178.658525
 30
0.0
 10
165.590580
 20
178.456285
 30
0.0
 10
165.134673
 20
178.454450
 30
0.0
 10
164.710730
 20
178.643074
 30
0.0
 10
164.543184
 20
178.890740
 30
0.0
 10
164.458460
 20
179.015980
 30
0.0
 11
166.352890
 21
179.463180
 31
0.0
 11
166.253498
 21
179.028413
 31
0.0
 11
165.982940
 21
178.686554
 31
0.0
 11
165.582636
 21
178.489938
 31
0.0
 11
165.136663
 21
178.486782
 31
0.0
 11
164.741788
 21
178.671558
 31
0.0
 11
164.458460
 21
179.015980
 31
0.0
  0
LWPOLYLINE
  5
2a7
100
AcDbEntity
  8
Capa_1
 62
7
100
AcDbPolyline
 90
2
 70
0
 10
164.458460
 20
179.015980
 30
0.0
 10
145.698840
 20
216.535213
 30
0.0
  0
SPLINE
  5
2a8
100
AcDbEntity
  8
Capa_1
 62
7
100
AcDbSpline
 70
0
 71
3
 72
13
 73
9
 74
7
 40
0.000000
 40
0.000000
 40
0.000000
 40
0.000000
 40
0.436767
 40
0.864087
 40
1.300854
 40
1.737620
 40
2.164940
 40
2.601707
 40
2.601707
 40
2.601707
 40
2.601707
 10
145.698840
 20
216.535213
 30
0.0
 10
145.650146
 20
216.674949
 30
0.0
 10
145.553811
 20
216.951398
 30
0.0
 10
145.648771
 20
217.395057
 30
0.0
 10
145.909528
 20
217.756956
 30
0.0
 10
146.300976
 20
217.970810
 30
0.0
 10
146.752988
 20
218.010006
 30
0.0
 10
147.015353
 20
217.880124
 30
0.0
 10
147.147970
 20
217.814473
 30
0.0
 11
145.698840
 21
216.535213
 31
0.0
 11
145.593487
 21
216.959083
 31
0.0
 11
145.675015
 21
217.378553
 31
0.0
 11
145.931468
 21
217.732103
 31
0.0
 11
146.314098
 21
217.942721
 31
0.0
 11
146.740441
 21
217.971589
 31
0.0
 11
147.147970
 21
217.814473
 31
0.0
  0
LWPOLYLINE
  5
2a9
100
AcDbEntity
  8
Capa_1
 62
7
100
AcDbPolyline
 90
4
 70
0
 10
147.147970
 20
217.814473
 30
0.0
 10
154.457060
 20
212.941743
 30
0.0
 10
156.010220
 20
215.271483
 30
0.0
 10
148.024850
 20
220.595053
 30
0.0
  0
SPLINE
  5
2aa
100
AcDbEntity
  8
Capa_1
 62
7
100
AcDbSpline
 70
0
 71
3
 72
13
 73
9
 74
7
 40
0.000000
 40
0.000000
 40
0.000000
 40
0.000000
 40
0.425334
 40
0.841898
 40
1.267232
 40
1.692566
 40
2.109130
 40
2.534464
 40
2.534464
 40
2.534464
 40
2.534464
 10
148.024850
 20
220.595053
 30
0.0
 10
147.915927
 20
220.689215
 30
0.0
 10
147.700327
 20
220.875597
 30
0.0
 10
147.559214
 20
221.293399
 30
0.0
 10
147.592365
 20
221.726003
 30
0.0
 10
147.804746
 20
222.104340
 30
0.0
 10
148.153913
 20
222.373697
 30
0.0
 10
148.436689
 20
222.409185
 30
0.0
 10
148.579550
 20
222.427113
 30
0.0
 11
148.024850
 21
220.595053
 31
0.0
 11
147.729182
 21
220.900813
 31
0.0
 11
147.588534
 21
221.292915
 31
0.0
 11
147.622443
 21
221.716896
 31
0.0
 11
147.829410
 21
222.088478
 31
0.0
 11
148.163934
 21
222.336711
 31
0.0
 11
148.579550
 21
222.427113
 31
0.0
  0
LWPOLYLINE
  5
2ab
100
AcDbEntity
  8
Capa_1
 62
7
100
AcDbPolyline
 90
2
 70
0
 10
148.579550
 20
222.427113
 30
0.0
 10
186.926220
 20
222.427113
 30
0.0
  0
SPLINE
  5
2ac
100
AcDbEntity
  8
Capa_1
 62
7
100
AcDbSpline
 70
0
 71
3
 72
13
 73
9
 74
7
 40
0.000000
 40
0.000000
 40
0.000000
 40
0.000000
 40
0.425334
 40
0.841898
 40
1.267232
 40
1.692566
 40
2.109130
 40
2.534464
 40
2.534464
 40
2.534464
 40
2.534464
 10
186.926220
 20
222.427113
 30
0.0
 10
187.069081
 20
222.409185
 30
0.0
 10
187.351857
 20
222.373697
 30
0.0
 10
187.701024
 20
222.104340
 30
0.0
 10
187.913405
 20
221.726003
 30
0.0
 10
187.946556
 20
221.293399
 30
0.0
 10
187.805443
 20
220.875597
 30
0.0
 10
187.589843
 20
220.689215
 30
0.0
 10
187.480920
 20
220.595053
 30
0.0
 11
186.926220
 21
222.427113
 31
0.0
 11
187.341836
 21
222.336711
 31
0.0
 11
187.676360
 21
222.088478
 31
0.0
 11
187.883327
 21
221.716896
 31
0.0
 11
187.917236
 21
221.292915
 31
0.0
 11
187.776588
 21
220.900813
 31
0.0
 11
187.480920
 21
220.595053
 31
0.0
  0
LWPOLYLINE
  5
2ad
100
AcDbEntity
  8
Capa_1
 62
7
100
AcDbPolyline
 90
4
 70
0
 10
187.480920
 20
220.595053
 30
0.0
 10
179.495550
 20
215.271483
 30
0.0
 10
181.048710
 20
212.941743
 30
0.0
 10
188.357800
 20
217.814473
 30
0.0
  0
SPLINE
  5
2ae
100
AcDbEntity
  8
Capa_1
 62
7
100
AcDbSpline
 70
0
 71
3
 72
13
 73
9
 74
7
 40
0.000000
 40
0.000000
 40
0.000000
 40
0.000000
 40
0.436762
 40
0.864078
 40
1.300840
 40
1.737603
 40
2.164918
 40
2.601681
 40
2.601681
 40
2.601681
 40
2.601681
 10
205.789780
 20
122.651040
 30
0.0
 10
205.922541
 20
122.585684
 30
0.0
 10
206.185190
 20
122.456386
 30
0.0
 10
206.428943
 20
122.073723
 30
0.0
 10
206.497217
 20
121.632929
 30
0.0
 10
206.368495
 20
121.205856
 30
0.0
 10
206.074047
 20
120.860679
 30
0.0
 10
205.796009
 20
120.769040
 30
0.0
 10
205.655470
 20
120.722720
 30
0.0
 11
205.789780
 21
122.651040
 31
0.0
 11
206.162324
 21
122.423065
 31
0.0
 11
206.398666
 21
122.067058
 31
0.0
 11
206.464146
 21
121.635232
 31
0.0
 11
206.339434
 21
121.216653
 31
0.0
 11
206.056021
 21
120.896848
 31
0.0
 11
205.655470
 21
120.722720
 31
0.0
  0
LWPOLYLINE
  5
2af
100
AcDbEntity
  8
Capa_1
 62
7
100
AcDbPolyline
 90
2
 70
0
 10
205.655470
 20
120.722720
 30
0.0
 10
164.462820
 20
112.799190
 30
0.0
  0
SPLINE
  5
2b0
100
AcDbEntity
  8
Capa_1
 62
7
100
AcDbSpline
 70
0
 71
3
 72
13
 73
9
 74
7
 40
0.000000
 40
0.000000
 40
0.000000
 40
0.000000
 40
0.445977
 40
0.881939
 40
1.327916
 40
1.773893
 40
2.209856
 40
2.655833
 40
2.655833
 40
2.655833
 40
2.655833
 10
164.462820
 20
112.799190
 30
0.0
 10
164.311879
 20
112.790293
 30
0.0
 10
164.013385
 20
112.772698
 30
0.0
 10
163.605852
 20
112.994544
 30
0.0
 10
163.330074
 20
113.357579
 30
0.0
 10
163.242152
 20
113.804924
 30
0.0
 10
163.347291
 20
114.256859
 30
0.0
 10
163.558843
 20
114.468173
 30
0.0
 10
163.665820
 20
114.575030
 30
0.0
 11
164.462820
 21
112.799190
 31
0.0
 11
164.017112
 21
112.814673
 31
0.0
 11
163.630308
 21
113.015784
 31
0.0
 11
163.361619
 21
113.371737
 31
0.0
 11
163.274277
 21
113.809077
 31
0.0
 11
163.381129
 21
114.231742
 31
0.0
 11
163.665820
 21
114.575030
 31
0.0
  0
LWPOLYLINE
  5
2b1
100
AcDbEntity
  8
Capa_1
 62
7
100
AcDbPolyline
 90
4
 70
0
 10
163.665820
 20
114.575030
 30
0.0
 10
169.988000
 20
119.417980
 30
0.0
 10
168.285280
 20
121.640770
 30
0.0
 10
161.963100
 20
116.797810
 30
0.0
  0
SPLINE
  5
2b2
100
AcDbEntity
  8
Capa_1
 62
7
100
AcDbSpline
 70
0
 71
3
 72
13
 73
9
 74
7
 40
0.000000
 40
0.000000
 40
0.000000
 40
0.000000
 40
0.445981
 40
0.881948
 40
1.327929
 40
1.773910
 40
2.209877
 40
2.655858
 40
2.655858
 40
2.655858
 40
2.655858
 10
161.963100
 20
116.797810
 30
0.0
 10
161.832072
 20
116.722348
 30
0.0
 10
161.572957
 20
116.573119
 30
0.0
 10
161.109231
 20
116.589291
 30
0.0
 10
160.700211
 20
116.790674
 30
0.0
 10
160.421514
 20
117.151478
 30
0.0
 10
160.313449
 20
117.602728
 30
0.0
 10
160.408171
 20
117.886342
 30
0.0
 10
160.456070
 20
118.029760
 30
0.0
 11
161.963100
 21
116.797810
 31
0.0
 11
161.557518
 21
116.612330
 31
0.0
 11
161.121606
 21
116.619227
 31
0.0
 11
160.722095
 21
116.817445
 31
0.0
 11
160.448391
 21
117.169560
 31
0.0
 11
160.354947
 21
117.595394
 31
0.0
 11
160.456070
 21
118.029760
 31
0.0
  0
LWPOLYLINE
  5
2b3
100
AcDbEntity
  8
Capa_1
 62
7
100
AcDbPolyline
 90
2
 70
0
 10
160.456070
 20
118.029760
 30
0.0
 10
178.832840
 20
155.737990
 30
0.0
  0
SPLINE
  5
2b4
100
AcDbEntity
  8
Capa_1
 62
7
100
AcDbSpline
 70
0
 71
3
 72
13
 73
9
 74
7
 40
0.000000
 40
0.000000
 40
0.000000
 40
0.000000
 40
0.436763
 40
0.864080
 40
1.300843
 40
1.737607
 40
2.164923
 40
2.601686
 40
2.601686
 40
2.601686
 40
2.601686
 10
178.832840
 20
155.737990
 30
0.0
 10
178.914159
 20
155.861619
 30
0.0
 10
179.075037
 20
156.106203
 30
0.0
 10
179.484980
 20
156.300609
 30
0.0
 10
179.930840
 20
156.313681
 30
0.0
 10
180.338649
 20
156.132979
 30
0.0
 10
180.644637
 20
155.797988
 30
0.0
 10
180.701080
 20
155.510730
 30
0.0
 10
180.729610
 20
155.365530
 30
0.0
 11
178.832840
 21
155.737990
 31
0.0
 11
179.105264
 21
156.079380
 31
0.0
 11
179.487838
 21
156.269740
 31
0.0
 11
179.924452
 21
156.281151
 31
0.0
 11
180.324330
 21
156.105482
 31
0.0
 11
180.606511
 21
155.784587
 31
0.0
 11
180.729610
 21
155.365530
 31
0.0
  0
LWPOLYLINE
  5
2b5
100
AcDbEntity
  8
Capa_1
 62
7
100
AcDbPolyline
 90
4
 70
0
 10
180.729610
 20
155.365530
 30
0.0
 10
181.306130
 20
146.600030
 30
0.0
 10
184.100090
 20
146.783790
 30
0.0
 10
183.470220
 20
156.360320
 30
0.0
  0
SPLINE
  5
2b6
100
AcDbEntity
  8
Capa_1
 62
7
100
AcDbSpline
 70
0
 71
3
 72
13
 73
9
 74
7
 40
0.000000
 40
0.000000
 40
0.000000
 40
0.000000
 40
0.425333
 40
0.841896
 40
1.267229
 40
1.692562
 40
2.109125
 40
2.534457
 40
2.534457
 40
2.534457
 40
2.534457
 10
183.470220
 20
156.360320
 30
0.0
 10
183.478734
 20
156.504049
 30
0.0
 10
183.495585
 20
156.788544
 30
0.0
 10
183.741445
 20
157.154636
 30
0.0
 10
184.105025
 20
157.391390
 30
0.0
 10
184.534518
 20
157.452863
 30
0.0
 10
184.960681
 20
157.339478
 30
0.0
 10
185.160812
 20
157.136577
 30
0.0
 10
185.261920
 20
157.034070
 30
0.0
 11
183.470220
 21
156.360320
 31
0.0
 11
183.533149
 21
156.780972
 31
0.0
 11
183.758890
 21
157.131066
 31
0.0
 11
184.116087
 21
157.361974
 31
0.0
 11
184.536926
 21
157.423638
 31
0.0
 11
184.937413
 21
157.309030
 31
0.0
 11
185.261920
 21
157.034070
 31
0.0
  0
LWPOLYLINE
  5
2b7
100
AcDbEntity
  8
Capa_1
 62
7
100
AcDbPolyline
 90
2
 70
0
 10
185.261920
 20
157.034070
 30
0.0
 10
208.580980
 20
126.592510
 30
0.0
  0
SPLINE
  5
2b8
100
AcDbEntity
  8
Capa_1
 62
7
100
AcDbSpline
 70
0
 71
3
 72
13
 73
9
 74
7
 40
0.000000
 40
0.000000
 40
0.000000
 40
0.000000
 40
0.425338
 40
0.841905
 40
1.267243
 40
1.692581
 40
2.109148
 40
2.534486
 40
2.534486
 40
2.534486
 40
2.534486
 10
208.580980
 20
126.592510
 30
0.0
 10
208.653625
 20
126.468197
 30
0.0
 10
208.797416
 20
126.222133
 30
0.0
 10
208.795920
 20
125.781143
 30
0.0
 10
208.624726
 20
125.382469
 30
0.0
 10
208.301459
 20
125.093080
 30
0.0
 10
207.883969
 20
124.951034
 30
0.0
 10
207.604899
 20
125.008851
 30
0.0
 10
207.463910
 20
125.038060
 30
0.0
 11
208.580980
 21
126.592510
 31
0.0
 11
208.761959
 21
126.207596
 31
0.0
 11
208.768329
 21
125.791077
 31
0.0
 11
208.599205
 21
125.400809
 31
0.0
 11
208.283245
 21
125.116062
 31
0.0
 11
207.886441
 21
124.989275
 31
0.0
 11
207.463910
 21
125.038060
 31
0.0
  0
LWPOLYLINE
  5
2b9
100
AcDbEntity
  8
Capa_1
 62
7
100
AcDbPolyline
 90
4
 70
0
 10
207.463910
 20
125.038060
 30
0.0
 10
198.381790
 20
128.139930
 30
0.0
 10
197.476820
 20
125.490210
 30
0.0
 10
205.789780
 20
122.651040
 30
0.0
  0
SPLINE
  5
2ba
100
AcDbEntity
  8
Capa_1
 62
7
100
AcDbSpline
 70
0
 71
3
 72
13
 73
9
 74
7
 40
0.000000
 40
0.000000
 40
0.000000
 40
0.000000
 40
0.436761
 40
0.864075
 40
1.300837
 40
1.737598
 40
2.164912
 40
2.601673
 40
2.601673
 40
2.601673
 40
2.601673
 10
153.803300
 20
10.177100
 30
0.0
 10
153.915373
 20
10.080476
 30
0.0
 10
154.137096
 20
9.889318
 30
0.0
 10
154.276851
 20
9.457677
 30
0.0
 10
154.232152
 20
9.013874
 30
0.0
 10
154.000229
 20
8.632860
 30
0.0
 10
153.628483
 20
8.372764
 30
0.0
 10
153.336339
 20
8.353943
 30
0.0
 10
153.188670
 20
8.344430
 30
0.0
 11
153.803300
 21
10.177100
 31
0.0
 11
154.106589
 21
9.862813
 31
0.0
 11
154.245872
 21
9.458836
 31
0.0
 11
154.200722
 21
9.024415
 31
0.0
 11
153.974815
 21
8.650614
 31
0.0
 11
153.620125
 21
8.412303
 31
0.0
 11
153.188670
 21
8.344430
 31
0.0
  0
LWPOLYLINE
  5
2bb
100
AcDbEntity
  8
Capa_1
 62
7
100
AcDbPolyline
 90
2
 70
0
 10
153.188670
 20
8.344430
 30
0.0
 10
111.326810
 20
11.027950
 30
0.0
  0
SPLINE
  5
2bc
100
AcDbEntity
  8
Capa_1
 62
7
100
AcDbSpline
 70
0
 71
3
 72
13
 73
9
 74
7
 40
0.000000
 40
0.000000
 40
0.000000
 40
0.000000
 40
0.445980
 40
0.881945
 40
1.327925
 40
1.773905
 40
2.209871
 40
2.655851
 40
2.655851
 40
2.655851
 40
2.655851
 10
111.326810
 20
11.027950
 30
0.0
 10
111.178476
 20
11.057272
 30
0.0
 10
110.885139
 20
11.115258
 30
0.0
 10
110.546437
 20
11.432408
 30
0.0
 10
110.370748
 20
11.853102
 30
0.0
 10
110.398077
 20
12.308189
 30
0.0
 10
110.613427
 20
12.719196
 30
0.0
 10
110.871299
 20
12.870559
 30
0.0
 10
111.001700
 20
12.947100
 30
0.0
 11
111.326810
 21
11.027950
 31
0.0
 11
110.899295
 21
11.154951
 31
0.0
 11
110.575446
 21
11.446820
 31
0.0
 11
110.404839
 21
11.858878
 31
0.0
 11
110.430215
 21
12.304135
 31
0.0
 11
110.639866
 21
12.686381
 31
0.0
 11
111.001700
 21
12.947100
 31
0.0
  0
LWPOLYLINE
  5
2bd
100
AcDbEntity
  8
Capa_1
 62
7
100
AcDbPolyline
 90
4
 70
0
 10
111.001700
 20
12.947100
 30
0.0
 10
118.338110
 20
16.045680
 30
0.0
 10
117.248690
 20
18.625060
 30
0.0
 10
109.912280
 20
15.526470
 30
0.0
  0
SPLINE
  5
2be
100
AcDbEntity
  8
Capa_1
 62
7
100
AcDbSpline
 70
0
 71
3
 72
13
 73
9
 74
7
 40
0.000000
 40
0.000000
 40
0.000000
 40
0.000000
 40
0.445981
 40
0.881946
 40
1.327927
 40
1.773908
 40
2.209874
 40
2.655854
 40
2.655854
 40
2.655854
 40
2.655854
 10
109.912280
 20
15.526470
 30
0.0
 10
109.766492
 20
15.486361
 30
0.0
 10
109.478190
 20
15.407044
 30
0.0
 10
109.033413
 20
15.539243
 30
0.0
 10
108.688134
 20
15.836958
 30
0.0
 10
108.509062
 20
16.256224
 30
0.0
 10
108.517874
 20
16.720148
 30
0.0
 10
108.680835
 20
16.970854
 30
0.0
 10
108.763240
 20
17.097630
 30
0.0
 11
109.912280
 21
15.526470
 31
0.0
 11
109.473101
 21
15.448877
 31
0.0
 11
109.052915
 21
15.565107
 31
0.0
 11
108.716044
 21
15.857369
 31
0.0
 11
108.539620
 21
16.266970
 31
0.0
 11
108.556198
 21
16.702621
 31
0.0
 11
108.763240
 21
17.097630
 31
0.0
  0
LWPOLYLINE
  5
2bf
100
AcDbEntity
  8
Capa_1
 62
7
100
AcDbPolyline
 90
2
 70
0
 10
108.763240
 20
17.097630
 30
0.0
 10
136.027170
 20
48.976990
 30
0.0
  0
SPLINE
  5
2c0
100
AcDbEntity
  8
Capa_1
 62
7
100
AcDbSpline
 70
0
 71
3
 72
13
 73
9
 74
7
 40
0.000000
 40
0.000000
 40
0.000000
 40
0.000000
 40
0.436763
 40
0.864079
 40
1.300842
 40
1.737605
 40
2.164921
 40
2.601684
 40
2.601684
 40
2.601684
 40
2.601684
 10
136.027170
 20
48.976990
 30
0.0
 10
136.136950
 20
49.076213
 30
0.0
 10
136.354134
 20
49.272514
 30
0.0
 10
136.799778
 20
49.357651
 30
0.0
 10
137.234612
 20
49.258248
 30
0.0
 10
137.583916
 20
48.980853
 30
0.0
 10
137.795892
 20
48.579713
 30
0.0
 10
137.778328
 20
48.287489
 30
0.0
 10
137.769450
 20
48.139780
 30
0.0
 11
136.027170
 21
48.976990
 31
0.0
 11
136.376650
 21
49.238955
 31
0.0
 11
136.794786
 21
49.327054
 31
0.0
 11
137.220253
 21
49.228367
 31
0.0
 11
137.563146
 21
48.957837
 31
0.0
 11
137.755621
 21
48.576324
 31
0.0
 11
137.769450
 21
48.139780
 31
0.0
  0
LWPOLYLINE
  5
2c1
100
AcDbEntity
  8
Capa_1
 62
7
100
AcDbPolyline
 90
4
 70
0
 10
137.769450
 20
48.139780
 30
0.0
 10
136.124480
 20
39.510740
 30
0.0
 10
138.874950
 20
38.986410
 30
0.0
 10
140.672110
 20
48.413860
 30
0.0
  0
SPLINE
  5
2c2
100
AcDbEntity
  8
Capa_1
 62
7
100
AcDbSpline
 70
0
 71
3
 72
13
 73
9
 74
7
 40
0.000000
 40
0.000000
 40
0.000000
 40
0.000000
 40
0.425338
 40
0.841906
 40
1.267244
 40
1.692582
 40
2.109149
 40
2.534487
 40
2.534487
 40
2.534487
 40
2.534487
 10
140.672110
 20
48.413860
 30
0.0
 10
140.716471
 20
48.550838
 30
0.0
 10
140.804280
 20
48.821971
 30
0.0
 10
141.134257
 20
49.114529
 30
0.0
 10
141.545675
 20
49.252310
 30
0.0
 10
141.976837
 20
49.203867
 30
0.0
 10
142.360828
 20
48.987011
 30
0.0
 10
142.503540
 20
48.740320
 30
0.0
 10
142.575640
 20
48.615690
 30
0.0
 11
140.672110
 21
48.413860
 31
0.0
 11
140.838736
 21
48.805201
 31
0.0
 11
141.145220
 21
49.087330
 31
0.0
 11
141.548988
 21
49.221058
 31
0.0
 11
141.971822
 21
49.174974
 31
0.0
 11
142.330654
 21
48.963388
 31
0.0
 11
142.575640
 21
48.615690
 31
0.0
  0
LWPOLYLINE
  5
2c3
100
AcDbEntity
  8
Capa_1
 62
7
100
AcDbPolyline
 90
2
 70
0
 10
142.575640
 20
48.615690
 30
0.0
 10
157.495500
 20
13.290560
 30
0.0
  0
SPLINE
  5
2c4
100
AcDbEntity
  8
Capa_1
 62
7
100
AcDbSpline
 70
0
 71
3
 72
13
 73
9
 74
7
 40
0.000000
 40
0.000000
 40
0.000000
 40
0.000000
 40
0.425335
 40
0.841900
 40
1.267235
 40
1.692570
 40
2.109135
 40
2.534469
 40
2.534469
 40
2.534469
 40
2.534469
 10
157.495500
 20
13.290560
 30
0.0
 10
157.534569
 20
13.151980
 30
0.0
 10
157.611901
 20
12.877678
 30
0.0
 10
157.499622
 20
12.451221
 30
0.0
 10
157.233729
 20
12.108371
 30
0.0
 10
156.848110
 20
11.909515
 30
0.0
 10
156.408324
 20
11.876951
 30
0.0
 10
156.152742
 20
12.003046
 30
0.0
 10
156.023620
 20
12.066750
 30
0.0
 11
157.495500
 21
13.290560
 31
0.0
 11
157.573930
 21
12.872519
 31
0.0
 11
157.475414
 21
12.467771
 31
0.0
 11
157.213636
 21
12.132536
 31
0.0
 11
156.836257
 21
11.936337
 31
0.0
 11
156.420327
 21
11.913343
 31
0.0
 11
156.023620
 21
12.066750
 31
0.0
  0
LWPOLYLINE
  5
2c5
100
AcDbEntity
  8
Capa_1
 62
7
100
AcDbPolyline
 90
4
 70
0
 10
156.023620
 20
12.066750
 30
0.0
 10
148.012580
 20
17.351620
 30
0.0
 10
146.470720
 20
15.014390
 30
0.0
 10
153.803300
 20
10.177100
 30
0.0
  0
SPLINE
  5
2c6
100
AcDbEntity
  8
Capa_1
 62
7
100
AcDbSpline
 70
0
 71
3
 72
13
 73
9
 74
7
 40
0.000000
 40
0.000000
 40
0.000000
 40
0.000000
 40
0.436768
 40
0.864089
 40
1.300858
 40
1.737626
 40
2.164947
 40
2.601715
 40
2.601715
 40
2.601715
 40
2.601715
 10
128.744970
 20
156.634890
 30
0.0
 10
128.615627
 20
156.563003
 30
0.0
 10
128.359739
 20
156.420783
 30
0.0
 10
127.906372
 20
156.438426
 30
0.0
 10
127.505191
 20
156.633411
 30
0.0
 10
127.227508
 20
156.982494
 30
0.0
 10
127.111546
 20
157.421135
 30
0.0
 10
127.194619
 20
157.701855
 30
0.0
 10
127.236610
 20
157.843750
 30
0.0
 11
128.744970
 21
156.634890
 31
0.0
 11
128.345378
 21
156.458559
 31
0.0
 11
127.918142
 21
156.467107
 31
0.0
 11
127.525923
 21
156.659281
 31
0.0
 11
127.252938
 21
157.000229
 31
0.0
 11
127.151543
 21
157.415346
 31
0.0
 11
127.236610
 21
157.843750
 31
0.0
  0
LWPOLYLINE
  5
2c7
100
AcDbEntity
  8
Capa_1
 62
7
100
AcDbPolyline
 90
2
 70
0
 10
127.236610
 20
157.843750
 30
0.0
 10
144.189620
 20
196.213160
 30
0.0
  0
SPLINE
  5
2c8
100
AcDbEntity
  8
Capa_1
 62
7
100
AcDbSpline
 70
0
 71
3
 72
13
 73
9
 74
7
 40
0.000000
 40
0.000000
 40
0.000000
 40
0.000000
 40
0.445974
 40
0.881934
 40
1.327908
 40
1.773882
 40
2.209842
 40
2.655816
 40
2.655816
 40
2.655816
 40
2.655816
 10
144.189620
 20
196.213160
 30
0.0
 10
144.268291
 20
196.342284
 30
0.0
 10
144.423866
 20
196.597633
 30
0.0
 10
144.838347
 20
196.806205
 30
0.0
 10
145.293814
 20
196.826062
 30
0.0
 10
145.711565
 20
196.643499
 30
0.0
 10
146.023113
 20
196.299647
 30
0.0
 10
146.076283
 20
196.005403
 30
0.0
 10
146.103170
 20
195.856610
 30
0.0
 11
144.189620
 21
196.213160
 31
0.0
 11
144.456242
 21
196.570659
 31
0.0
 11
144.841873
 21
196.774006
 31
0.0
 11
145.287481
 21
196.792071
 31
0.0
 11
145.696679
 21
196.614730
 31
0.0
 11
145.983195
 21
196.286143
 31
0.0
 11
146.103170
 21
195.856610
 31
0.0
  0
LWPOLYLINE
  5
2c9
100
AcDbEntity
  8
Capa_1
 62
7
100
AcDbPolyline
 90
4
 70
0
 10
146.103170
 20
195.856610
 30
0.0
 10
146.482130
 20
187.901700
 30
0.0
 10
149.278960
 20
188.034940
 30
0.0
 10
148.900000
 20
195.989850
 30
0.0
  0
SPLINE
  5
2ca
100
AcDbEntity
  8
Capa_1
 62
7
100
AcDbSpline
 70
0
 71
3
 72
13
 73
9
 74
7
 40
0.000000
 40
0.000000
 40
0.000000
 40
0.000000
 40
0.445981
 40
0.881947
 40
1.327928
 40
1.773909
 40
2.209875
 40
2.655856
 40
2.655856
 40
2.655856
 40
2.655856
 10
148.900000
 20
195.989850
 30
0.0
 10
148.912618
 20
196.140527
 30
0.0
 10
148.937571
 20
196.438499
 30
0.0
 10
149.215023
 20
196.810418
 30
0.0
 10
149.613533
 20
197.031871
 30
0.0
 10
150.068833
 20
197.055399
 30
0.0
 10
150.501269
 20
196.887165
 30
0.0
 10
150.680412
 20
196.647755
 30
0.0
 10
150.771000
 20
196.526690
 30
0.0
 11
148.900000
 21
195.989850
 31
0.0
 11
148.978594
 21
196.428851
 31
0.0
 11
149.232577
 21
196.783194
 31
0.0
 11
149.623070
 21
196.998635
 31
0.0
 11
150.068384
 21
197.023009
 31
0.0
 11
150.471603
 21
196.857235
 31
0.0
 11
150.771000
 21
196.526690
 31
0.0
  0
LWPOLYLINE
  5
2cb
100
AcDbEntity
  8
Capa_1
 62
7
100
AcDbPolyline
 90
2
 70
0
 10
150.771000
 20
196.526690
 30
0.0
 10
171.294730
 20
159.942640
 30
0.0
  0
SPLINE
  5
2cc
100
AcDbEntity
  8
Capa_1
 62
7
100
AcDbSpline
 70
0
 71
3
 72
13
 73
9
 74
7
 40
0.000000
 40
0.000000
 40
0.000000
 40
0.000000
 40
0.436766
 40
0.864084
 40
1.300850
 40
1.737616
 40
2.164934
 40
2.601700
 40
2.601700
 40
2.601700
 40
2.601700
 10
171.294730
 20
159.942640
 30
0.0
 10
171.350018
 20
159.805380
 30
0.0
 10
171.459398
 20
159.533829
 30
0.0
 10
171.385658
 20
159.086154
 30
0.0
 10
171.142418
 20
158.712258
 30
0.0
 10
170.761592
 20
158.480019
 30
0.0
 10
170.311959
 20
158.419357
 30
0.0
 10
170.043710
 20
158.536605
 30
0.0
 10
169.908120
 20
158.595870
 30
0.0
 11
171.294730
 21
159.942640
 31
0.0
 11
171.420133
 21
159.524264
 31
0.0
 11
171.358658
 21
159.101391
 31
0.0
 11
171.119321
 21
158.736039
 31
0.0
 11
170.747149
 21
158.507451
 31
0.0
 11
170.322663
 21
158.458327
 31
0.0
 11
169.908120
 21
158.595870
 31
0.0
  0
LWPOLYLINE
  5
2cd
100
AcDbEntity
  8
Capa_1
 62
7
100
AcDbPolyline
 90
4
 70
0
 10
169.908120
 20
158.595870
 30
0.0
 10
162.375440
 20
163.115280
 30
0.0
 10
160.934900
 20
160.714270
 30
0.0
 10
169.164540
 20
155.776720
 30
0.0
  0
SPLINE
  5
2ce
100
AcDbEntity
  8
Capa_1
 62
7
100
AcDbSpline
 70
0
 71
3
 72
13
 73
9
 74
7
 40
0.000000
 40
0.000000
 40
0.000000
 40
0.000000
 40
0.425334
 40
0.841897
 40
1.267231
 40
1.692565
 40
2.109128
 40
2.534462
 40
2.534462
 40
2.534462
 40
2.534462
 10
169.164540
 20
155.776720
 30
0.0
 10
169.277820
 20
155.687848
 30
0.0
 10
169.502044
 20
155.511936
 30
0.0
 10
169.662879
 20
155.101323
 30
0.0
 10
169.650352
 20
154.667633
 30
0.0
 10
169.456216
 20
154.279618
 30
0.0
 10
169.120262
 20
153.993950
 30
0.0
 10
168.839496
 20
153.945046
 30
0.0
 10
168.697650
 20
153.920340
 30
0.0
 11
169.164540
 21
155.776720
 31
0.0
 11
169.474423
 21
155.485376
 31
0.0
 11
169.633569
 21
155.100411
 31
0.0
 11
169.619874
 21
154.675298
 31
0.0
 11
169.430825
 21
154.294288
 31
0.0
 11
169.108492
 21
154.030418
 31
0.0
 11
168.697650
 21
153.920340
 31
0.0
  0
LWPOLYLINE
  5
2cf
100
AcDbEntity
  8
Capa_1
 62
7
100
AcDbPolyline
 90
2
 70
0
 10
168.697650
 20
153.920340
 30
0.0
 10
130.394420
 20
152.095600
 30
0.0
  0
SPLINE
  5
2d0
100
AcDbEntity
  8
Capa_1
 62
7
100
AcDbSpline
 70
0
 71
3
 72
13
 73
9
 74
7
 40
0.000000
 40
0.000000
 40
0.000000
 40
0.000000
 40
0.425334
 40
0.841899
 40
1.267233
 40
1.692568
 40
2.109132
 40
2.534467
 40
2.534467
 40
2.534467
 40
2.534467
 10
130.394420
 20
152.095600
 30
0.0
 10
130.250868
 20
152.106710
 30
0.0
 10
129.966723
 20
152.128701
 30
0.0
 10
129.605133
 20
152.381139
 30
0.0
 10
129.374990
 20
152.748941
 30
0.0
 10
129.321291
 20
153.179477
 30
0.0
 10
129.442364
 20
153.603521
 30
0.0
 10
129.648851
 20
153.799952
 30
0.0
 10
129.753170
 20
153.899190
 30
0.0
 11
130.394420
 21
152.095600
 31
0.0
 11
129.974973
 21
152.166122
 31
0.0
 11
129.629015
 21
152.398155
 31
0.0
 11
129.404601
 21
152.759469
 31
0.0
 11
129.350555
 21
153.181356
 31
0.0
 11
129.472386
 21
153.579707
 31
0.0
 11
129.753170
 21
153.899190
 31
0.0
  0
LWPOLYLINE
  5
2d1
100
AcDbEntity
  8
Capa_1
 62
7
100
AcDbPolyline
 90
4
 70
0
 10
129.753170
 20
153.899190
 30
0.0
 10
137.476170
 20
159.596720
 30
0.0
 10
135.813910
 20
161.849910
 30
0.0
 10
128.744970
 20
156.634890
 30
0.0
  0
SPLINE
  5
2d2
100
AcDbEntity
  8
Capa_1
 62
7
100
AcDbSpline
 70
0
 71
3
 72
13
 73
9
 74
7
 40
0.000000
 40
0.000000
 40
0.000000
 40
0.000000
 40
0.436766
 40
0.864085
 40
1.300851
 40
1.737617
 40
2.164935
 40
2.601701
 40
2.601701
 40
2.601701
 40
2.601701
 10
42.127988
 20
117.683250
 30
0.0
 10
41.987033
 20
117.638208
 30
0.0
 10
41.708171
 20
117.549099
 30
0.0
 10
41.267134
 20
117.655570
 30
0.0
 10
40.912142
 20
117.925653
 30
0.0
 10
40.708546
 20
118.322532
 30
0.0
 10
40.681122
 20
118.775409
 30
0.0
 10
40.817785
 20
119.034306
 30
0.0
 10
40.886863
 20
119.165170
 30
0.0
 11
42.127988
 21
117.683250
 31
0.0
 11
41.701521
 21
117.588961
 31
0.0
 11
41.284315
 21
117.681376
 31
0.0
 11
40.937558
 21
117.946939
 31
0.0
 11
40.736966
 21
118.334918
 31
0.0
 11
40.719199
 21
118.761867
 31
0.0
 11
40.886863
 21
119.165170
 31
0.0
  0
LWPOLYLINE
  5
2d3
100
AcDbEntity
  8
Capa_1
 62
7
100
AcDbPolyline
 90
2
 70
0
 10
40.886863
 20
119.165170
 30
0.0
 10
65.055565
 20
153.450590
 30
0.0
  0
SPLINE
  5
2d4
100
AcDbEntity
  8
Capa_1
 62
7
100
AcDbSpline
 70
0
 71
3
 72
13
 73
9
 74
7
 40
0.000000
 40
0.000000
 40
0.000000
 40
0.000000
 40
0.445974
 40
0.881934
 40
1.327908
 40
1.773882
 40
2.209842
 40
2.655816
 40
2.655816
 40
2.655816
 40
2.655816
 10
65.055565
 20
153.450590
 30
0.0
 10
65.158096
 20
153.561718
 30
0.0
 10
65.360857
 20
153.781479
 30
0.0
 10
65.808265
 20
153.904453
 30
0.0
 10
66.258741
 20
153.834337
 30
0.0
 10
66.632423
 20
153.573172
 30
0.0
 10
66.870254
 20
153.174759
 30
0.0
 10
66.864510
 20
152.875805
 30
0.0
 10
66.861606
 20
152.724630
 30
0.0
 11
65.055565
 21
153.450590
 31
0.0
 11
65.387295
 21
153.748664
 31
0.0
 11
65.805389
 21
153.872189
 31
0.0
 11
66.245846
 21
153.802255
 31
0.0
 11
66.612170
 21
153.547894
 31
0.0
 11
66.828460
 21
153.169371
 31
0.0
 11
66.861606
 21
152.724630
 31
0.0
  0
LWPOLYLINE
  5
2d5
100
AcDbEntity
  8
Capa_1
 62
7
100
AcDbPolyline
 90
4
 70
0
 10
66.861606
 20
152.724630
 30
0.0
 10
65.668517
 20
144.850580
 30
0.0
 10
68.436920
 20
144.431110
 30
0.0
 10
69.630009
 20
152.305160
 30
0.0
  0
SPLINE
  5
2d6
100
AcDbEntity
  8
Capa_1
 62
7
100
AcDbSpline
 70
0
 71
3
 72
13
 73
9
 74
7
 40
0.000000
 40
0.000000
 40
0.000000
 40
0.000000
 40
0.445981
 40
0.881947
 40
1.327928
 40
1.773909
 40
2.209875
 40
2.655855
 40
2.655855
 40
2.655855
 40
2.655855
 10
69.630009
 20
152.305160
 30
0.0
 10
69.672017
 20
152.450412
 30
0.0
 10
69.755090
 20
152.737655
 30
0.0
 10
70.100275
 20
153.047738
 30
0.0
 10
70.534557
 20
153.186482
 30
0.0
 10
70.985591
 20
153.119999
 30
0.0
 10
71.376490
 20
152.869997
 30
0.0
 10
71.505044
 20
152.600027
 30
0.0
 10
71.570051
 20
152.463510
 30
0.0
 11
69.630009
 21
152.305160
 31
0.0
 11
69.793414
 21
152.720127
 31
0.0
 11
70.112131
 21
153.017593
 31
0.0
 11
70.537370
 21
153.152020
 31
0.0
 11
70.978780
 21
153.088330
 31
0.0
 11
71.341516
 21
152.846486
 31
0.0
 11
71.570051
 21
152.463510
 31
0.0
  0
LWPOLYLINE
  5
2d7
100
AcDbEntity
  8
Capa_1
 62
7
100
AcDbPolyline
 90
2
 70
0
 10
71.570051
 20
152.463510
 30
0.0
 10
84.497175
 20
112.557300
 30
0.0
  0
SPLINE
  5
2d8
100
AcDbEntity
  8
Capa_1
 62
7
100
AcDbSpline
 70
0
 71
3
 72
13
 73
9
 74
7
 40
0.000000
 40
0.000000
 40
0.000000
 40
0.000000
 40
0.436765
 40
0.864084
 40
1.300849
 40
1.737615
 40
2.164933
 40
2.601698
 40
2.601698
 40
2.601698
 40
2.601698
 10
84.497175
 20
112.557300
 30
0.0
 10
84.524385
 20
112.411847
 30
0.0
 10
84.578217
 20
112.124086
 30
0.0
 10
84.417864
 20
111.699661
 30
0.0
 10
84.105835
 20
111.380911
 30
0.0
 10
83.686769
 20
111.228114
 30
0.0
 10
83.233988
 20
111.257075
 30
0.0
 10
82.994041
 20
111.424794
 30
0.0
 10
82.872756
 20
111.509570
 30
0.0
 11
84.497175
 21
112.557300
 31
0.0
 11
84.537838
 21
112.122432
 31
0.0
 11
84.394389
 21
111.719910
 31
0.0
 11
84.087866
 21
111.408771
 31
0.0
 11
83.678004
 21
111.257851
 31
0.0
 11
83.252148
 21
111.293178
 31
0.0
 11
82.872756
 21
111.509570
 31
0.0
  0
LWPOLYLINE
  5
2d9
100
AcDbEntity
  8
Capa_1
 62
7
100
AcDbPolyline
 90
4
 70
0
 10
82.872756
 20
111.509570
 30
0.0
 10
76.376140
 20
117.422290
 30
0.0
 10
74.491486
 20
115.351520
 30
0.0
 10
81.589204
 20
108.891740
 30
0.0
  0
SPLINE
  5
2da
100
AcDbEntity
  8
Capa_1
 62
7
100
AcDbSpline
 70
0
 71
3
 72
13
 73
9
 74
7
 40
0.000000
 40
0.000000
 40
0.000000
 40
0.000000
 40
0.425331
 40
0.841892
 40
1.267224
 40
1.692555
 40
2.109116
 40
2.534447
 40
2.534447
 40
2.534447
 40
2.534447
 10
81.589204
 20
108.891740
 30
0.0
 10
81.682790
 20
108.782323
 30
0.0
 10
81.868031
 20
108.565745
 30
0.0
 10
81.944958
 20
108.131520
 30
0.0
 10
81.847373
 20
107.708769
 30
0.0
 10
81.580713
 20
107.366520
 30
0.0
 10
81.195137
 20
107.152511
 30
0.0
 10
80.910237
 20
107.159785
 30
0.0
 10
80.766304
 20
107.163460
 30
0.0
 11
81.589204
 21
108.891740
 31
0.0
 11
81.835725
 21
108.545137
 31
0.0
 11
81.916042
 21
108.136391
 31
0.0
 11
81.818999
 21
107.722279
 31
0.0
 11
81.558703
 21
107.385897
 31
0.0
 11
81.190769
 21
107.190581
 31
0.0
 11
80.766304
 21
107.163460
 31
0.0
  0
LWPOLYLINE
  5
2db
100
AcDbEntity
  8
Capa_1
 62
7
100
AcDbPolyline
 90
2
 70
0
 10
80.766304
 20
107.163460
 30
0.0
 10
42.852388
 20
112.908200
 30
0.0
  0
SPLINE
  5
2dc
100
AcDbEntity
  8
Capa_1
 62
7
100
AcDbSpline
 70
0
 71
3
 72
13
 73
9
 74
7
 40
0.000000
 40
0.000000
 40
0.000000
 40
0.000000
 40
0.425337
 40
0.841904
 40
1.267241
 40
1.692578
 40
2.109145
 40
2.534482
 40
2.534482
 40
2.534482
 40
2.534482
 10
42.852388
 20
112.908200
 30
0.0
 10
42.713824
 20
112.947327
 30
0.0
 10
42.439553
 20
113.024776
 30
0.0
 10
42.134675
 20
113.343404
 30
0.0
 10
41.981369
 20
113.749291
 30
0.0
 10
42.013402
 20
114.181982
 30
0.0
 10
42.215518
 20
114.573930
 30
0.0
 10
42.456609
 20
114.725909
 30
0.0
 10
42.578411
 20
114.802690
 30
0.0
 11
42.852388
 21
112.908200
 31
0.0
 11
42.455002
 21
113.059844
 31
0.0
 11
42.161438
 21
113.355391
 31
0.0
 11
42.012473
 21
113.753789
 31
0.0
 11
42.042464
 21
114.178068
 31
0.0
 11
42.240269
 21
114.544675
 31
0.0
 11
42.578411
 21
114.802690
 31
0.0
  0
LWPOLYLINE
  5
2dd
100
AcDbEntity
  8
Capa_1
 62
7
100
AcDbPolyline
 90
4
 70
0
 10
42.578411
 20
114.802690
 30
0.0
 10
51.271192
 20
118.869890
 30
0.0
 10
50.084582
 20
121.406010
 30
0.0
 10
42.127988
 20
117.683250
 30
0.0
  0
SPLINE
  5
2de
100
AcDbEntity
  8
Capa_1
 62
7
100
AcDbSpline
 70
0
 71
3
 72
13
 73
9
 74
7
 40
0.000000
 40
0.000000
 40
0.000000
 40
0.000000
 40
0.436766
 40
0.864085
 40
1.300851
 40
1.737617
 40
2.164935
 40
2.601701
 40
2.601701
 40
2.601701
 40
2.601701
 10
51.180485
 20
25.397230
 30
0.0
 10
51.039530
 20
25.352188
 30
0.0
 10
50.760668
 20
25.263079
 30
0.0
 10
50.319631
 20
25.369550
 30
0.0
 10
49.964639
 20
25.639633
 30
0.0
 10
49.761043
 20
26.036512
 30
0.0
 10
49.733619
 20
26.489389
 30
0.0
 10
49.870282
 20
26.748286
 30
0.0
 10
49.939360
 20
26.879150
 30
0.0
 11
51.180485
 21
25.397230
 31
0.0
 11
50.754018
 21
25.302941
 31
0.0
 11
50.336812
 21
25.395356
 31
0.0
 11
49.990055
 21
25.660919
 31
0.0
 11
49.789463
 21
26.048898
 31
0.0
 11
49.771696
 21
26.475847
 31
0.0
 11
49.939360
 21
26.879150
 31
0.0
  0
LWPOLYLINE
  5
2df
100
AcDbEntity
  8
Capa_1
 62
7
100
AcDbPolyline
 90
2
 70
0
 10
49.939360
 20
26.879150
 30
0.0
 10
74.108065
 20
61.164570
 30
0.0
  0
SPLINE
  5
2e0
100
AcDbEntity
  8
Capa_1
 62
7
100
AcDbSpline
 70
0
 71
3
 72
13
 73
9
 74
7
 40
0.000000
 40
0.000000
 40
0.000000
 40
0.000000
 40
0.445974
 40
0.881933
 40
1.327906
 40
1.773880
 40
2.209839
 40
2.655813
 40
2.655813
 40
2.655813
 40
2.655813
 10
74.108065
 20
61.164570
 30
0.0
 10
74.210596
 20
61.275698
 30
0.0
 10
74.413357
 20
61.495458
 30
0.0
 10
74.860765
 20
61.618431
 30
0.0
 10
75.311240
 20
61.548315
 30
0.0
 10
75.684922
 20
61.287151
 30
0.0
 10
75.922752
 20
60.888738
 30
0.0
 10
75.917009
 20
60.589784
 30
0.0
 10
75.914105
 20
60.438610
 30
0.0
 11
74.108065
 21
61.164570
 31
0.0
 11
74.439795
 21
61.462643
 31
0.0
 11
74.857888
 21
61.586167
 31
0.0
 11
75.298345
 21
61.516233
 31
0.0
 11
75.664668
 21
61.261872
 31
0.0
 11
75.880958
 21
60.883350
 31
0.0
 11
75.914105
 21
60.438610
 31
0.0
  0
LWPOLYLINE
  5
2e1
100
AcDbEntity
  8
Capa_1
 62
7
100
AcDbPolyline
 90
4
 70
0
 10
75.914105
 20
60.438610
 30
0.0
 10
74.721015
 20
52.564560
 30
0.0
 10
77.489415
 20
52.145090
 30
0.0
 10
78.682505
 20
60.019140
 30
0.0
  0
SPLINE
  5
2e2
100
AcDbEntity
  8
Capa_1
 62
7
100
AcDbSpline
 70
0
 71
3
 72
13
 73
9
 74
7
 40
0.000000
 40
0.000000
 40
0.000000
 40
0.000000
 40
0.445979
 40
0.881944
 40
1.327923
 40
1.773903
 40
2.209868
 40
2.655847
 40
2.655847
 40
2.655847
 40
2.655847
 10
78.682505
 20
60.019140
 30
0.0
 10
78.724514
 20
60.164392
 30
0.0
 10
78.807588
 20
60.451633
 30
0.0
 10
79.152771
 20
60.761714
 30
0.0
 10
79.587052
 20
60.900458
 30
0.0
 10
80.038085
 20
60.833975
 30
0.0
 10
80.428983
 20
60.583974
 30
0.0
 10
80.557538
 20
60.314007
 30
0.0
 10
80.622545
 20
60.177490
 30
0.0
 11
78.682505
 21
60.019140
 31
0.0
 11
78.845911
 21
60.434105
 31
0.0
 11
79.164628
 21
60.731569
 31
0.0
 11
79.589865
 21
60.865995
 31
0.0
 11
80.031274
 21
60.802307
 31
0.0
 11
80.394010
 21
60.560464
 31
0.0
 11
80.622545
 21
60.177490
 31
0.0
  0
LWPOLYLINE
  5
2e3
100
AcDbEntity
  8
Capa_1
 62
7
100
AcDbPolyline
 90
2
 70
0
 10
80.622545
 20
60.177490
 30
0.0
 10
93.549675
 20
20.271280
 30
0.0
  0
SPLINE
  5
2e4
100
AcDbEntity
  8
Capa_1
 62
7
100
AcDbSpline
 70
0
 71
3
 72
13
 73
9
 74
7
 40
0.000000
 40
0.000000
 40
0.000000
 40
0.000000
 40
0.436766
 40
0.864085
 40
1.300851
 40
1.737617
 40
2.164936
 40
2.601702
 40
2.601702
 40
2.601702
 40
2.601702
 10
93.549675
 20
20.271280
 30
0.0
 10
93.576886
 20
20.125826
 30
0.0
 10
93.630718
 20
19.838066
 30
0.0
 10
93.470365
 20
19.413640
 30
0.0
 10
93.158335
 20
19.094890
 30
0.0
 10
92.739268
 20
18.942092
 30
0.0
 10
92.286487
 20
18.971054
 30
0.0
 10
92.046540
 20
19.138773
 30
0.0
 10
91.925255
 20
19.223550
 30
0.0
 11
93.549675
 21
20.271280
 31
0.0
 11
93.590339
 21
19.836411
 31
0.0
 11
93.446890
 21
19.433889
 31
0.0
 11
93.140366
 21
19.122749
 31
0.0
 11
92.730503
 21
18.971829
 31
0.0
 11
92.304647
 21
19.007157
 31
0.0
 11
91.925255
 21
19.223550
 31
0.0
  0
LWPOLYLINE
  5
2e5
100
AcDbEntity
  8
Capa_1
 62
7
100
AcDbPolyline
 90
4
 70
0
 10
91.925255
 20
19.223550
 30
0.0
 10
85.428635
 20
25.136270
 30
0.0
 10
83.543985
 20
23.065500
 30
0.0
 10
90.641705
 20
16.605720
 30
0.0
  0
SPLINE
  5
2e6
100
AcDbEntity
  8
Capa_1
 62
7
100
AcDbSpline
 70
0
 71
3
 72
13
 73
9
 74
7
 40
0.000000
 40
0.000000
 40
0.000000
 40
0.000000
 40
0.425331
 40
0.841892
 40
1.267224
 40
1.692555
 40
2.109116
 40
2.534447
 40
2.534447
 40
2.534447
 40
2.534447
 10
90.641705
 20
16.605720
 30
0.0
 10
90.735291
 20
16.496303
 30
0.0
 10
90.920532
 20
16.279725
 30
0.0
 10
90.997459
 20
15.845500
 30
0.0
 10
90.899874
 20
15.422749
 30
0.0
 10
90.633214
 20
15.080500
 30
0.0
 10
90.247638
 20
14.866491
 30
0.0
 10
89.962738
 20
14.873765
 30
0.0
 10
89.818805
 20
14.877440
 30
0.0
 11
90.641705
 21
16.605720
 31
0.0
 11
90.888226
 21
16.259117
 31
0.0
 11
90.968543
 21
15.850371
 31
0.0
 11
90.871500
 21
15.436259
 31
0.0
 11
90.611204
 21
15.099877
 31
0.0
 11
90.243270
 21
14.904561
 31
0.0
 11
89.818805
 21
14.877440
 31
0.0
  0
LWPOLYLINE
  5
2e7
100
AcDbEntity
  8
Capa_1
 62
7
100
AcDbPolyline
 90
2
 70
0
 10
89.818805
 20
14.877440
 30
0.0
 10
51.904885
 20
20.622180
 30
0.0
  0
SPLINE
  5
2e8
100
AcDbEntity
  8
Capa_1
 62
7
100
AcDbSpline
 70
0
 71
3
 72
13
 73
9
 74
7
 40
0.000000
 40
0.000000
 40
0.000000
 40
0.000000
 40
0.425337
 40
0.841904
 40
1.267241
 40
1.692578
 40
2.109145
 40
2.534482
 40
2.534482
 40
2.534482
 40
2.534482
 10
51.904885
 20
20.622180
 30
0.0
 10
51.766321
 20
20.661307
 30
0.0
 10
51.492050
 20
20.738756
 30
0.0
 10
51.187172
 20
21.057384
 30
0.0
 10
51.033866
 20
21.463271
 30
0.0
 10
51.065899
 20
21.895962
 30
0.0
 10
51.268015
 20
22.287910
 30
0.0
 10
51.509106
 20
22.439889
 30
0.0
 10
51.630908
 20
22.516670
 30
0.0
 11
51.904885
 21
20.622180
 31
0.0
 11
51.507499
 21
20.773824
 31
0.0
 11
51.213935
 21
21.069371
 31
0.0
 11
51.064970
 21
21.467769
 31
0.0
 11
51.094961
 21
21.892048
 31
0.0
 11
51.292766
 21
22.258655
 31
0.0
 11
51.630908
 21
22.516670
 31
0.0
  0
LWPOLYLINE
  5
2e9
100
AcDbEntity
  8
Capa_1
 62
7
100
AcDbPolyline
 90
4
 70
0
 10
51.630908
 20
22.516670
 30
0.0
 10
60.323689
 20
26.583870
 30
0.0
 10
59.137079
 20
29.119990
 30
0.0
 10
51.180485
 20
25.397230
 30
0.0
  0
SPLINE
  5
2ea
100
AcDbEntity
  8
Capa_1
 62
7
100
AcDbSpline
 70
0
 71
3
 72
13
 73
9
 74
7
 40
0.000000
 40
0.000000
 40
0.000000
 40
0.000000
 40
0.436769
 40
0.864091
 40
1.300860
 40
1.737629
 40
2.164951
 40
2.601720
 40
2.601720
 40
2.601720
 40
2.601720
 10
88.206296
 20
58.823180
 30
0.0
 10
88.095442
 20
58.921205
 30
0.0
 10
87.876132
 20
59.115134
 30
0.0
 10
87.741806
 20
59.548505
 30
0.0
 10
87.792080
 20
59.991720
 30
0.0
 10
88.028781
 20
60.369794
 30
0.0
 10
88.403778
 20
60.625196
 30
0.0
 10
88.696141
 20
60.640337
 30
0.0
 10
88.843921
 20
60.647990
 30
0.0
 11
88.206296
 21
58.823180
 31
0.0
 11
87.906970
 21
59.141255
 31
0.0
 11
87.772770
 21
59.546957
 31
0.0
 11
87.823377
 21
59.980784
 31
0.0
 11
88.053970
 21
60.351720
 31
0.0
 11
88.411637
 21
60.585554
 31
0.0
 11
88.843921
 21
60.647990
 31
0.0
  0
LWPOLYLINE
  5
2eb
100
AcDbEntity
  8
Capa_1
 62
7
100
AcDbPolyline
 90
2
 70
0
 10
88.843921
 20
60.647990
 30
0.0
 10
130.668740
 20
57.438570
 30
0.0
  0
SPLINE
  5
2ec
100
AcDbEntity
  8
Capa_1
 62
7
100
AcDbSpline
 70
0
 71
3
 72
13
 73
9
 74
7
 40
0.000000
 40
0.000000
 40
0.000000
 40
0.000000
 40
0.445976
 40
0.881938
 40
1.327915
 40
1.773891
 40
2.209853
 40
2.655829
 40
2.655829
 40
2.655829
 40
2.655829
 10
130.668740
 20
57.438570
 30
0.0
 10
130.816692
 20
57.407384
 30
0.0
 10
131.109274
 20
57.345713
 30
0.0
 10
131.443958
 20
57.024333
 30
0.0
 10
131.614343
 20
56.601466
 30
0.0
 10
131.581297
 20
56.146763
 30
0.0
 10
131.360802
 20
55.738497
 30
0.0
 10
131.101050
 20
55.590386
 30
0.0
 10
130.969700
 20
55.515490
 30
0.0
 11
130.668740
 21
57.438570
 31
0.0
 11
131.094620
 21
57.306203
 31
0.0
 11
131.414770
 21
57.010286
 31
0.0
 11
131.580182
 21
56.596120
 31
0.0
 11
131.549213
 21
56.151220
 31
0.0
 11
131.334777
 21
55.771641
 31
0.0
 11
130.969700
 21
55.515490
 31
0.0
  0
LWPOLYLINE
  5
2ed
100
AcDbEntity
  8
Capa_1
 62
7
100
AcDbPolyline
 90
4
 70
0
 10
130.969700
 20
55.515490
 30
0.0
 10
123.594930
 20
52.509350
 30
0.0
 10
124.651850
 20
49.916490
 30
0.0
 10
132.026620
 20
52.922630
 30
0.0
  0
SPLINE
  5
2ee
100
AcDbEntity
  8
Capa_1
 62
7
100
AcDbSpline
 70
0
 71
3
 72
13
 73
9
 74
7
 40
0.000000
 40
0.000000
 40
0.000000
 40
0.000000
 40
0.445979
 40
0.881944
 40
1.327924
 40
1.773903
 40
2.209868
 40
2.655847
 40
2.655847
 40
2.655847
 40
2.655847
 10
132.026620
 20
52.922630
 30
0.0
 10
132.172900
 20
52.960904
 30
0.0
 10
132.462175
 20
53.036592
 30
0.0
 10
132.905255
 20
52.898815
 30
0.0
 10
133.246765
 20
52.596786
 30
0.0
 10
133.420556
 20
52.175305
 30
0.0
 10
133.405917
 20
51.711529
 30
0.0
 10
133.239821
 20
51.462891
 30
0.0
 10
133.155830
 20
51.337160
 30
0.0
 11
132.026620
 21
52.922630
 31
0.0
 11
132.466738
 21
52.994698
 31
0.0
 11
132.885430
 21
52.873198
 31
0.0
 11
133.218601
 21
52.576727
 31
0.0
 11
133.389866
 21
52.164943
 31
0.0
 11
133.367817
 21
51.729536
 31
0.0
 11
133.155830
 21
51.337160
 31
0.0
  0
LWPOLYLINE
  5
2ef
100
AcDbEntity
  8
Capa_1
 62
7
100
AcDbPolyline
 90
2
 70
0
 10
133.155830
 20
51.337160
 30
0.0
 10
105.493400
 20
19.802950
 30
0.0
  0
SPLINE
  5
2f0
100
AcDbEntity
  8
Capa_1
 62
7
100
AcDbSpline
 70
0
 71
3
 72
13
 73
9
 74
7
 40
0.000000
 40
0.000000
 40
0.000000
 40
0.000000
 40
0.436763
 40
0.864078
 40
1.300841
 40
1.737603
 40
2.164919
 40
2.601681
 40
2.601681
 40
2.601681
 40
2.601681
 10
105.493400
 20
19.802950
 30
0.0
 10
105.382382
 20
19.705114
 30
0.0
 10
105.162748
 20
19.511559
 30
0.0
 10
104.716069
 20
19.432030
 30
0.0
 10
104.282520
 20
19.536890
 30
0.0
 10
103.936730
 20
19.818653
 30
0.0
 10
103.729812
 20
20.222425
 30
0.0
 10
103.751047
 20
20.514404
 30
0.0
 10
103.761780
 20
20.661990
 30
0.0
 11
105.493400
 21
19.802950
 31
0.0
 11
105.140655
 21
19.545399
 31
0.0
 11
104.721446
 21
19.462562
 31
0.0
 11
104.297252
 21
19.566588
 31
0.0
 11
103.957787
 21
19.841406
 31
0.0
 11
103.770122
 21
20.225307
 31
0.0
 11
103.761780
 21
20.661990
 31
0.0
  0
LWPOLYLINE
  5
2f1
100
AcDbEntity
  8
Capa_1
 62
7
100
AcDbPolyline
 90
4
 70
0
 10
103.761780
 20
20.661990
 30
0.0
 10
105.515070
 20
29.269670
 30
0.0
 10
102.771400
 20
29.828520
 30
0.0
 10
100.855910
 20
20.424420
 30
0.0
  0
SPLINE
  5
2f2
100
AcDbEntity
  8
Capa_1
 62
7
100
AcDbSpline
 70
0
 71
3
 72
13
 73
9
 74
7
 40
0.000000
 40
0.000000
 40
0.000000
 40
0.000000
 40
0.425333
 40
0.841895
 40
1.267228
 40
1.692561
 40
2.109123
 40
2.534456
 40
2.534456
 40
2.534456
 40
2.534456
 10
100.855910
 20
20.424420
 30
0.0
 10
100.809829
 20
20.288012
 30
0.0
 10
100.718618
 20
20.018009
 30
0.0
 10
100.384992
 20
19.729628
 30
0.0
 10
99.971880
 20
19.597031
 30
0.0
 10
99.541366
 20
19.650887
 30
0.0
 10
99.160134
 20
19.872546
 30
0.0
 10
99.020531
 20
20.121006
 30
0.0
 10
98.950003
 20
20.246530
 30
0.0
 11
100.855910
 21
20.424420
 31
0.0
 11
100.684376
 21
20.035211
 31
0.0
 11
100.374372
 21
19.756962
 31
0.0
 11
99.968959
 21
19.628322
 31
0.0
 11
99.546743
 21
19.679714
 31
0.0
 11
99.190602
 21
19.895788
 31
0.0
 11
98.950003
 21
20.246530
 31
0.0
  0
LWPOLYLINE
  5
2f3
100
AcDbEntity
  8
Capa_1
 62
7
100
AcDbPolyline
 90
2
 70
0
 10
98.950003
 20
20.246530
 30
0.0
 10
84.475271
 20
55.756380
 30
0.0
  0
SPLINE
  5
2f4
100
AcDbEntity
  8
Capa_1
 62
7
100
AcDbSpline
 70
0
 71
3
 72
13
 73
9
 74
7
 40
0.000000
 40
0.000000
 40
0.000000
 40
0.000000
 40
0.425335
 40
0.841899
 40
1.267234
 40
1.692569
 40
2.109134
 40
2.534468
 40
2.534468
 40
2.534468
 40
2.534468
 10
84.475271
 20
55.756380
 30
0.0
 10
84.437947
 20
55.895440
 30
0.0
 10
84.364070
 20
56.170693
 30
0.0
 10
84.481701
 20
56.595704
 30
0.0
 10
84.751883
 20
56.935184
 30
0.0
 10
85.139971
 20
57.129177
 30
0.0
 10
85.580131
 20
57.156210
 30
0.0
 10
85.834108
 20
57.026912
 30
0.0
 10
85.962419
 20
56.961590
 30
0.0
 11
84.475271
 21
55.756380
 31
0.0
 11
84.402103
 21
56.175374
 31
0.0
 11
84.505699
 21
56.578851
 31
0.0
 11
84.771670
 21
56.910769
 31
0.0
 11
85.151486
 21
57.102208
 31
0.0
 11
85.567672
 21
57.119971
 31
0.0
 11
85.962419
 21
56.961590
 31
0.0
  0
LWPOLYLINE
  5
2f5
100
AcDbEntity
  8
Capa_1
 62
7
100
AcDbPolyline
 90
4
 70
0
 10
85.962419
 20
56.961590
 30
0.0
 10
93.906403
 20
51.576460
 30
0.0
 10
95.477513
 20
53.894130
 30
0.0
 10
88.206296
 20
58.823180
 30
0.0
  0
SPLINE
  5
2f6
100
AcDbEntity
  8
Capa_1
 62
7
100
AcDbSpline
 70
0
 71
3
 72
13
 73
9
 74
7
 40
0.000000
 40
0.000000
 40
0.000000
 40
0.000000
 40
0.436768
 40
0.864089
 40
1.300858
 40
1.737626
 40
2.164947
 40
2.601715
 40
2.601715
 40
2.601715
 40
2.601715
 10
82.011065
 20
136.082150
 30
0.0
 10
81.881722
 20
136.010263
 30
0.0
 10
81.625834
 20
135.868043
 30
0.0
 10
81.172467
 20
135.885686
 30
0.0
 10
80.771286
 20
136.080671
 30
0.0
 10
80.493603
 20
136.429754
 30
0.0
 10
80.377641
 20
136.868395
 30
0.0
 10
80.460714
 20
137.149115
 30
0.0
 10
80.502705
 20
137.291010
 30
0.0
 11
82.011065
 21
136.082150
 31
0.0
 11
81.611473
 21
135.905819
 31
0.0
 11
81.184237
 21
135.914367
 31
0.0
 11
80.792018
 21
136.106541
 31
0.0
 11
80.519033
 21
136.447489
 31
0.0
 11
80.417638
 21
136.862606
 31
0.0
 11
80.502705
 21
137.291010
 31
0.0
  0
LWPOLYLINE
  5
2f7
100
AcDbEntity
  8
Capa_1
 62
7
100
AcDbPolyline
 90
2
 70
0
 10
80.502705
 20
137.291010
 30
0.0
 10
97.455715
 20
175.660420
 30
0.0
  0
SPLINE
  5
2f8
100
AcDbEntity
  8
Capa_1
 62
7
100
AcDbSpline
 70
0
 71
3
 72
13
 73
9
 74
7
 40
0.000000
 40
0.000000
 40
0.000000
 40
0.000000
 40
0.445974
 40
0.881934
 40
1.327908
 40
1.773882
 40
2.209842
 40
2.655816
 40
2.655816
 40
2.655816
 40
2.655816
 10
97.455715
 20
175.660420
 30
0.0
 10
97.534386
 20
175.789544
 30
0.0
 10
97.689961
 20
176.044893
 30
0.0
 10
98.104442
 20
176.253465
 30
0.0
 10
98.559909
 20
176.273322
 30
0.0
 10
98.977660
 20
176.090759
 30
0.0
 10
99.289208
 20
175.746907
 30
0.0
 10
99.342378
 20
175.452663
 30
0.0
 10
99.369265
 20
175.303870
 30
0.0
 11
97.455715
 21
175.660420
 31
0.0
 11
97.722337
 21
176.017919
 31
0.0
 11
98.107968
 21
176.221266
 31
0.0
 11
98.553576
 21
176.239331
 31
0.0
 11
98.962774
 21
176.061990
 31
0.0
 11
99.249290
 21
175.733403
 31
0.0
 11
99.369265
 21
175.303870
 31
0.0
  0
LWPOLYLINE
  5
2f9
100
AcDbEntity
  8
Capa_1
 62
7
100
AcDbPolyline
 90
4
 70
0
 10
99.369265
 20
175.303870
 30
0.0
 10
99.748225
 20
167.348960
 30
0.0
 10
102.545050
 20
167.482200
 30
0.0
 10
102.166090
 20
175.437110
 30
0.0
  0
SPLINE
  5
2fa
100
AcDbEntity
  8
Capa_1
 62
7
100
AcDbSpline
 70
0
 71
3
 72
13
 73
9
 74
7
 40
0.000000
 40
0.000000
 40
0.000000
 40
0.000000
 40
0.445981
 40
0.881947
 40
1.327928
 40
1.773909
 40
2.209875
 40
2.655856
 40
2.655856
 40
2.655856
 40
2.655856
 10
102.166090
 20
175.437110
 30
0.0
 10
102.178708
 20
175.587787
 30
0.0
 10
102.203661
 20
175.885759
 30
0.0
 10
102.481113
 20
176.257678
 30
0.0
 10
102.879623
 20
176.479131
 30
0.0
 10
103.334923
 20
176.502659
 30
0.0
 10
103.767359
 20
176.334425
 30
0.0
 10
103.946502
 20
176.095015
 30
0.0
 10
104.037090
 20
175.973950
 30
0.0
 11
102.166090
 21
175.437110
 31
0.0
 11
102.244684
 21
175.876111
 31
0.0
 11
102.498667
 21
176.230454
 31
0.0
 11
102.889160
 21
176.445895
 31
0.0
 11
103.334474
 21
176.470269
 31
0.0
 11
103.737693
 21
176.304495
 31
0.0
 11
104.037090
 21
175.973950
 31
0.0
  0
LWPOLYLINE
  5
2fb
100
AcDbEntity
  8
Capa_1
 62
7
100
AcDbPolyline
 90
2
 70
0
 10
104.037090
 20
175.973950
 30
0.0
 10
124.560820
 20
139.389900
 30
0.0
  0
SPLINE
  5
2fc
100
AcDbEntity
  8
Capa_1
 62
7
100
AcDbSpline
 70
0
 71
3
 72
13
 73
9
 74
7
 40
0.000000
 40
0.000000
 40
0.000000
 40
0.000000
 40
0.436766
 40
0.864084
 40
1.300850
 40
1.737616
 40
2.164934
 40
2.601700
 40
2.601700
 40
2.601700
 40
2.601700
 10
124.560820
 20
139.389900
 30
0.0
 10
124.616108
 20
139.252640
 30
0.0
 10
124.725488
 20
138.981089
 30
0.0
 10
124.651748
 20
138.533414
 30
0.0
 10
124.408508
 20
138.159518
 30
0.0
 10
124.027682
 20
137.927279
 30
0.0
 10
123.578049
 20
137.866617
 30
0.0
 10
123.309800
 20
137.983865
 30
0.0
 10
123.174210
 20
138.043130
 30
0.0
 11
124.560820
 21
139.389900
 31
0.0
 11
124.686223
 21
138.971524
 31
0.0
 11
124.624748
 21
138.548651
 31
0.0
 11
124.385411
 21
138.183299
 31
0.0
 11
124.013239
 21
137.954711
 31
0.0
 11
123.588753
 21
137.905587
 31
0.0
 11
123.174210
 21
138.043130
 31
0.0
  0
LWPOLYLINE
  5
2fd
100
AcDbEntity
  8
Capa_1
 62
7
100
AcDbPolyline
 90
4
 70
0
 10
123.174210
 20
138.043130
 30
0.0
 10
115.641530
 20
142.562540
 30
0.0
 10
114.200990
 20
140.161530
 30
0.0
 10
122.430630
 20
135.223980
 30
0.0
  0
SPLINE
  5
2fe
100
AcDbEntity
  8
Capa_1
 62
7
100
AcDbSpline
 70
0
 71
3
 72
13
 73
9
 74
7
 40
0.000000
 40
0.000000
 40
0.000000
 40
0.000000
 40
0.425334
 40
0.841897
 40
1.267231
 40
1.692565
 40
2.109128
 40
2.534462
 40
2.534462
 40
2.534462
 40
2.534462
 10
122.430630
 20
135.223980
 30
0.0
 10
122.543910
 20
135.135108
 30
0.0
 10
122.768134
 20
134.959196
 30
0.0
 10
122.928969
 20
134.548583
 30
0.0
 10
122.916442
 20
134.114893
 30
0.0
 10
122.722306
 20
133.726878
 30
0.0
 10
122.386352
 20
133.441210
 30
0.0
 10
122.105586
 20
133.392306
 30
0.0
 10
121.963740
 20
133.367600
 30
0.0
 11
122.430630
 21
135.223980
 31
0.0
 11
122.740513
 21
134.932636
 31
0.0
 11
122.899659
 21
134.547671
 31
0.0
 11
122.885964
 21
134.122558
 31
0.0
 11
122.696915
 21
133.741548
 31
0.0
 11
122.374582
 21
133.477678
 31
0.0
 11
121.963740
 21
133.367600
 31
0.0
  0
LWPOLYLINE
  5
2ff
100
AcDbEntity
  8
Capa_1
 62
7
100
AcDbPolyline
 90
2
 70
0
 10
121.963740
 20
133.367600
 30
0.0
 10
83.660515
 20
131.542860
 30
0.0
  0
SPLINE
  5
300
100
AcDbEntity
  8
Capa_1
 62
7
100
AcDbSpline
 70
0
 71
3
 72
13
 73
9
 74
7
 40
0.000000
 40
0.000000
 40
0.000000
 40
0.000000
 40
0.425334
 40
0.841899
 40
1.267233
 40
1.692568
 40
2.109132
 40
2.534467
 40
2.534467
 40
2.534467
 40
2.534467
 10
83.660515
 20
131.542860
 30
0.0
 10
83.516963
 20
131.553970
 30
0.0
 10
83.232818
 20
131.575961
 30
0.0
 10
82.871228
 20
131.828399
 30
0.0
 10
82.641085
 20
132.196201
 30
0.0
 10
82.587386
 20
132.626737
 30
0.0
 10
82.708459
 20
133.050781
 30
0.0
 10
82.914946
 20
133.247212
 30
0.0
 10
83.019265
 20
133.346450
 30
0.0
 11
83.660515
 21
131.542860
 31
0.0
 11
83.241068
 21
131.613382
 31
0.0
 11
82.895110
 21
131.845415
 31
0.0
 11
82.670696
 21
132.206729
 31
0.0
 11
82.616650
 21
132.628616
 31
0.0
 11
82.738481
 21
133.026967
 31
0.0
 11
83.019265
 21
133.346450
 31
0.0
  0
LWPOLYLINE
  5
301
100
AcDbEntity
  8
Capa_1
 62
7
100
AcDbPolyline
 90
4
 70
0
 10
83.019265
 20
133.346450
 30
0.0
 10
90.742265
 20
139.043980
 30
0.0
 10
89.080005
 20
141.297170
 30
0.0
 10
82.011065
 20
136.082150
 30
0.0
  0
SPLINE
  5
302
100
AcDbEntity
  8
Capa_1
 62
7
100
AcDbSpline
 70
0
 71
3
 72
13
 73
9
 74
7
 40
0.000000
 40
0.000000
 40
0.000000
 40
0.000000
 40
0.436763
 40
0.864079
 40
1.300842
 40
1.737605
 40
2.164921
 40
2.601684
 40
2.601684
 40
2.601684
 40
2.601684
 10
168.198900
 20
145.913250
 30
0.0
 10
168.329278
 20
145.983239
 30
0.0
 10
168.587213
 20
146.121704
 30
0.0
 10
169.040268
 20
146.097443
 30
0.0
 10
169.438555
 20
145.896624
 30
0.0
 10
169.711110
 20
145.543531
 30
0.0
 10
169.820661
 20
145.103252
 30
0.0
 10
169.733505
 20
144.823776
 30
0.0
 10
169.689450
 20
144.682510
 30
0.0
 11
168.198900
 21
145.913250
 31
0.0
 11
168.601020
 21
146.083723
 31
0.0
 11
169.028080
 21
146.068937
 31
0.0
 11
169.417448
 21
145.871061
 31
0.0
 11
169.685426
 21
145.526170
 31
0.0
 11
169.780754
 21
145.109623
 31
0.0
 11
169.689450
 21
144.682510
 31
0.0
  0
LWPOLYLINE
  5
303
100
AcDbEntity
  8
Capa_1
 62
7
100
AcDbPolyline
 90
2
 70
0
 10
169.689450
 20
144.682510
 30
0.0
 10
152.178420
 20
106.564540
 30
0.0
  0
SPLINE
  5
304
100
AcDbEntity
  8
Capa_1
 62
7
100
AcDbSpline
 70
0
 71
3
 72
13
 73
9
 74
7
 40
0.000000
 40
0.000000
 40
0.000000
 40
0.000000
 40
0.445980
 40
0.881944
 40
1.327924
 40
1.773903
 40
2.209868
 40
2.655848
 40
2.655848
 40
2.655848
 40
2.655848
 10
152.178420
 20
106.564540
 30
0.0
 10
152.097874
 20
106.436575
 30
0.0
 10
151.938591
 20
106.183518
 30
0.0
 10
151.521106
 20
105.981012
 30
0.0
 10
151.065392
 20
105.967802
 30
0.0
 10
150.650345
 20
106.156446
 30
0.0
 10
150.343847
 20
106.504815
 30
0.0
 10
150.294981
 20
106.799809
 30
0.0
 10
150.270270
 20
106.948980
 30
0.0
 11
152.178420
 21
106.564540
 31
0.0
 11
151.906611
 21
106.210962
 31
0.0
 11
151.518050
 21
106.013260
 31
0.0
 11
151.072221
 21
106.001698
 31
0.0
 11
150.665650
 21
106.184995
 31
0.0
 11
150.383959
 21
106.517735
 31
0.0
 11
150.270270
 21
106.948980
 31
0.0
  0
LWPOLYLINE
  5
305
100
AcDbEntity
  8
Capa_1
 62
7
100
AcDbPolyline
 90
4
 70
0
 10
150.270270
 20
106.948980
 30
0.0
 10
150.007410
 20
114.908570
 30
0.0
 10
147.208940
 20
114.816170
 30
0.0
 10
147.471800
 20
106.856580
 30
0.0
  0
SPLINE
  5
306
100
AcDbEntity
  8
Capa_1
 62
7
100
AcDbSpline
 70
0
 71
3
 72
13
 73
9
 74
7
 40
0.000000
 40
0.000000
 40
0.000000
 40
0.000000
 40
0.445985
 40
0.881954
 40
1.327939
 40
1.773923
 40
2.209893
 40
2.655878
 40
2.655878
 40
2.655878
 40
2.655878
 10
147.471800
 20
106.856580
 30
0.0
 10
147.456986
 20
106.706101
 30
0.0
 10
147.427689
 20
106.408523
 30
0.0
 10
147.144839
 20
106.040688
 30
0.0
 10
146.743137
 20
105.825071
 30
0.0
 10
146.287538
 20
105.808191
 30
0.0
 10
145.857600
 20
105.982721
 30
0.0
 10
145.681971
 20
106.224724
 30
0.0
 10
145.593160
 20
106.347100
 30
0.0
 11
147.471800
 21
106.856580
 31
0.0
 11
147.386811
 21
106.418768
 31
0.0
 11
147.127684
 21
106.068165
 31
0.0
 11
146.734086
 21
105.858444
 31
0.0
 11
146.288460
 21
105.840571
 31
0.0
 11
145.887701
 21
106.012215
 31
0.0
 11
145.593160
 21
106.347100
 31
0.0
  0
LWPOLYLINE
  5
307
100
AcDbEntity
  8
Capa_1
 62
7
100
AcDbPolyline
 90
2
 70
0
 10
145.593160
 20
106.347100
 30
0.0
 10
125.605400
 20
143.226710
 30
0.0
  0
SPLINE
  5
308
100
AcDbEntity
  8
Capa_1
 62
7
100
AcDbSpline
 70
0
 71
3
 72
13
 73
9
 74
7
 40
0.000000
 40
0.000000
 40
0.000000
 40
0.000000
 40
0.436767
 40
0.864087
 40
1.300853
 40
1.737620
 40
2.164940
 40
2.601707
 40
2.601707
 40
2.601707
 40
2.601707
 10
125.605400
 20
143.226710
 30
0.0
 10
125.552121
 20
143.364763
 30
0.0
 10
125.446714
 20
143.637882
 30
0.0
 10
125.526980
 20
144.084434
 30
0.0
 10
125.775651
 20
144.454741
 30
0.0
 10
126.159828
 20
144.681398
 30
0.0
 10
126.610300
 20
144.735490
 30
0.0
 10
126.876809
 20
144.614338
 30
0.0
 10
127.011520
 20
144.553100
 30
0.0
 11
125.605400
 21
143.226710
 31
0.0
 11
125.486115
 21
143.646872
 31
0.0
 11
125.553755
 21
144.068805
 31
0.0
 11
125.798399
 21
144.430626
 31
0.0
 11
126.173869
 21
144.653757
 31
0.0
 11
126.599028
 21
144.696681
 31
0.0
 11
127.011520
 21
144.553100
 31
0.0
  0
LWPOLYLINE
  5
309
100
AcDbEntity
  8
Capa_1
 62
7
100
AcDbPolyline
 90
4
 70
0
 10
127.011520
 20
144.553100
 30
0.0
 10
134.477450
 20
139.924270
 30
0.0
 10
135.952870
 20
142.304000
 30
0.0
 10
127.796150
 20
147.361100
 30
0.0
  0
SPLINE
  5
30a
100
AcDbEntity
  8
Capa_1
 62
7
100
AcDbSpline
 70
0
 71
3
 72
13
 73
9
 74
7
 40
0.000000
 40
0.000000
 40
0.000000
 40
0.000000
 40
0.425334
 40
0.841898
 40
1.267232
 40
1.692566
 40
2.109131
 40
2.534465
 40
2.534465
 40
2.534465
 40
2.534465
 10
127.796150
 20
147.361100
 30
0.0
 10
127.684179
 20
147.451616
 30
0.0
 10
127.462545
 20
147.630780
 30
0.0
 10
127.307718
 20
148.043697
 30
0.0
 10
127.326573
 20
148.477159
 30
0.0
 10
127.526351
 20
148.862300
 30
0.0
 10
127.866438
 20
149.143035
 30
0.0
 10
128.147889
 20
149.187836
 30
0.0
 10
128.290080
 20
149.210470
 30
0.0
 11
127.796150
 21
147.361100
 31
0.0
 11
127.490551
 21
147.656935
 31
0.0
 11
127.337039
 21
148.044181
 31
0.0
 11
127.356936
 21
148.469050
 31
0.0
 11
127.551525
 21
148.847261
 31
0.0
 11
127.877674
 21
149.106400
 31
0.0
 11
128.290080
 21
149.210470
 31
0.0
  0
LWPOLYLINE
  5
30b
100
AcDbEntity
  8
Capa_1
 62
7
100
AcDbPolyline
 90
2
 70
0
 10
128.290080
 20
149.210470
 30
0.0
 10
166.615850
 20
150.476150
 30
0.0
  0
SPLINE
  5
30c
100
AcDbEntity
  8
Capa_1
 62
7
100
AcDbSpline
 70
0
 71
3
 72
13
 73
9
 74
7
 40
0.000000
 40
0.000000
 40
0.000000
 40
0.000000
 40
0.425338
 40
0.841906
 40
1.267245
 40
1.692583
 40
2.109151
 40
2.534489
 40
2.534489
 40
2.534489
 40
2.534489
 10
166.615850
 20
150.476150
 30
0.0
 10
166.759226
 20
150.462948
 30
0.0
 10
167.043023
 20
150.436817
 30
0.0
 10
167.400896
 20
150.179130
 30
0.0
 10
167.625651
 20
149.808006
 30
0.0
 10
167.673063
 20
149.376728
 30
0.0
 10
167.545812
 20
148.954492
 30
0.0
 10
167.336478
 20
148.761096
 30
0.0
 10
167.230720
 20
148.663390
 30
0.0
 11
166.615850
 21
150.476150
 31
0.0
 11
167.034228
 21
150.399519
 31
0.0
 11
167.376768
 21
150.162463
 31
0.0
 11
167.595890
 21
149.797911
 31
0.0
 11
167.643774
 21
149.375276
 31
0.0
 11
167.516141
 21
148.978743
 31
0.0
 11
167.230720
 21
148.663390
 31
0.0
  0
LWPOLYLINE
  5
30d
100
AcDbEntity
  8
Capa_1
 62
7
100
AcDbPolyline
 90
4
 70
0
 10
167.230720
 20
148.663390
 30
0.0
 10
159.425410
 20
143.079150
 30
0.0
 10
161.054620
 20
140.801950
 30
0.0
 10
168.198900
 20
145.913250
 30
0.0
  0
ENDSEC
  0
SECTION
  2
OBJECTS
  0
DICTIONARY
  5
C
330
0
100
AcDbDictionary
  3
ACAD_GROUP
350
D
  3
ACAD_MLINESTYLE
350
17
  0
DICTIONARY
  5
D
330
C
100
AcDbDictionary
  0
DICTIONARY
  5
1A
330
C
100
AcDbDictionary
  0
DICTIONARY
  5
17
330
C
100
AcDbDictionary
  3
STANDARD
350
18
  0
DICTIONARY
  5
19
330
C
100
AcDbDictionary
  0
ENDSEC
  0
EOF
