  0
SECTION
  2
HEADER
  9
$ACADVER
  1
AC1009
  9
$DWGCODEPAGE
  3
ansi_1252
  9
$INSBASE
 10
0.0
 20
0.0
 30
0.0
  9
$EXTMIN
 10
-55.6006
 20
-18.9175
 30
0.0
  9
$EXTMAX
 10
55.6599
 20
19.1711
 30
0.0
  9
$LIMMIN
 10
0.0
 20
0.0
  9
$LIMMAX
 10
12.0
 20
9.0
  9
$ORTHOMODE
 70
     0
  9
$REGENMODE
 70
     1
  9
$FILLMODE
 70
     1
  9
$QTEXTMODE
 70
     0
  9
$MIRRTEXT
 70
     1
  9
$DRAGMODE
 70
     2
  9
$LTSCALE
 40
1.0
  9
$OSMODE
 70
    37
  9
$ATTMODE
 70
     1
  9
$TEXTSIZE
 40
0.2
  9
$TRACEWID
 40
0.05
  9
$TEXTSTYLE
  7
STANDARD
  9
$CLAYER
  8
0
  9
$CELTYPE
  6
BYLAYER
  9
$CECOLOR
 62
   256
  9
$DIMSCALE
 40
1.0
  9
$DIMASZ
 40
0.18
  9
$DIMEXO
 40
0.0625
  9
$DIMDLI
 40
0.38
  9
$DIMRND
 40
0.0
  9
$DIMDLE
 40
0.0
  9
$DIMEXE
 40
0.18
  9
$DIMTP
 40
0.0
  9
$DIMTM
 40
0.0
  9
$DIMTXT
 40
0.18
  9
$DIMCEN
 40
0.09
  9
$DIMTSZ
 40
0.0
  9
$DIMTOL
 70
     0
  9
$DIMLIM
 70
     0
  9
$DIMTIH
 70
     1
  9
$DIMTOH
 70
     1
  9
$DIMSE1
 70
     0
  9
$DIMSE2
 70
     0
  9
$DIMTAD
 70
     0
  9
$DIMZIN
 70
     0
  9
$DIMBLK
  1

  9
$DIMASO
 70
     1
  9
$DIMSHO
 70
     1
  9
$DIMPOST
  1

  9
$DIMAPOST
  1

  9
$DIMALT
 70
     0
  9
$DIMALTD
 70
     2
  9
$DIMALTF
 40
25.4
  9
$DIMLFAC
 40
1.0
  9
$DIMTOFL
 70
     0
  9
$DIMTVP
 40
0.0
  9
$DIMTIX
 70
     0
  9
$DIMSOXD
 70
     0
  9
$DIMSAH
 70
     0
  9
$DIMBLK1
  1

  9
$DIMBLK2
  1

  9
$DIMSTYLE
  2
STANDARD
  9
$DIMCLRD
 70
     0
  9
$DIMCLRE
 70
     0
  9
$DIMCLRT
 70
     0
  9
$DIMTFAC
 40
1.0
  9
$DIMGAP
 40
0.09
  9
$LUNITS
 70
     2
  9
$LUPREC
 70
     4
  9
$SKETCHINC
 40
0.1
  9
$FILLETRAD
 40
0.5
  9
$AUNITS
 70
     0
  9
$AUPREC
 70
     0
  9
$MENU
  1
.
  9
$ELEVATION
 40
0.0
  9
$PELEVATION
 40
0.0
  9
$THICKNESS
 40
0.0
  9
$LIMCHECK
 70
     0
  9
$CHAMFERA
 40
0.0
  9
$CHAMFERB
 40
0.0
  9
$SKPOLY
 70
     0
  9
$TDCREATE
 40
2459625.670051065
  9
$TDUPDATE
 40
2459625.670051134
  9
$TDINDWG
 40
0.0000000116
  9
$TDUSRTIMER
 40
0.0000000116
  9
$USRTIMER
 70
     1
  9
$ANGBASE
 50
0.0
  9
$ANGDIR
 70
     0
  9
$PDMODE
 70
     0
  9
$PDSIZE
 40
0.0
  9
$PLINEWID
 40
0.0
  9
$COORDS
 70
     1
  9
$SPLFRAME
 70
     0
  9
$SPLINETYPE
 70
     6
  9
$SPLINESEGS
 70
     8
  9
$ATTDIA
 70
     0
  9
$ATTREQ
 70
     1
  9
$HANDLING
 70
     1
  9
$HANDSEED
  5
54C
  9
$SURFTAB1
 70
     6
  9
$SURFTAB2
 70
     6
  9
$SURFTYPE
 70
     6
  9
$SURFU
 70
     6
  9
$SURFV
 70
     6
  9
$UCSNAME
  2

  9
$UCSORG
 10
0.0
 20
0.0
 30
0.0
  9
$UCSXDIR
 10
1.0
 20
0.0
 30
0.0
  9
$UCSYDIR
 10
0.0
 20
1.0
 30
0.0
  9
$PUCSNAME
  2

  9
$PUCSORG
 10
0.0
 20
0.0
 30
0.0
  9
$PUCSXDIR
 10
1.0
 20
0.0
 30
0.0
  9
$PUCSYDIR
 10
0.0
 20
1.0
 30
0.0
  9
$USERI1
 70
     0
  9
$USERI2
 70
     0
  9
$USERI3
 70
     0
  9
$USERI4
 70
     0
  9
$USERI5
 70
     0
  9
$USERR1
 40
0.0
  9
$USERR2
 40
0.0
  9
$USERR3
 40
0.0
  9
$USERR4
 40
0.0
  9
$USERR5
 40
0.0
  9
$WORLDVIEW
 70
     1
  9
$SHADEDGE
 70
     3
  9
$SHADEDIF
 70
    70
  9
$TILEMODE
 70
     1
  9
$MAXACTVP
 70
    64
  9
$PLIMCHECK
 70
     0
  9
$PEXTMIN
 10
1.000000000000000E+20
 20
1.000000000000000E+20
 30
1.000000000000000E+20
  9
$PEXTMAX
 10
-1.000000000000000E+20
 20
-1.000000000000000E+20
 30
-1.000000000000000E+20
  9
$PLIMMIN
 10
0.0
 20
0.0
  9
$PLIMMAX
 10
12.0
 20
9.0
  9
$UNITMODE
 70
     0
  9
$VISRETAIN
 70
     1
  9
$PLINEGEN
 70
     0
  9
$PSLTSCALE
 70
     1
  0
ENDSEC
  0
SECTION
  2
TABLES
  0
TABLE
  2
VPORT
 70
     1
  0
VPORT
  2
*ACTIVE
 70
     0
 10
0.0
 20
0.0
 11
1.0
 21
1.0
 12
10.42990654205607
 22
4.5
 13
0.0
 23
0.0
 14
0.5
 24
0.5
 15
0.5
 25
0.5
 16
0.0
 26
0.0
 36
1.0
 17
0.0
 27
0.0
 37
0.0
 40
9.0
 41
1.972972972850329
 42
50.0
 43
0.0
 44
0.0
 50
0.0
 51
0.0
 71
     0
 72
   100
 73
     1
 74
     3
 75
     0
 76
     0
 77
     0
 78
     0
  0
ENDTAB
  0
TABLE
  2
LTYPE
 70
     1
  0
LTYPE
  2
CONTINUOUS
 70
     0
  3
Solid line
 72
    65
 73
     0
 40
0.0
  0
ENDTAB
  0
TABLE
  2
LAYER
 70
     2
  0
LAYER
  2
0
 70
     0
 62
     7
  6
CONTINUOUS
  0
LAYER
  2
CAPA_1
 70
     0
 62
     7
  6
CONTINUOUS
  0
ENDTAB
  0
TABLE
  2
STYLE
 70
     1
  0
STYLE
  2
STANDARD
 70
     0
 40
0.0
 41
1.0
 50
0.0
 71
     0
 42
0.2
  3
txt
  4

  0
ENDTAB
  0
TABLE
  2
VIEW
 70
     0
  0
ENDTAB
  0
TABLE
  2
UCS
 70
     0
  0
ENDTAB
  0
TABLE
  2
APPID
 70
     2
  0
APPID
  2
ACAD
 70
     0
  0
APPID
  2
ODA
 70
     0
  0
ENDTAB
  0
TABLE
  2
DIMSTYLE
 70
     1
  0
DIMSTYLE
  2
STANDARD
 70
     0
  3

  4

  5

  6

  7

 40
1.0
 41
0.18
 42
0.0625
 43
0.38
 44
0.18
 45
0.0
 46
0.0
 47
0.0
 48
0.0
140
0.18
141
0.09
142
0.0
143
25.4
144
1.0
145
0.0
146
1.0
147
0.09
 71
     0
 72
     0
 73
     1
 74
     1
 75
     0
 76
     0
 77
     0
 78
     0
170
     0
171
     2
172
     0
173
     0
174
     0
175
     0
176
     0
177
     0
178
     0
  0
ENDTAB
  0
ENDSEC
  0
SECTION
  2
BLOCKS
  0
BLOCK
  8
0
  2
$MODEL_SPACE
 70
     0
 10
0.0
 20
0.0
 30
0.0
  3
$MODEL_SPACE
  1

  0
ENDBLK
  5
21
  8
0
  0
BLOCK
 67
     1
  8
0
  2
$PAPER_SPACE
 70
     0
 10
0.0
 20
0.0
 30
0.0
  3
$PAPER_SPACE
  1

  0
ENDBLK
  5
1D
 67
     1
  8
0
  0
ENDSEC
  0
SECTION
  2
ENTITIES
  0
POLYLINE
  5
70
  8
CAPA_1
 66
     1
 10
0.0
 20
0.0
 30
0.0
 70
     1
  0
VERTEX
  5
98
  8
CAPA_1
 10
-44.2946
 20
16.0407
 30
0.0
  0
VERTEX
  5
99
  8
CAPA_1
 10
-41.936
 20
14.6709
 30
0.0
  0
VERTEX
  5
9A
  8
CAPA_1
 10
-41.0179
 20
14.8086
 30
0.0
  0
VERTEX
  5
9B
  8
CAPA_1
 10
-40.043
 20
14.8901
 30
0.0
  0
VERTEX
  5
9C
  8
CAPA_1
 10
-39.0378
 20
14.9096
 30
0.0
  0
VERTEX
  5
9D
  8
CAPA_1
 10
-38.0289
 20
14.8614
 30
0.0
  0
VERTEX
  5
9E
  8
CAPA_1
 10
-37.0427
 20
14.7395
 30
0.0
  0
VERTEX
  5
9F
  8
CAPA_1
 10
-36.1059
 20
14.5383
 30
0.0
  0
VERTEX
  5
A0
  8
CAPA_1
 10
-35.2449
 20
14.252
 30
0.0
  0
VERTEX
  5
A1
  8
CAPA_1
 10
-34.4864
 20
13.8747
 30
0.0
  0
VERTEX
  5
A2
  8
CAPA_1
 10
-33.5451
 20
13.1486
 30
0.0
  0
VERTEX
  5
A3
  8
CAPA_1
 10
-32.862
 20
12.2985
 30
0.0
  0
VERTEX
  5
A4
  8
CAPA_1
 10
-32.4391
 20
11.3627
 30
0.0
  0
VERTEX
  5
A5
  8
CAPA_1
 10
-32.2782
 20
10.3798
 30
0.0
  0
VERTEX
  5
A6
  8
CAPA_1
 10
-32.3813
 20
9.3884
 30
0.0
  0
VERTEX
  5
A7
  8
CAPA_1
 10
-32.7504
 20
8.427
 30
0.0
  0
VERTEX
  5
A8
  8
CAPA_1
 10
-33.3873
 20
7.5341
 30
0.0
  0
VERTEX
  5
A9
  8
CAPA_1
 10
-34.2941
 20
6.7482
 30
0.0
  0
VERTEX
  5
AA
  8
CAPA_1
 10
-35.4184
 20
6.1347
 30
0.0
  0
VERTEX
  5
AB
  8
CAPA_1
 10
-36.6763
 20
5.7238
 30
0.0
  0
VERTEX
  5
AC
  8
CAPA_1
 10
-38.0243
 20
5.5051
 30
0.0
  0
VERTEX
  5
AD
  8
CAPA_1
 10
-39.4191
 20
5.4681
 30
0.0
  0
VERTEX
  5
AE
  8
CAPA_1
 10
-40.8173
 20
5.6024
 30
0.0
  0
VERTEX
  5
AF
  8
CAPA_1
 10
-42.1755
 20
5.8975
 30
0.0
  0
VERTEX
  5
B0
  8
CAPA_1
 10
-43.4503
 20
6.3429
 30
0.0
  0
VERTEX
  5
B1
  8
CAPA_1
 10
-44.5984
 20
6.9281
 30
0.0
  0
VERTEX
  5
B2
  8
CAPA_1
 10
-45.1753
 20
7.3461
 30
0.0
  0
VERTEX
  5
B3
  8
CAPA_1
 10
-45.641
 20
7.8206
 30
0.0
  0
VERTEX
  5
B4
  8
CAPA_1
 10
-46.0016
 20
8.3394
 30
0.0
  0
VERTEX
  5
B5
  8
CAPA_1
 10
-46.2633
 20
8.8905
 30
0.0
  0
VERTEX
  5
B6
  8
CAPA_1
 10
-46.4324
 20
9.4616
 30
0.0
  0
VERTEX
  5
B7
  8
CAPA_1
 10
-46.515
 20
10.0407
 30
0.0
  0
VERTEX
  5
B8
  8
CAPA_1
 10
-46.5173
 20
10.6154
 30
0.0
  0
VERTEX
  5
B9
  8
CAPA_1
 10
-46.4455
 20
11.1738
 30
0.0
  0
VERTEX
  5
BA
  8
CAPA_1
 10
-49.532
 20
13.0082
 30
0.0
  0
VERTEX
  5
BB
  8
CAPA_1
 10
-54.9228
 20
9.877
 30
0.0
  0
VERTEX
  5
BC
  8
CAPA_1
 10
-38.8763
 20
0.6264
 30
0.0
  0
VERTEX
  5
BD
  8
CAPA_1
 10
-22.9061
 20
9.8304
 30
0.0
  0
VERTEX
  5
BE
  8
CAPA_1
 10
-38.9169
 20
19.1272
 30
0.0
  0
VERTEX
  5
BF
  8
CAPA_1
 10
-44.2946
 20
16.0407
 30
0.0
  0
SEQEND
  5
52B
  8
CAPA_1
  0
POLYLINE
  5
71
  8
CAPA_1
 66
     1
 10
0.0
 20
0.0
 30
0.0
 70
     1
  0
VERTEX
  5
C0
  8
CAPA_1
 10
-22.3046
 20
-3.6608
 30
0.0
  0
VERTEX
  5
C1
  8
CAPA_1
 10
-25.0764
 20
-5.2049
 30
0.0
  0
VERTEX
  5
C2
  8
CAPA_1
 10
-25.3896
 20
-6.0416
 30
0.0
  0
VERTEX
  5
C3
  8
CAPA_1
 10
-25.7358
 20
-6.8713
 30
0.0
  0
VERTEX
  5
C4
  8
CAPA_1
 10
-26.1214
 20
-7.6776
 30
0.0
  0
VERTEX
  5
C5
  8
CAPA_1
 10
-26.5525
 20
-8.4445
 30
0.0
  0
VERTEX
  5
C6
  8
CAPA_1
 10
-27.0352
 20
-9.1559
 30
0.0
  0
VERTEX
  5
C7
  8
CAPA_1
 10
-27.5759
 20
-9.7954
 30
0.0
  0
VERTEX
  5
C8
  8
CAPA_1
 10
-28.1806
 20
-10.3471
 30
0.0
  0
VERTEX
  5
C9
  8
CAPA_1
 10
-28.8557
 20
-10.7946
 30
0.0
  0
VERTEX
  5
CA
  8
CAPA_1
 10
-29.9633
 20
-11.2883
 30
0.0
  0
VERTEX
  5
CB
  8
CAPA_1
 10
-31.0731
 20
-11.572
 30
0.0
  0
VERTEX
  5
CC
  8
CAPA_1
 10
-32.1428
 20
-11.6388
 30
0.0
  0
VERTEX
  5
CD
  8
CAPA_1
 10
-33.13
 20
-11.4821
 30
0.0
  0
VERTEX
  5
CE
  8
CAPA_1
 10
-33.9925
 20
-11.0949
 30
0.0
  0
VERTEX
  5
CF
  8
CAPA_1
 10
-34.6879
 20
-10.4707
 30
0.0
  0
VERTEX
  5
D0
  8
CAPA_1
 10
-35.174
 20
-9.6025
 30
0.0
  0
VERTEX
  5
D1
  8
CAPA_1
 10
-35.4085
 20
-8.4836
 30
0.0
  0
VERTEX
  5
D2
  8
CAPA_1
 10
-35.4428
 20
-7.2339
 30
0.0
  0
VERTEX
  5
D3
  8
CAPA_1
 10
-35.3475
 20
-5.9885
 30
0.0
  0
VERTEX
  5
D4
  8
CAPA_1
 10
-35.1116
 20
-4.7632
 30
0.0
  0
VERTEX
  5
D5
  8
CAPA_1
 10
-34.7237
 20
-3.574
 30
0.0
  0
VERTEX
  5
D6
  8
CAPA_1
 10
-34.1726
 20
-2.4367
 30
0.0
  0
VERTEX
  5
D7
  8
CAPA_1
 10
-33.4471
 20
-1.3673
 30
0.0
  0
VERTEX
  5
D8
  8
CAPA_1
 10
-32.5359
 20
-0.3815
 30
0.0
  0
VERTEX
  5
D9
  8
CAPA_1
 10
-31.4278
 20
0.5048
 30
0.0
  0
VERTEX
  5
DA
  8
CAPA_1
 10
-30.4625
 20
1.0765
 30
0.0
  0
VERTEX
  5
DB
  8
CAPA_1
 10
-29.5615
 20
1.4383
 30
0.0
  0
VERTEX
  5
DC
  8
CAPA_1
 10
-28.727
 20
1.6118
 30
0.0
  0
VERTEX
  5
DD
  8
CAPA_1
 10
-27.9616
 20
1.6188
 30
0.0
  0
VERTEX
  5
DE
  8
CAPA_1
 10
-27.2675
 20
1.4811
 30
0.0
  0
VERTEX
  5
DF
  8
CAPA_1
 10
-26.6471
 20
1.2203
 30
0.0
  0
VERTEX
  5
E0
  8
CAPA_1
 10
-26.103
 20
0.8582
 30
0.0
  0
VERTEX
  5
E1
  8
CAPA_1
 10
-25.6373
 20
0.4166
 30
0.0
  0
VERTEX
  5
E2
  8
CAPA_1
 10
-22.2675
 20
2.3446
 30
0.0
  0
VERTEX
  5
E3
  8
CAPA_1
 10
-22.2757
 20
8.6388
 30
0.0
  0
VERTEX
  5
E4
  8
CAPA_1
 10
-38.2505
 20
-0.5426
 30
0.0
  0
VERTEX
  5
E5
  8
CAPA_1
 10
-38.2519
 20
-18.8514
 30
0.0
  0
VERTEX
  5
E6
  8
CAPA_1
 10
-22.288
 20
-9.6213
 30
0.0
  0
VERTEX
  5
E7
  8
CAPA_1
 10
-22.3046
 20
-3.6608
 30
0.0
  0
SEQEND
  5
52C
  8
CAPA_1
  0
POLYLINE
  5
72
  8
CAPA_1
 66
     1
 10
0.0
 20
0.0
 30
0.0
 70
     1
  0
VERTEX
  5
E8
  8
CAPA_1
 10
-55.5346
 20
8.5816
 30
0.0
  0
VERTEX
  5
E9
  8
CAPA_1
 10
-55.5625
 20
-9.6133
 30
0.0
  0
VERTEX
  5
EA
  8
CAPA_1
 10
-50.5654
 20
-12.4976
 30
0.0
  0
VERTEX
  5
EB
  8
CAPA_1
 10
-50.5654
 20
-8.617
 30
0.0
  0
VERTEX
  5
EC
  8
CAPA_1
 10
-51.1082
 20
-7.9208
 30
0.0
  0
VERTEX
  5
ED
  8
CAPA_1
 10
-51.5948
 20
-7.1959
 30
0.0
  0
VERTEX
  5
EE
  8
CAPA_1
 10
-52.019
 20
-6.4464
 30
0.0
  0
VERTEX
  5
EF
  8
CAPA_1
 10
-52.3751
 20
-5.6763
 30
0.0
  0
VERTEX
  5
F0
  8
CAPA_1
 10
-52.6571
 20
-4.8899
 30
0.0
  0
VERTEX
  5
F1
  8
CAPA_1
 10
-52.8589
 20
-4.0912
 30
0.0
  0
VERTEX
  5
F2
  8
CAPA_1
 10
-52.9747
 20
-3.2843
 30
0.0
  0
VERTEX
  5
F3
  8
CAPA_1
 10
-52.9985
 20
-2.4734
 30
0.0
  0
VERTEX
  5
F4
  8
CAPA_1
 10
-52.8461
 20
-1.3141
 30
0.0
  0
VERTEX
  5
F5
  8
CAPA_1
 10
-52.4818
 20
-0.3343
 30
0.0
  0
VERTEX
  5
F6
  8
CAPA_1
 10
-51.9312
 20
0.4513
 30
0.0
  0
VERTEX
  5
F7
  8
CAPA_1
 10
-51.2195
 20
1.0276
 30
0.0
  0
VERTEX
  5
F8
  8
CAPA_1
 10
-50.3722
 20
1.3798
 30
0.0
  0
VERTEX
  5
F9
  8
CAPA_1
 10
-49.4147
 20
1.4931
 30
0.0
  0
VERTEX
  5
FA
  8
CAPA_1
 10
-48.3726
 20
1.3525
 30
0.0
  0
VERTEX
  5
FB
  8
CAPA_1
 10
-47.2711
 20
0.9432
 30
0.0
  0
VERTEX
  5
FC
  8
CAPA_1
 10
-46.182
 20
0.287
 30
0.0
  0
VERTEX
  5
FD
  8
CAPA_1
 10
-45.1748
 20
-0.5606
 30
0.0
  0
VERTEX
  5
FE
  8
CAPA_1
 10
-44.2708
 20
-1.5645
 30
0.0
  0
VERTEX
  5
FF
  8
CAPA_1
 10
-43.4907
 20
-2.6902
 30
0.0
  0
VERTEX
  5
100
  8
CAPA_1
 10
-42.8558
 20
-3.9026
 30
0.0
  0
VERTEX
  5
101
  8
CAPA_1
 10
-42.3869
 20
-5.1671
 30
0.0
  0
VERTEX
  5
102
  8
CAPA_1
 10
-42.105
 20
-6.4488
 30
0.0
  0
VERTEX
  5
103
  8
CAPA_1
 10
-42.0313
 20
-7.7129
 30
0.0
  0
VERTEX
  5
104
  8
CAPA_1
 10
-42.0943
 20
-8.421
 30
0.0
  0
VERTEX
  5
105
  8
CAPA_1
 10
-42.2359
 20
-9.0676
 30
0.0
  0
VERTEX
  5
106
  8
CAPA_1
 10
-42.4506
 20
-9.6498
 30
0.0
  0
VERTEX
  5
107
  8
CAPA_1
 10
-42.7329
 20
-10.1645
 30
0.0
  0
VERTEX
  5
108
  8
CAPA_1
 10
-43.0773
 20
-10.6089
 30
0.0
  0
VERTEX
  5
109
  8
CAPA_1
 10
-43.4786
 20
-10.9801
 30
0.0
  0
VERTEX
  5
10A
  8
CAPA_1
 10
-43.9311
 20
-11.2752
 30
0.0
  0
VERTEX
  5
10B
  8
CAPA_1
 10
-44.4295
 20
-11.4911
 30
0.0
  0
VERTEX
  5
10C
  8
CAPA_1
 10
-44.4387
 20
-16.1136
 30
0.0
  0
VERTEX
  5
10D
  8
CAPA_1
 10
-39.6157
 20
-18.8736
 30
0.0
  0
VERTEX
  5
10E
  8
CAPA_1
 10
-39.6155
 20
-18.8736
 30
0.0
  0
VERTEX
  5
10F
  8
CAPA_1
 10
-39.5873
 20
-0.5543
 30
0.0
  0
VERTEX
  5
110
  8
CAPA_1
 10
-55.5346
 20
8.5816
 30
0.0
  0
SEQEND
  5
52D
  8
CAPA_1
  0
POLYLINE
  5
73
  8
CAPA_1
 66
     1
 10
0.0
 20
0.0
 30
0.0
 70
     1
  0
VERTEX
  5
111
  8
CAPA_1
 10
2.5952
 20
4.1514
 30
0.0
  0
VERTEX
  5
112
  8
CAPA_1
 10
2.4707
 20
5.3346
 30
0.0
  0
VERTEX
  5
113
  8
CAPA_1
 10
2.1265
 20
6.4362
 30
0.0
  0
VERTEX
  5
114
  8
CAPA_1
 10
1.5854
 20
7.4328
 30
0.0
  0
VERTEX
  5
115
  8
CAPA_1
 10
0.8703
 20
8.3009
 30
0.0
  0
VERTEX
  5
116
  8
CAPA_1
 10
0.0041
 20
9.0169
 30
0.0
  0
VERTEX
  5
117
  8
CAPA_1
 10
-0.9903
 20
9.5575
 30
0.0
  0
VERTEX
  5
118
  8
CAPA_1
 10
-2.0902
 20
9.899
 30
0.0
  0
VERTEX
  5
119
  8
CAPA_1
 10
-3.2726
 20
10.0181
 30
0.0
  0
VERTEX
  5
11A
  8
CAPA_1
 10
-4.4611
 20
9.8982
 30
0.0
  0
VERTEX
  5
11B
  8
CAPA_1
 10
-5.568
 20
9.5544
 30
0.0
  0
VERTEX
  5
11C
  8
CAPA_1
 10
-6.5698
 20
9.0104
 30
0.0
  0
VERTEX
  5
11D
  8
CAPA_1
 10
-7.4426
 20
8.2899
 30
0.0
  0
VERTEX
  5
11E
  8
CAPA_1
 10
-8.1628
 20
7.4167
 30
0.0
  0
VERTEX
  5
11F
  8
CAPA_1
 10
-8.7065
 20
6.4145
 30
0.0
  0
VERTEX
  5
120
  8
CAPA_1
 10
-9.0502
 20
5.3071
 30
0.0
  0
VERTEX
  5
121
  8
CAPA_1
 10
-9.17
 20
4.1182
 30
0.0
  0
VERTEX
  5
122
  8
CAPA_1
 10
-9.0502
 20
2.9291
 30
0.0
  0
VERTEX
  5
123
  8
CAPA_1
 10
-8.7065
 20
1.8217
 30
0.0
  0
VERTEX
  5
124
  8
CAPA_1
 10
-8.1628
 20
0.8197
 30
0.0
  0
VERTEX
  5
125
  8
CAPA_1
 10
-7.4426
 20
-0.0534
 30
0.0
  0
VERTEX
  5
126
  8
CAPA_1
 10
-6.5698
 20
-0.7737
 30
0.0
  0
VERTEX
  5
127
  8
CAPA_1
 10
-5.568
 20
-1.3175
 30
0.0
  0
VERTEX
  5
128
  8
CAPA_1
 10
-4.4611
 20
-1.6612
 30
0.0
  0
VERTEX
  5
129
  8
CAPA_1
 10
-3.2726
 20
-1.781
 30
0.0
  0
VERTEX
  5
12A
  8
CAPA_1
 10
-3.2726
 20
0.6366
 30
0.0
  0
VERTEX
  5
12B
  8
CAPA_1
 10
-3.293
 20
0.6349
 30
0.0
  0
VERTEX
  5
12C
  8
CAPA_1
 10
-4.0007
 20
0.7062
 30
0.0
  0
VERTEX
  5
12D
  8
CAPA_1
 10
-4.6598
 20
0.9107
 30
0.0
  0
VERTEX
  5
12E
  8
CAPA_1
 10
-5.2562
 20
1.2342
 30
0.0
  0
VERTEX
  5
12F
  8
CAPA_1
 10
-5.7758
 20
1.6626
 30
0.0
  0
VERTEX
  5
130
  8
CAPA_1
 10
-6.2044
 20
2.1819
 30
0.0
  0
VERTEX
  5
131
  8
CAPA_1
 10
-6.5281
 20
2.7778
 30
0.0
  0
VERTEX
  5
132
  8
CAPA_1
 10
-6.7326
 20
3.4363
 30
0.0
  0
VERTEX
  5
133
  8
CAPA_1
 10
-6.8039
 20
4.1432
 30
0.0
  0
VERTEX
  5
134
  8
CAPA_1
 10
-6.7326
 20
4.8502
 30
0.0
  0
VERTEX
  5
135
  8
CAPA_1
 10
-6.5281
 20
5.5088
 30
0.0
  0
VERTEX
  5
136
  8
CAPA_1
 10
-6.2044
 20
6.1048
 30
0.0
  0
VERTEX
  5
137
  8
CAPA_1
 10
-5.7758
 20
6.6242
 30
0.0
  0
VERTEX
  5
138
  8
CAPA_1
 10
-5.2562
 20
7.0527
 30
0.0
  0
VERTEX
  5
139
  8
CAPA_1
 10
-4.6598
 20
7.3762
 30
0.0
  0
VERTEX
  5
13A
  8
CAPA_1
 10
-4.0007
 20
7.5807
 30
0.0
  0
VERTEX
  5
13B
  8
CAPA_1
 10
-3.293
 20
7.652
 30
0.0
  0
VERTEX
  5
13C
  8
CAPA_1
 10
-2.5847
 20
7.5809
 30
0.0
  0
VERTEX
  5
13D
  8
CAPA_1
 10
-1.9213
 20
7.3769
 30
0.0
  0
VERTEX
  5
13E
  8
CAPA_1
 10
-1.318
 20
7.0542
 30
0.0
  0
VERTEX
  5
13F
  8
CAPA_1
 10
-0.7901
 20
6.6268
 30
0.0
  0
VERTEX
  5
140
  8
CAPA_1
 10
-0.3526
 20
6.1087
 30
0.0
  0
VERTEX
  5
141
  8
CAPA_1
 10
-0.0208
 20
5.5141
 30
0.0
  0
VERTEX
  5
142
  8
CAPA_1
 10
0.1902
 20
4.8569
 30
0.0
  0
VERTEX
  5
143
  8
CAPA_1
 10
0.2651
 20
4.1514
 30
0.0
  0
VERTEX
  5
144
  8
CAPA_1
 10
0.2651
 20
-1.781
 30
0.0
  0
VERTEX
  5
145
  8
CAPA_1
 10
2.5952
 20
-1.781
 30
0.0
  0
VERTEX
  5
146
  8
CAPA_1
 10
2.5952
 20
4.1514
 30
0.0
  0
SEQEND
  5
52E
  8
CAPA_1
  0
POLYLINE
  5
74
  8
CAPA_1
 66
     1
 10
0.0
 20
0.0
 30
0.0
 70
     1
  0
VERTEX
  5
147
  8
CAPA_1
 10
4.964
 20
4.0842
 30
0.0
  0
VERTEX
  5
148
  8
CAPA_1
 10
5.0884
 20
2.9013
 30
0.0
  0
VERTEX
  5
149
  8
CAPA_1
 10
5.4325
 20
1.7999
 30
0.0
  0
VERTEX
  5
14A
  8
CAPA_1
 10
5.9735
 20
0.8035
 30
0.0
  0
VERTEX
  5
14B
  8
CAPA_1
 10
6.6885
 20
-0.0644
 30
0.0
  0
VERTEX
  5
14C
  8
CAPA_1
 10
7.5547
 20
-0.7804
 30
0.0
  0
VERTEX
  5
14D
  8
CAPA_1
 10
8.5493
 20
-1.3209
 30
0.0
  0
VERTEX
  5
14E
  8
CAPA_1
 10
9.6495
 20
-1.6624
 30
0.0
  0
VERTEX
  5
14F
  8
CAPA_1
 10
10.8325
 20
-1.7815
 30
0.0
  0
VERTEX
  5
150
  8
CAPA_1
 10
12.0207
 20
-1.6616
 30
0.0
  0
VERTEX
  5
151
  8
CAPA_1
 10
13.1273
 20
-1.3178
 30
0.0
  0
VERTEX
  5
152
  8
CAPA_1
 10
14.1287
 20
-0.7738
 30
0.0
  0
VERTEX
  5
153
  8
CAPA_1
 10
15.0012
 20
-0.0533
 30
0.0
  0
VERTEX
  5
154
  8
CAPA_1
 10
15.721
 20
0.8199
 30
0.0
  0
VERTEX
  5
155
  8
CAPA_1
 10
16.2645
 20
1.8221
 30
0.0
  0
VERTEX
  5
156
  8
CAPA_1
 10
16.608
 20
2.9295
 30
0.0
  0
VERTEX
  5
157
  8
CAPA_1
 10
16.7278
 20
4.1184
 30
0.0
  0
VERTEX
  5
158
  8
CAPA_1
 10
16.608
 20
5.3072
 30
0.0
  0
VERTEX
  5
159
  8
CAPA_1
 10
16.2645
 20
6.4145
 30
0.0
  0
VERTEX
  5
15A
  8
CAPA_1
 10
15.721
 20
7.4166
 30
0.0
  0
VERTEX
  5
15B
  8
CAPA_1
 10
15.0012
 20
8.2897
 30
0.0
  0
VERTEX
  5
15C
  8
CAPA_1
 10
14.1287
 20
9.0102
 30
0.0
  0
VERTEX
  5
15D
  8
CAPA_1
 10
13.1273
 20
9.5542
 30
0.0
  0
VERTEX
  5
15E
  8
CAPA_1
 10
12.0207
 20
9.898
 30
0.0
  0
VERTEX
  5
15F
  8
CAPA_1
 10
10.8325
 20
10.0179
 30
0.0
  0
VERTEX
  5
160
  8
CAPA_1
 10
10.8325
 20
7.5999
 30
0.0
  0
VERTEX
  5
161
  8
CAPA_1
 10
10.8519
 20
7.6006
 30
0.0
  0
VERTEX
  5
162
  8
CAPA_1
 10
11.5594
 20
7.5293
 30
0.0
  0
VERTEX
  5
163
  8
CAPA_1
 10
12.2183
 20
7.325
 30
0.0
  0
VERTEX
  5
164
  8
CAPA_1
 10
12.8145
 20
7.0016
 30
0.0
  0
VERTEX
  5
165
  8
CAPA_1
 10
13.3339
 20
6.5733
 30
0.0
  0
VERTEX
  5
166
  8
CAPA_1
 10
13.7624
 20
6.0541
 30
0.0
  0
VERTEX
  5
167
  8
CAPA_1
 10
14.086
 20
5.4582
 30
0.0
  0
VERTEX
  5
168
  8
CAPA_1
 10
14.2904
 20
4.7997
 30
0.0
  0
VERTEX
  5
169
  8
CAPA_1
 10
14.3617
 20
4.0926
 30
0.0
  0
VERTEX
  5
16A
  8
CAPA_1
 10
14.2904
 20
3.3855
 30
0.0
  0
VERTEX
  5
16B
  8
CAPA_1
 10
14.086
 20
2.727
 30
0.0
  0
VERTEX
  5
16C
  8
CAPA_1
 10
13.7624
 20
2.1311
 30
0.0
  0
VERTEX
  5
16D
  8
CAPA_1
 10
13.3339
 20
1.6119
 30
0.0
  0
VERTEX
  5
16E
  8
CAPA_1
 10
12.8145
 20
1.1836
 30
0.0
  0
VERTEX
  5
16F
  8
CAPA_1
 10
12.2183
 20
0.8602
 30
0.0
  0
VERTEX
  5
170
  8
CAPA_1
 10
11.5594
 20
0.6559
 30
0.0
  0
VERTEX
  5
171
  8
CAPA_1
 10
10.8519
 20
0.5846
 30
0.0
  0
VERTEX
  5
172
  8
CAPA_1
 10
10.1436
 20
0.6557
 30
0.0
  0
VERTEX
  5
173
  8
CAPA_1
 10
9.4802
 20
0.8595
 30
0.0
  0
VERTEX
  5
174
  8
CAPA_1
 10
8.8767
 20
1.1821
 30
0.0
  0
VERTEX
  5
175
  8
CAPA_1
 10
8.3486
 20
1.6093
 30
0.0
  0
VERTEX
  5
176
  8
CAPA_1
 10
7.9109
 20
2.1272
 30
0.0
  0
VERTEX
  5
177
  8
CAPA_1
 10
7.579
 20
2.7217
 30
0.0
  0
VERTEX
  5
178
  8
CAPA_1
 10
7.368
 20
3.3787
 30
0.0
  0
VERTEX
  5
179
  8
CAPA_1
 10
7.2931
 20
4.0842
 30
0.0
  0
VERTEX
  5
17A
  8
CAPA_1
 10
7.2931
 20
14.7331
 30
0.0
  0
VERTEX
  5
17B
  8
CAPA_1
 10
4.964
 20
14.7331
 30
0.0
  0
VERTEX
  5
17C
  8
CAPA_1
 10
4.964
 20
4.0842
 30
0.0
  0
SEQEND
  5
52F
  8
CAPA_1
  0
POLYLINE
  5
75
  8
CAPA_1
 66
     1
 10
0.0
 20
0.0
 30
0.0
 70
     1
  0
VERTEX
  5
17D
  8
CAPA_1
 10
41.4524
 20
4.1514
 30
0.0
  0
VERTEX
  5
17E
  8
CAPA_1
 10
41.3279
 20
5.3346
 30
0.0
  0
VERTEX
  5
17F
  8
CAPA_1
 10
40.9838
 20
6.4362
 30
0.0
  0
VERTEX
  5
180
  8
CAPA_1
 10
40.4427
 20
7.4328
 30
0.0
  0
VERTEX
  5
181
  8
CAPA_1
 10
39.7276
 20
8.3009
 30
0.0
  0
VERTEX
  5
182
  8
CAPA_1
 10
38.8613
 20
9.0169
 30
0.0
  0
VERTEX
  5
183
  8
CAPA_1
 10
37.8666
 20
9.5575
 30
0.0
  0
VERTEX
  5
184
  8
CAPA_1
 10
36.7663
 20
9.899
 30
0.0
  0
VERTEX
  5
185
  8
CAPA_1
 10
35.5832
 20
10.0181
 30
0.0
  0
VERTEX
  5
186
  8
CAPA_1
 10
34.3952
 20
9.8982
 30
0.0
  0
VERTEX
  5
187
  8
CAPA_1
 10
33.2886
 20
9.5544
 30
0.0
  0
VERTEX
  5
188
  8
CAPA_1
 10
32.2871
 20
9.0104
 30
0.0
  0
VERTEX
  5
189
  8
CAPA_1
 10
31.4145
 20
8.2899
 30
0.0
  0
VERTEX
  5
18A
  8
CAPA_1
 10
30.6944
 20
7.4167
 30
0.0
  0
VERTEX
  5
18B
  8
CAPA_1
 10
30.1507
 20
6.4145
 30
0.0
  0
VERTEX
  5
18C
  8
CAPA_1
 10
29.8071
 20
5.3071
 30
0.0
  0
VERTEX
  5
18D
  8
CAPA_1
 10
29.6873
 20
4.1182
 30
0.0
  0
VERTEX
  5
18E
  8
CAPA_1
 10
29.8071
 20
2.9291
 30
0.0
  0
VERTEX
  5
18F
  8
CAPA_1
 10
30.1507
 20
1.8217
 30
0.0
  0
VERTEX
  5
190
  8
CAPA_1
 10
30.6944
 20
0.8197
 30
0.0
  0
VERTEX
  5
191
  8
CAPA_1
 10
31.4145
 20
-0.0534
 30
0.0
  0
VERTEX
  5
192
  8
CAPA_1
 10
32.2871
 20
-0.7737
 30
0.0
  0
VERTEX
  5
193
  8
CAPA_1
 10
33.2886
 20
-1.3175
 30
0.0
  0
VERTEX
  5
194
  8
CAPA_1
 10
34.3952
 20
-1.6612
 30
0.0
  0
VERTEX
  5
195
  8
CAPA_1
 10
35.5832
 20
-1.781
 30
0.0
  0
VERTEX
  5
196
  8
CAPA_1
 10
35.5832
 20
0.6366
 30
0.0
  0
VERTEX
  5
197
  8
CAPA_1
 10
35.5635
 20
0.6349
 30
0.0
  0
VERTEX
  5
198
  8
CAPA_1
 10
34.856
 20
0.7062
 30
0.0
  0
VERTEX
  5
199
  8
CAPA_1
 10
34.1971
 20
0.9107
 30
0.0
  0
VERTEX
  5
19A
  8
CAPA_1
 10
33.6008
 20
1.2342
 30
0.0
  0
VERTEX
  5
19B
  8
CAPA_1
 10
33.0814
 20
1.6626
 30
0.0
  0
VERTEX
  5
19C
  8
CAPA_1
 10
32.6528
 20
2.1819
 30
0.0
  0
VERTEX
  5
19D
  8
CAPA_1
 10
32.3292
 20
2.7778
 30
0.0
  0
VERTEX
  5
19E
  8
CAPA_1
 10
32.1247
 20
3.4363
 30
0.0
  0
VERTEX
  5
19F
  8
CAPA_1
 10
32.0534
 20
4.1432
 30
0.0
  0
VERTEX
  5
1A0
  8
CAPA_1
 10
32.1247
 20
4.8502
 30
0.0
  0
VERTEX
  5
1A1
  8
CAPA_1
 10
32.3292
 20
5.5088
 30
0.0
  0
VERTEX
  5
1A2
  8
CAPA_1
 10
32.6528
 20
6.1048
 30
0.0
  0
VERTEX
  5
1A3
  8
CAPA_1
 10
33.0814
 20
6.6242
 30
0.0
  0
VERTEX
  5
1A4
  8
CAPA_1
 10
33.6008
 20
7.0527
 30
0.0
  0
VERTEX
  5
1A5
  8
CAPA_1
 10
34.1971
 20
7.3762
 30
0.0
  0
VERTEX
  5
1A6
  8
CAPA_1
 10
34.856
 20
7.5807
 30
0.0
  0
VERTEX
  5
1A7
  8
CAPA_1
 10
35.5635
 20
7.652
 30
0.0
  0
VERTEX
  5
1A8
  8
CAPA_1
 10
36.2723
 20
7.5809
 30
0.0
  0
VERTEX
  5
1A9
  8
CAPA_1
 10
36.9359
 20
7.3769
 30
0.0
  0
VERTEX
  5
1AA
  8
CAPA_1
 10
37.5393
 20
7.0542
 30
0.0
  0
VERTEX
  5
1AB
  8
CAPA_1
 10
38.0673
 20
6.6268
 30
0.0
  0
VERTEX
  5
1AC
  8
CAPA_1
 10
38.5048
 20
6.1087
 30
0.0
  0
VERTEX
  5
1AD
  8
CAPA_1
 10
38.8365
 20
5.5141
 30
0.0
  0
VERTEX
  5
1AE
  8
CAPA_1
 10
39.0474
 20
4.8569
 30
0.0
  0
VERTEX
  5
1AF
  8
CAPA_1
 10
39.1223
 20
4.1514
 30
0.0
  0
VERTEX
  5
1B0
  8
CAPA_1
 10
39.1223
 20
-1.781
 30
0.0
  0
VERTEX
  5
1B1
  8
CAPA_1
 10
41.4524
 20
-1.781
 30
0.0
  0
VERTEX
  5
1B2
  8
CAPA_1
 10
41.4524
 20
4.1514
 30
0.0
  0
SEQEND
  5
530
  8
CAPA_1
  0
POLYLINE
  5
76
  8
CAPA_1
 66
     1
 10
0.0
 20
0.0
 30
0.0
 70
     1
  0
VERTEX
  5
1B3
  8
CAPA_1
 10
43.8199
 20
4.0842
 30
0.0
  0
VERTEX
  5
1B4
  8
CAPA_1
 10
43.9445
 20
2.9013
 30
0.0
  0
VERTEX
  5
1B5
  8
CAPA_1
 10
44.2888
 20
1.7999
 30
0.0
  0
VERTEX
  5
1B6
  8
CAPA_1
 10
44.83
 20
0.8035
 30
0.0
  0
VERTEX
  5
1B7
  8
CAPA_1
 10
45.5452
 20
-0.0644
 30
0.0
  0
VERTEX
  5
1B8
  8
CAPA_1
 10
46.4117
 20
-0.7804
 30
0.0
  0
VERTEX
  5
1B9
  8
CAPA_1
 10
47.4065
 20
-1.3209
 30
0.0
  0
VERTEX
  5
1BA
  8
CAPA_1
 10
48.5069
 20
-1.6624
 30
0.0
  0
VERTEX
  5
1BB
  8
CAPA_1
 10
49.6901
 20
-1.7815
 30
0.0
  0
VERTEX
  5
1BC
  8
CAPA_1
 10
50.8779
 20
-1.6616
 30
0.0
  0
VERTEX
  5
1BD
  8
CAPA_1
 10
51.9844
 20
-1.3178
 30
0.0
  0
VERTEX
  5
1BE
  8
CAPA_1
 10
52.9857
 20
-0.7738
 30
0.0
  0
VERTEX
  5
1BF
  8
CAPA_1
 10
53.8583
 20
-0.0533
 30
0.0
  0
VERTEX
  5
1C0
  8
CAPA_1
 10
54.5783
 20
0.8199
 30
0.0
  0
VERTEX
  5
1C1
  8
CAPA_1
 10
55.122
 20
1.8221
 30
0.0
  0
VERTEX
  5
1C2
  8
CAPA_1
 10
55.4656
 20
2.9295
 30
0.0
  0
VERTEX
  5
1C3
  8
CAPA_1
 10
55.5854
 20
4.1184
 30
0.0
  0
VERTEX
  5
1C4
  8
CAPA_1
 10
55.4656
 20
5.3072
 30
0.0
  0
VERTEX
  5
1C5
  8
CAPA_1
 10
55.122
 20
6.4145
 30
0.0
  0
VERTEX
  5
1C6
  8
CAPA_1
 10
54.5783
 20
7.4166
 30
0.0
  0
VERTEX
  5
1C7
  8
CAPA_1
 10
53.8583
 20
8.2897
 30
0.0
  0
VERTEX
  5
1C8
  8
CAPA_1
 10
52.9857
 20
9.0102
 30
0.0
  0
VERTEX
  5
1C9
  8
CAPA_1
 10
51.9844
 20
9.5542
 30
0.0
  0
VERTEX
  5
1CA
  8
CAPA_1
 10
50.8779
 20
9.898
 30
0.0
  0
VERTEX
  5
1CB
  8
CAPA_1
 10
49.6901
 20
10.0179
 30
0.0
  0
VERTEX
  5
1CC
  8
CAPA_1
 10
49.6901
 20
7.5999
 30
0.0
  0
VERTEX
  5
1CD
  8
CAPA_1
 10
49.7095
 20
7.6006
 30
0.0
  0
VERTEX
  5
1CE
  8
CAPA_1
 10
50.4168
 20
7.5293
 30
0.0
  0
VERTEX
  5
1CF
  8
CAPA_1
 10
51.0757
 20
7.325
 30
0.0
  0
VERTEX
  5
1D0
  8
CAPA_1
 10
51.672
 20
7.0016
 30
0.0
  0
VERTEX
  5
1D1
  8
CAPA_1
 10
52.1916
 20
6.5733
 30
0.0
  0
VERTEX
  5
1D2
  8
CAPA_1
 10
52.6203
 20
6.0541
 30
0.0
  0
VERTEX
  5
1D3
  8
CAPA_1
 10
52.944
 20
5.4582
 30
0.0
  0
VERTEX
  5
1D4
  8
CAPA_1
 10
53.1487
 20
4.7997
 30
0.0
  0
VERTEX
  5
1D5
  8
CAPA_1
 10
53.22
 20
4.0926
 30
0.0
  0
VERTEX
  5
1D6
  8
CAPA_1
 10
53.1487
 20
3.3855
 30
0.0
  0
VERTEX
  5
1D7
  8
CAPA_1
 10
52.944
 20
2.727
 30
0.0
  0
VERTEX
  5
1D8
  8
CAPA_1
 10
52.6203
 20
2.1311
 30
0.0
  0
VERTEX
  5
1D9
  8
CAPA_1
 10
52.1916
 20
1.6119
 30
0.0
  0
VERTEX
  5
1DA
  8
CAPA_1
 10
51.672
 20
1.1836
 30
0.0
  0
VERTEX
  5
1DB
  8
CAPA_1
 10
51.0757
 20
0.8602
 30
0.0
  0
VERTEX
  5
1DC
  8
CAPA_1
 10
50.4168
 20
0.6559
 30
0.0
  0
VERTEX
  5
1DD
  8
CAPA_1
 10
49.7095
 20
0.5846
 30
0.0
  0
VERTEX
  5
1DE
  8
CAPA_1
 10
49.0006
 20
0.6557
 30
0.0
  0
VERTEX
  5
1DF
  8
CAPA_1
 10
48.3368
 20
0.8595
 30
0.0
  0
VERTEX
  5
1E0
  8
CAPA_1
 10
47.7333
 20
1.1821
 30
0.0
  0
VERTEX
  5
1E1
  8
CAPA_1
 10
47.2053
 20
1.6093
 30
0.0
  0
VERTEX
  5
1E2
  8
CAPA_1
 10
46.7678
 20
2.1272
 30
0.0
  0
VERTEX
  5
1E3
  8
CAPA_1
 10
46.4361
 20
2.7217
 30
0.0
  0
VERTEX
  5
1E4
  8
CAPA_1
 10
46.2254
 20
3.3787
 30
0.0
  0
VERTEX
  5
1E5
  8
CAPA_1
 10
46.1507
 20
4.0842
 30
0.0
  0
VERTEX
  5
1E6
  8
CAPA_1
 10
46.1507
 20
14.7331
 30
0.0
  0
VERTEX
  5
1E7
  8
CAPA_1
 10
43.8199
 20
14.7331
 30
0.0
  0
VERTEX
  5
1E8
  8
CAPA_1
 10
43.8199
 20
4.0842
 30
0.0
  0
SEQEND
  5
531
  8
CAPA_1
  0
POLYLINE
  5
77
  8
CAPA_1
 66
     1
 10
0.0
 20
0.0
 30
0.0
 70
     1
  0
VERTEX
  5
1E9
  8
CAPA_1
 10
-11.5235
 20
14.7323
 30
0.0
  0
VERTEX
  5
1EA
  8
CAPA_1
 10
-11.5436
 20
14.733
 30
0.0
  0
VERTEX
  5
1EB
  8
CAPA_1
 10
-12.7266
 20
14.6139
 30
0.0
  0
VERTEX
  5
1EC
  8
CAPA_1
 10
-13.8269
 20
14.2723
 30
0.0
  0
VERTEX
  5
1ED
  8
CAPA_1
 10
-14.8217
 20
13.7318
 30
0.0
  0
VERTEX
  5
1EE
  8
CAPA_1
 10
-15.6882
 20
13.0157
 30
0.0
  0
VERTEX
  5
1EF
  8
CAPA_1
 10
-16.4034
 20
12.1476
 30
0.0
  0
VERTEX
  5
1F0
  8
CAPA_1
 10
-16.9445
 20
11.1511
 30
0.0
  0
VERTEX
  5
1F1
  8
CAPA_1
 10
-17.2887
 20
10.0496
 30
0.0
  0
VERTEX
  5
1F2
  8
CAPA_1
 10
-17.4131
 20
8.8666
 30
0.0
  0
VERTEX
  5
1F3
  8
CAPA_1
 10
-17.4131
 20
-1.7823
 30
0.0
  0
VERTEX
  5
1F4
  8
CAPA_1
 10
-15.083
 20
-1.7823
 30
0.0
  0
VERTEX
  5
1F5
  8
CAPA_1
 10
-15.083
 20
8.8666
 30
0.0
  0
VERTEX
  5
1F6
  8
CAPA_1
 10
-15.0081
 20
9.5725
 30
0.0
  0
VERTEX
  5
1F7
  8
CAPA_1
 10
-14.7971
 20
10.2306
 30
0.0
  0
VERTEX
  5
1F8
  8
CAPA_1
 10
-14.4653
 20
10.8265
 30
0.0
  0
VERTEX
  5
1F9
  8
CAPA_1
 10
-14.0277
 20
11.3461
 30
0.0
  0
VERTEX
  5
1FA
  8
CAPA_1
 10
-13.4995
 20
11.775
 30
0.0
  0
VERTEX
  5
1FB
  8
CAPA_1
 10
-12.896
 20
12.099
 30
0.0
  0
VERTEX
  5
1FC
  8
CAPA_1
 10
-12.2323
 20
12.3038
 30
0.0
  0
VERTEX
  5
1FD
  8
CAPA_1
 10
-11.5235
 20
12.3753
 30
0.0
  0
VERTEX
  5
1FE
  8
CAPA_1
 10
-8.0109
 20
12.3753
 30
0.0
  0
VERTEX
  5
1FF
  8
CAPA_1
 10
-8.0109
 20
14.7323
 30
0.0
  0
VERTEX
  5
200
  8
CAPA_1
 10
-11.5235
 20
14.7323
 30
0.0
  0
SEQEND
  5
532
  8
CAPA_1
  0
POLYLINE
  5
78
  8
CAPA_1
 66
     1
 10
0.0
 20
0.0
 30
0.0
 70
     1
  0
VERTEX
  5
201
  8
CAPA_1
 10
26.1672
 20
-1.7814
 30
0.0
  0
VERTEX
  5
202
  8
CAPA_1
 10
26.1471
 20
-1.7814
 30
0.0
  0
VERTEX
  5
203
  8
CAPA_1
 10
24.9641
 20
-1.6623
 30
0.0
  0
VERTEX
  5
204
  8
CAPA_1
 10
23.8638
 20
-1.3208
 30
0.0
  0
VERTEX
  5
205
  8
CAPA_1
 10
22.869
 20
-0.7803
 30
0.0
  0
VERTEX
  5
206
  8
CAPA_1
 10
22.0025
 20
-0.0644
 30
0.0
  0
VERTEX
  5
207
  8
CAPA_1
 10
21.2873
 20
0.8036
 30
0.0
  0
VERTEX
  5
208
  8
CAPA_1
 10
20.7462
 20
1.8
 30
0.0
  0
VERTEX
  5
209
  8
CAPA_1
 10
20.402
 20
2.9014
 30
0.0
  0
VERTEX
  5
20A
  8
CAPA_1
 10
20.2776
 20
4.0842
 30
0.0
  0
VERTEX
  5
20B
  8
CAPA_1
 10
20.2776
 20
14.7331
 30
0.0
  0
VERTEX
  5
20C
  8
CAPA_1
 10
22.6077
 20
14.7331
 30
0.0
  0
VERTEX
  5
20D
  8
CAPA_1
 10
22.6077
 20
4.0842
 30
0.0
  0
VERTEX
  5
20E
  8
CAPA_1
 10
22.6826
 20
3.3783
 30
0.0
  0
VERTEX
  5
20F
  8
CAPA_1
 10
22.8936
 20
2.7202
 30
0.0
  0
VERTEX
  5
210
  8
CAPA_1
 10
23.2254
 20
2.1243
 30
0.0
  0
VERTEX
  5
211
  8
CAPA_1
 10
23.663
 20
1.6048
 30
0.0
  0
VERTEX
  5
212
  8
CAPA_1
 10
24.1912
 20
1.1758
 30
0.0
  0
VERTEX
  5
213
  8
CAPA_1
 10
24.7947
 20
0.8518
 30
0.0
  0
VERTEX
  5
214
  8
CAPA_1
 10
25.4584
 20
0.647
 30
0.0
  0
VERTEX
  5
215
  8
CAPA_1
 10
26.1672
 20
0.5755
 30
0.0
  0
VERTEX
  5
216
  8
CAPA_1
 10
29.6798
 20
0.5755
 30
0.0
  0
VERTEX
  5
217
  8
CAPA_1
 10
29.6798
 20
-1.7814
 30
0.0
  0
VERTEX
  5
218
  8
CAPA_1
 10
26.1672
 20
-1.7814
 30
0.0
  0
SEQEND
  5
533
  8
CAPA_1
  0
POLYLINE
  5
79
  8
CAPA_1
 66
     1
 10
0.0
 20
0.0
 30
0.0
 70
     1
  0
VERTEX
  5
219
  8
CAPA_1
 10
-11.533
 20
5.3213
 30
0.0
  0
VERTEX
  5
21A
  8
CAPA_1
 10
-12.712
 20
5.3213
 30
0.0
  0
VERTEX
  5
21B
  8
CAPA_1
 10
-12.712
 20
6.5006
 30
0.0
  0
VERTEX
  5
21C
  8
CAPA_1
 10
-13.891
 20
6.5006
 30
0.0
  0
VERTEX
  5
21D
  8
CAPA_1
 10
-13.891
 20
7.6789
 30
0.0
  0
VERTEX
  5
21E
  8
CAPA_1
 10
-12.712
 20
7.6789
 30
0.0
  0
VERTEX
  5
21F
  8
CAPA_1
 10
-12.712
 20
8.8583
 30
0.0
  0
VERTEX
  5
220
  8
CAPA_1
 10
-11.533
 20
8.8583
 30
0.0
  0
VERTEX
  5
221
  8
CAPA_1
 10
-11.533
 20
7.6789
 30
0.0
  0
VERTEX
  5
222
  8
CAPA_1
 10
-10.3537
 20
7.6789
 30
0.0
  0
VERTEX
  5
223
  8
CAPA_1
 10
-10.3537
 20
6.5006
 30
0.0
  0
VERTEX
  5
224
  8
CAPA_1
 10
-11.533
 20
6.5006
 30
0.0
  0
VERTEX
  5
225
  8
CAPA_1
 10
-11.533
 20
5.3213
 30
0.0
  0
SEQEND
  5
534
  8
CAPA_1
  0
POLYLINE
  5
7A
  8
CAPA_1
 66
     1
 10
0.0
 20
0.0
 30
0.0
 70
     1
  0
VERTEX
  5
226
  8
CAPA_1
 10
-17.4284
 20
-10.6419
 30
0.0
  0
VERTEX
  5
227
  8
CAPA_1
 10
-17.4284
 20
-7.1367
 30
0.0
  0
VERTEX
  5
228
  8
CAPA_1
 10
-16.7098
 20
-7.1367
 30
0.0
  0
VERTEX
  5
229
  8
CAPA_1
 10
-16.7098
 20
-10.6419
 30
0.0
  0
VERTEX
  5
22A
  8
CAPA_1
 10
-16.7043
 20
-10.8043
 30
0.0
  0
VERTEX
  5
22B
  8
CAPA_1
 10
-16.6877
 20
-10.956
 30
0.0
  0
VERTEX
  5
22C
  8
CAPA_1
 10
-16.6601
 20
-11.097
 30
0.0
  0
VERTEX
  5
22D
  8
CAPA_1
 10
-16.6214
 20
-11.2275
 30
0.0
  0
VERTEX
  5
22E
  8
CAPA_1
 10
-16.5717
 20
-11.3474
 30
0.0
  0
VERTEX
  5
22F
  8
CAPA_1
 10
-16.511
 20
-11.4567
 30
0.0
  0
VERTEX
  5
230
  8
CAPA_1
 10
-16.4392
 20
-11.5555
 30
0.0
  0
VERTEX
  5
231
  8
CAPA_1
 10
-16.3563
 20
-11.6438
 30
0.0
  0
VERTEX
  5
232
  8
CAPA_1
 10
-16.2633
 20
-11.7212
 30
0.0
  0
VERTEX
  5
233
  8
CAPA_1
 10
-16.1619
 20
-11.7881
 30
0.0
  0
VERTEX
  5
234
  8
CAPA_1
 10
-16.0523
 20
-11.8448
 30
0.0
  0
VERTEX
  5
235
  8
CAPA_1
 10
-15.9343
 20
-11.8911
 30
0.0
  0
VERTEX
  5
236
  8
CAPA_1
 10
-15.8079
 20
-11.9271
 30
0.0
  0
VERTEX
  5
237
  8
CAPA_1
 10
-15.6732
 20
-11.9528
 30
0.0
  0
VERTEX
  5
238
  8
CAPA_1
 10
-15.53
 20
-11.9682
 30
0.0
  0
VERTEX
  5
239
  8
CAPA_1
 10
-15.3784
 20
-11.9733
 30
0.0
  0
VERTEX
  5
23A
  8
CAPA_1
 10
-15.2268
 20
-11.9682
 30
0.0
  0
VERTEX
  5
23B
  8
CAPA_1
 10
-15.0836
 20
-11.9528
 30
0.0
  0
VERTEX
  5
23C
  8
CAPA_1
 10
-14.9486
 20
-11.9271
 30
0.0
  0
VERTEX
  5
23D
  8
CAPA_1
 10
-14.8219
 20
-11.8911
 30
0.0
  0
VERTEX
  5
23E
  8
CAPA_1
 10
-14.7035
 20
-11.8448
 30
0.0
  0
VERTEX
  5
23F
  8
CAPA_1
 10
-14.5934
 20
-11.7881
 30
0.0
  0
VERTEX
  5
240
  8
CAPA_1
 10
-14.4916
 20
-11.7212
 30
0.0
  0
VERTEX
  5
241
  8
CAPA_1
 10
-14.398
 20
-11.6438
 30
0.0
  0
VERTEX
  5
242
  8
CAPA_1
 10
-14.3139
 20
-11.5555
 30
0.0
  0
VERTEX
  5
243
  8
CAPA_1
 10
-14.2412
 20
-11.4567
 30
0.0
  0
VERTEX
  5
244
  8
CAPA_1
 10
-14.1796
 20
-11.3474
 30
0.0
  0
VERTEX
  5
245
  8
CAPA_1
 10
-14.1293
 20
-11.2275
 30
0.0
  0
VERTEX
  5
246
  8
CAPA_1
 10
-14.0902
 20
-11.097
 30
0.0
  0
VERTEX
  5
247
  8
CAPA_1
 10
-14.0623
 20
-10.956
 30
0.0
  0
VERTEX
  5
248
  8
CAPA_1
 10
-14.0456
 20
-10.8043
 30
0.0
  0
VERTEX
  5
249
  8
CAPA_1
 10
-14.04
 20
-10.6419
 30
0.0
  0
VERTEX
  5
24A
  8
CAPA_1
 10
-14.04
 20
-7.1367
 30
0.0
  0
VERTEX
  5
24B
  8
CAPA_1
 10
-13.3302
 20
-7.1367
 30
0.0
  0
VERTEX
  5
24C
  8
CAPA_1
 10
-13.3302
 20
-10.6419
 30
0.0
  0
VERTEX
  5
24D
  8
CAPA_1
 10
-13.3393
 20
-10.8725
 30
0.0
  0
VERTEX
  5
24E
  8
CAPA_1
 10
-13.3665
 20
-11.089
 30
0.0
  0
VERTEX
  5
24F
  8
CAPA_1
 10
-13.4119
 20
-11.2912
 30
0.0
  0
VERTEX
  5
250
  8
CAPA_1
 10
-13.4755
 20
-11.4794
 30
0.0
  0
VERTEX
  5
251
  8
CAPA_1
 10
-13.5572
 20
-11.6533
 30
0.0
  0
VERTEX
  5
252
  8
CAPA_1
 10
-13.6571
 20
-11.8132
 30
0.0
  0
VERTEX
  5
253
  8
CAPA_1
 10
-13.7752
 20
-11.9588
 30
0.0
  0
VERTEX
  5
254
  8
CAPA_1
 10
-13.9115
 20
-12.0904
 30
0.0
  0
VERTEX
  5
255
  8
CAPA_1
 10
-14.0616
 20
-12.2074
 30
0.0
  0
VERTEX
  5
256
  8
CAPA_1
 10
-14.2212
 20
-12.3087
 30
0.0
  0
VERTEX
  5
257
  8
CAPA_1
 10
-14.3905
 20
-12.3944
 30
0.0
  0
VERTEX
  5
258
  8
CAPA_1
 10
-14.5695
 20
-12.4646
 30
0.0
  0
VERTEX
  5
259
  8
CAPA_1
 10
-14.7582
 20
-12.5191
 30
0.0
  0
VERTEX
  5
25A
  8
CAPA_1
 10
-14.9568
 20
-12.558
 30
0.0
  0
VERTEX
  5
25B
  8
CAPA_1
 10
-15.1651
 20
-12.5814
 30
0.0
  0
VERTEX
  5
25C
  8
CAPA_1
 10
-15.3833
 20
-12.5892
 30
0.0
  0
VERTEX
  5
25D
  8
CAPA_1
 10
-15.601
 20
-12.5814
 30
0.0
  0
VERTEX
  5
25E
  8
CAPA_1
 10
-15.8091
 20
-12.558
 30
0.0
  0
VERTEX
  5
25F
  8
CAPA_1
 10
-16.0074
 20
-12.5191
 30
0.0
  0
VERTEX
  5
260
  8
CAPA_1
 10
-16.1959
 20
-12.4646
 30
0.0
  0
VERTEX
  5
261
  8
CAPA_1
 10
-16.3745
 20
-12.3944
 30
0.0
  0
VERTEX
  5
262
  8
CAPA_1
 10
-16.5431
 20
-12.3087
 30
0.0
  0
VERTEX
  5
263
  8
CAPA_1
 10
-16.7017
 20
-12.2074
 30
0.0
  0
VERTEX
  5
264
  8
CAPA_1
 10
-16.8502
 20
-12.0904
 30
0.0
  0
VERTEX
  5
265
  8
CAPA_1
 10
-16.9854
 20
-11.9588
 30
0.0
  0
VERTEX
  5
266
  8
CAPA_1
 10
-17.1028
 20
-11.8132
 30
0.0
  0
VERTEX
  5
267
  8
CAPA_1
 10
-17.2021
 20
-11.6533
 30
0.0
  0
VERTEX
  5
268
  8
CAPA_1
 10
-17.2835
 20
-11.4794
 30
0.0
  0
VERTEX
  5
269
  8
CAPA_1
 10
-17.3468
 20
-11.2912
 30
0.0
  0
VERTEX
  5
26A
  8
CAPA_1
 10
-17.3921
 20
-11.089
 30
0.0
  0
VERTEX
  5
26B
  8
CAPA_1
 10
-17.4193
 20
-10.8725
 30
0.0
  0
VERTEX
  5
26C
  8
CAPA_1
 10
-17.4284
 20
-10.6419
 30
0.0
  0
SEQEND
  5
535
  8
CAPA_1
  0
POLYLINE
  5
7B
  8
CAPA_1
 66
     1
 10
0.0
 20
0.0
 30
0.0
 70
     1
  0
VERTEX
  5
26D
  8
CAPA_1
 10
-8.6186
 20
-7.1372
 30
0.0
  0
VERTEX
  5
26E
  8
CAPA_1
 10
-7.9102
 20
-7.1372
 30
0.0
  0
VERTEX
  5
26F
  8
CAPA_1
 10
-7.9102
 20
-12.534
 30
0.0
  0
VERTEX
  5
270
  8
CAPA_1
 10
-8.6186
 20
-12.534
 30
0.0
  0
VERTEX
  5
271
  8
CAPA_1
 10
-11.4691
 20
-8.2512
 30
0.0
  0
VERTEX
  5
272
  8
CAPA_1
 10
-11.4691
 20
-12.534
 30
0.0
  0
VERTEX
  5
273
  8
CAPA_1
 10
-12.1788
 20
-12.534
 30
0.0
  0
VERTEX
  5
274
  8
CAPA_1
 10
-12.1788
 20
-7.1372
 30
0.0
  0
VERTEX
  5
275
  8
CAPA_1
 10
-11.4691
 20
-7.1372
 30
0.0
  0
VERTEX
  5
276
  8
CAPA_1
 10
-8.6186
 20
-11.4217
 30
0.0
  0
VERTEX
  5
277
  8
CAPA_1
 10
-8.6186
 20
-7.1372
 30
0.0
  0
SEQEND
  5
536
  8
CAPA_1
  0
POLYLINE
  5
7C
  8
CAPA_1
 66
     1
 10
0.0
 20
0.0
 30
0.0
 70
     1
  0
VERTEX
  5
278
  8
CAPA_1
 10
-6.8181
 20
-7.137
 30
0.0
  0
VERTEX
  5
279
  8
CAPA_1
 10
-6.1098
 20
-7.137
 30
0.0
  0
VERTEX
  5
27A
  8
CAPA_1
 10
-6.1098
 20
-12.5338
 30
0.0
  0
VERTEX
  5
27B
  8
CAPA_1
 10
-6.8181
 20
-12.5338
 30
0.0
  0
VERTEX
  5
27C
  8
CAPA_1
 10
-6.8181
 20
-7.137
 30
0.0
  0
SEQEND
  5
537
  8
CAPA_1
  0
POLYLINE
  5
7D
  8
CAPA_1
 66
     1
 10
0.0
 20
0.0
 30
0.0
 70
     1
  0
VERTEX
  5
27D
  8
CAPA_1
 10
-3.1829
 20
-12.5339
 30
0.0
  0
VERTEX
  5
27E
  8
CAPA_1
 10
-5.2636
 20
-7.1371
 30
0.0
  0
VERTEX
  5
27F
  8
CAPA_1
 10
-4.508
 20
-7.1371
 30
0.0
  0
VERTEX
  5
280
  8
CAPA_1
 10
-2.8093
 20
-11.779
 30
0.0
  0
VERTEX
  5
281
  8
CAPA_1
 10
-1.0959
 20
-7.1371
 30
0.0
  0
VERTEX
  5
282
  8
CAPA_1
 10
-0.3392
 20
-7.1371
 30
0.0
  0
VERTEX
  5
283
  8
CAPA_1
 10
-2.4202
 20
-12.5339
 30
0.0
  0
VERTEX
  5
284
  8
CAPA_1
 10
-3.1829
 20
-12.5339
 30
0.0
  0
SEQEND
  5
538
  8
CAPA_1
  0
POLYLINE
  5
7E
  8
CAPA_1
 66
     1
 10
0.0
 20
0.0
 30
0.0
 70
     1
  0
VERTEX
  5
285
  8
CAPA_1
 10
3.289
 20
-7.1372
 30
0.0
  0
VERTEX
  5
286
  8
CAPA_1
 10
3.289
 20
-7.6981
 30
0.0
  0
VERTEX
  5
287
  8
CAPA_1
 10
1.1385
 20
-7.6981
 30
0.0
  0
VERTEX
  5
288
  8
CAPA_1
 10
1.1385
 20
-9.5364
 30
0.0
  0
VERTEX
  5
289
  8
CAPA_1
 10
3.0555
 20
-9.5364
 30
0.0
  0
VERTEX
  5
28A
  8
CAPA_1
 10
3.0555
 20
-10.0889
 30
0.0
  0
VERTEX
  5
28B
  8
CAPA_1
 10
1.1385
 20
-10.0889
 30
0.0
  0
VERTEX
  5
28C
  8
CAPA_1
 10
1.1385
 20
-11.9738
 30
0.0
  0
VERTEX
  5
28D
  8
CAPA_1
 10
3.289
 20
-11.9738
 30
0.0
  0
VERTEX
  5
28E
  8
CAPA_1
 10
3.289
 20
-12.534
 30
0.0
  0
VERTEX
  5
28F
  8
CAPA_1
 10
0.4301
 20
-12.534
 30
0.0
  0
VERTEX
  5
290
  8
CAPA_1
 10
0.4301
 20
-7.1372
 30
0.0
  0
VERTEX
  5
291
  8
CAPA_1
 10
3.289
 20
-7.1372
 30
0.0
  0
SEQEND
  5
539
  8
CAPA_1
  0
POLYLINE
  5
7F
  8
CAPA_1
 66
     1
 10
0.0
 20
0.0
 30
0.0
 70
     1
  0
VERTEX
  5
292
  8
CAPA_1
 10
5.0729
 20
-7.7067
 30
0.0
  0
VERTEX
  5
293
  8
CAPA_1
 10
5.0729
 20
-9.7464
 30
0.0
  0
VERTEX
  5
294
  8
CAPA_1
 10
6.114
 20
-9.7464
 30
0.0
  0
VERTEX
  5
295
  8
CAPA_1
 10
6.3881
 20
-9.7295
 30
0.0
  0
VERTEX
  5
296
  8
CAPA_1
 10
6.6243
 20
-9.679
 30
0.0
  0
VERTEX
  5
297
  8
CAPA_1
 10
6.7282
 20
-9.6412
 30
0.0
  0
VERTEX
  5
298
  8
CAPA_1
 10
6.8227
 20
-9.5951
 30
0.0
  0
VERTEX
  5
299
  8
CAPA_1
 10
6.9079
 20
-9.5407
 30
0.0
  0
VERTEX
  5
29A
  8
CAPA_1
 10
6.9836
 20
-9.478
 30
0.0
  0
VERTEX
  5
29B
  8
CAPA_1
 10
7.05
 20
-9.4077
 30
0.0
  0
VERTEX
  5
29C
  8
CAPA_1
 10
7.1077
 20
-9.3306
 30
0.0
  0
VERTEX
  5
29D
  8
CAPA_1
 10
7.1566
 20
-9.2467
 30
0.0
  0
VERTEX
  5
29E
  8
CAPA_1
 10
7.1967
 20
-9.1561
 30
0.0
  0
VERTEX
  5
29F
  8
CAPA_1
 10
7.2503
 20
-8.9546
 30
0.0
  0
VERTEX
  5
2A0
  8
CAPA_1
 10
7.2682
 20
-8.7262
 30
0.0
  0
VERTEX
  5
2A1
  8
CAPA_1
 10
7.2502
 20
-8.4871
 30
0.0
  0
VERTEX
  5
2A2
  8
CAPA_1
 10
7.1962
 20
-8.2799
 30
0.0
  0
VERTEX
  5
2A3
  8
CAPA_1
 10
7.1061
 20
-8.1047
 30
0.0
  0
VERTEX
  5
2A4
  8
CAPA_1
 10
6.98
 20
-7.9614
 30
0.0
  0
VERTEX
  5
2A5
  8
CAPA_1
 10
6.8178
 20
-7.8499
 30
0.0
  0
VERTEX
  5
2A6
  8
CAPA_1
 10
6.6194
 20
-7.7703
 30
0.0
  0
VERTEX
  5
2A7
  8
CAPA_1
 10
6.3848
 20
-7.7226
 30
0.0
  0
VERTEX
  5
2A8
  8
CAPA_1
 10
6.114
 20
-7.7067
 30
0.0
  0
VERTEX
  5
2A9
  8
CAPA_1
 10
5.0729
 20
-7.7067
 30
0.0
  0
SEQEND
  5
53A
  8
CAPA_1
  0
POLYLINE
  5
80
  8
CAPA_1
 66
     1
 10
0.0
 20
0.0
 30
0.0
 70
     1
  0
VERTEX
  5
2AA
  8
CAPA_1
 10
5.0729
 20
-10.3073
 30
0.0
  0
VERTEX
  5
2AB
  8
CAPA_1
 10
5.0729
 20
-12.5341
 30
0.0
  0
VERTEX
  5
2AC
  8
CAPA_1
 10
4.3631
 20
-12.5341
 30
0.0
  0
VERTEX
  5
2AD
  8
CAPA_1
 10
4.3631
 20
-7.1373
 30
0.0
  0
VERTEX
  5
2AE
  8
CAPA_1
 10
6.114
 20
-7.1373
 30
0.0
  0
VERTEX
  5
2AF
  8
CAPA_1
 10
6.3356
 20
-7.1443
 30
0.0
  0
VERTEX
  5
2B0
  8
CAPA_1
 10
6.5435
 20
-7.1652
 30
0.0
  0
VERTEX
  5
2B1
  8
CAPA_1
 10
6.7377
 20
-7.2
 30
0.0
  0
VERTEX
  5
2B2
  8
CAPA_1
 10
6.9184
 20
-7.2487
 30
0.0
  0
VERTEX
  5
2B3
  8
CAPA_1
 10
7.0854
 20
-7.3113
 30
0.0
  0
VERTEX
  5
2B4
  8
CAPA_1
 10
7.2389
 20
-7.3876
 30
0.0
  0
VERTEX
  5
2B5
  8
CAPA_1
 10
7.3788
 20
-7.4778
 30
0.0
  0
VERTEX
  5
2B6
  8
CAPA_1
 10
7.5053
 20
-7.5818
 30
0.0
  0
VERTEX
  5
2B7
  8
CAPA_1
 10
7.6176
 20
-7.6955
 30
0.0
  0
VERTEX
  5
2B8
  8
CAPA_1
 10
7.7149
 20
-7.8156
 30
0.0
  0
VERTEX
  5
2B9
  8
CAPA_1
 10
7.7972
 20
-7.942
 30
0.0
  0
VERTEX
  5
2BA
  8
CAPA_1
 10
7.8645
 20
-8.0748
 30
0.0
  0
VERTEX
  5
2BB
  8
CAPA_1
 10
7.9168
 20
-8.2138
 30
0.0
  0
VERTEX
  5
2BC
  8
CAPA_1
 10
7.9541
 20
-8.359
 30
0.0
  0
VERTEX
  5
2BD
  8
CAPA_1
 10
7.9765
 20
-8.5104
 30
0.0
  0
VERTEX
  5
2BE
  8
CAPA_1
 10
7.984
 20
-8.668
 30
0.0
  0
VERTEX
  5
2BF
  8
CAPA_1
 10
7.9786
 20
-8.8252
 30
0.0
  0
VERTEX
  5
2C0
  8
CAPA_1
 10
7.9623
 20
-8.9757
 30
0.0
  0
VERTEX
  5
2C1
  8
CAPA_1
 10
7.935
 20
-9.1196
 30
0.0
  0
VERTEX
  5
2C2
  8
CAPA_1
 10
7.8969
 20
-9.2569
 30
0.0
  0
VERTEX
  5
2C3
  8
CAPA_1
 10
7.8477
 20
-9.3875
 30
0.0
  0
VERTEX
  5
2C4
  8
CAPA_1
 10
7.7876
 20
-9.5113
 30
0.0
  0
VERTEX
  5
2C5
  8
CAPA_1
 10
7.7164
 20
-9.6284
 30
0.0
  0
VERTEX
  5
2C6
  8
CAPA_1
 10
7.6341
 20
-9.7387
 30
0.0
  0
VERTEX
  5
2C7
  8
CAPA_1
 10
7.5408
 20
-9.8408
 30
0.0
  0
VERTEX
  5
2C8
  8
CAPA_1
 10
7.4367
 20
-9.933
 30
0.0
  0
VERTEX
  5
2C9
  8
CAPA_1
 10
7.3216
 20
-10.0152
 30
0.0
  0
VERTEX
  5
2CA
  8
CAPA_1
 10
7.1956
 20
-10.0874
 30
0.0
  0
VERTEX
  5
2CB
  8
CAPA_1
 10
7.0587
 20
-10.1496
 30
0.0
  0
VERTEX
  5
2CC
  8
CAPA_1
 10
6.9107
 20
-10.2018
 30
0.0
  0
VERTEX
  5
2CD
  8
CAPA_1
 10
6.7517
 20
-10.2438
 30
0.0
  0
VERTEX
  5
2CE
  8
CAPA_1
 10
6.5817
 20
-10.2756
 30
0.0
  0
VERTEX
  5
2CF
  8
CAPA_1
 10
8.0694
 20
-12.5341
 30
0.0
  0
VERTEX
  5
2D0
  8
CAPA_1
 10
7.1829
 20
-12.5341
 30
0.0
  0
VERTEX
  5
2D1
  8
CAPA_1
 10
5.7654
 20
-10.3073
 30
0.0
  0
VERTEX
  5
2D2
  8
CAPA_1
 10
5.0729
 20
-10.3073
 30
0.0
  0
SEQEND
  5
53B
  8
CAPA_1
  0
POLYLINE
  5
81
  8
CAPA_1
 66
     1
 10
0.0
 20
0.0
 30
0.0
 70
     1
  0
VERTEX
  5
2D3
  8
CAPA_1
 10
9.7445
 20
-8.579
 30
0.0
  0
VERTEX
  5
2D4
  8
CAPA_1
 10
9.7547
 20
-8.7207
 30
0.0
  0
VERTEX
  5
2D5
  8
CAPA_1
 10
9.7854
 20
-8.8495
 30
0.0
  0
VERTEX
  5
2D6
  8
CAPA_1
 10
9.8366
 20
-8.9654
 30
0.0
  0
VERTEX
  5
2D7
  8
CAPA_1
 10
9.9085
 20
-9.0686
 30
0.0
  0
VERTEX
  5
2D8
  8
CAPA_1
 10
9.9958
 20
-9.1599
 30
0.0
  0
VERTEX
  5
2D9
  8
CAPA_1
 10
10.0952
 20
-9.2384
 30
0.0
  0
VERTEX
  5
2DA
  8
CAPA_1
 10
10.2062
 20
-9.3043
 30
0.0
  0
VERTEX
  5
2DB
  8
CAPA_1
 10
10.3287
 20
-9.3576
 30
0.0
  0
VERTEX
  5
2DC
  8
CAPA_1
 10
10.9019
 20
-9.5202
 30
0.0
  0
VERTEX
  5
2DD
  8
CAPA_1
 10
11.5323
 20
-9.6807
 30
0.0
  0
VERTEX
  5
2DE
  8
CAPA_1
 10
12.1038
 20
-9.9093
 30
0.0
  0
VERTEX
  5
2DF
  8
CAPA_1
 10
12.2269
 20
-9.9885
 30
0.0
  0
VERTEX
  5
2E0
  8
CAPA_1
 10
12.3379
 20
-10.085
 30
0.0
  0
VERTEX
  5
2E1
  8
CAPA_1
 10
12.4369
 20
-10.1989
 30
0.0
  0
VERTEX
  5
2E2
  8
CAPA_1
 10
12.524
 20
-10.3305
 30
0.0
  0
VERTEX
  5
2E3
  8
CAPA_1
 10
12.596
 20
-10.4789
 30
0.0
  0
VERTEX
  5
2E4
  8
CAPA_1
 10
12.6475
 20
-10.644
 30
0.0
  0
VERTEX
  5
2E5
  8
CAPA_1
 10
12.6784
 20
-10.8257
 30
0.0
  0
VERTEX
  5
2E6
  8
CAPA_1
 10
12.6887
 20
-11.0241
 30
0.0
  0
VERTEX
  5
2E7
  8
CAPA_1
 10
12.6811
 20
-11.179
 30
0.0
  0
VERTEX
  5
2E8
  8
CAPA_1
 10
12.6585
 20
-11.3289
 30
0.0
  0
VERTEX
  5
2E9
  8
CAPA_1
 10
12.6207
 20
-11.4737
 30
0.0
  0
VERTEX
  5
2EA
  8
CAPA_1
 10
12.5678
 20
-11.6135
 30
0.0
  0
VERTEX
  5
2EB
  8
CAPA_1
 10
12.4998
 20
-11.7481
 30
0.0
  0
VERTEX
  5
2EC
  8
CAPA_1
 10
12.4167
 20
-11.8777
 30
0.0
  0
VERTEX
  5
2ED
  8
CAPA_1
 10
12.3184
 20
-12.0022
 30
0.0
  0
VERTEX
  5
2EE
  8
CAPA_1
 10
12.2051
 20
-12.1216
 30
0.0
  0
VERTEX
  5
2EF
  8
CAPA_1
 10
12.0792
 20
-12.2314
 30
0.0
  0
VERTEX
  5
2F0
  8
CAPA_1
 10
11.9427
 20
-12.3265
 30
0.0
  0
VERTEX
  5
2F1
  8
CAPA_1
 10
11.7957
 20
-12.4068
 30
0.0
  0
VERTEX
  5
2F2
  8
CAPA_1
 10
11.6381
 20
-12.4725
 30
0.0
  0
VERTEX
  5
2F3
  8
CAPA_1
 10
11.4699
 20
-12.5235
 30
0.0
  0
VERTEX
  5
2F4
  8
CAPA_1
 10
11.2911
 20
-12.5599
 30
0.0
  0
VERTEX
  5
2F5
  8
CAPA_1
 10
11.1018
 20
-12.5817
 30
0.0
  0
VERTEX
  5
2F6
  8
CAPA_1
 10
10.9019
 20
-12.589
 30
0.0
  0
VERTEX
  5
2F7
  8
CAPA_1
 10
10.7011
 20
-12.5831
 30
0.0
  0
VERTEX
  5
2F8
  8
CAPA_1
 10
10.51
 20
-12.5654
 30
0.0
  0
VERTEX
  5
2F9
  8
CAPA_1
 10
10.3285
 20
-12.536
 30
0.0
  0
VERTEX
  5
2FA
  8
CAPA_1
 10
10.1566
 20
-12.4947
 30
0.0
  0
VERTEX
  5
2FB
  8
CAPA_1
 10
9.9943
 20
-12.4416
 30
0.0
  0
VERTEX
  5
2FC
  8
CAPA_1
 10
9.8415
 20
-12.3768
 30
0.0
  0
VERTEX
  5
2FD
  8
CAPA_1
 10
9.6982
 20
-12.3
 30
0.0
  0
VERTEX
  5
2FE
  8
CAPA_1
 10
9.5645
 20
-12.2115
 30
0.0
  0
VERTEX
  5
2FF
  8
CAPA_1
 10
9.4443
 20
-12.1128
 30
0.0
  0
VERTEX
  5
300
  8
CAPA_1
 10
9.3401
 20
-12.0058
 30
0.0
  0
VERTEX
  5
301
  8
CAPA_1
 10
9.252
 20
-11.8904
 30
0.0
  0
VERTEX
  5
302
  8
CAPA_1
 10
9.18
 20
-11.7665
 30
0.0
  0
VERTEX
  5
303
  8
CAPA_1
 10
9.124
 20
-11.6343
 30
0.0
  0
VERTEX
  5
304
  8
CAPA_1
 10
9.084
 20
-11.4937
 30
0.0
  0
VERTEX
  5
305
  8
CAPA_1
 10
9.06
 20
-11.3448
 30
0.0
  0
VERTEX
  5
306
  8
CAPA_1
 10
9.052
 20
-11.1874
 30
0.0
  0
VERTEX
  5
307
  8
CAPA_1
 10
9.8066
 20
-11.1874
 30
0.0
  0
VERTEX
  5
308
  8
CAPA_1
 10
9.8359
 20
-11.3617
 30
0.0
  0
VERTEX
  5
309
  8
CAPA_1
 10
9.8947
 20
-11.5186
 30
0.0
  0
VERTEX
  5
30A
  8
CAPA_1
 10
9.9826
 20
-11.6578
 30
0.0
  0
VERTEX
  5
30B
  8
CAPA_1
 10
10.0994
 20
-11.7794
 30
0.0
  0
VERTEX
  5
30C
  8
CAPA_1
 10
10.2454
 20
-11.8783
 30
0.0
  0
VERTEX
  5
30D
  8
CAPA_1
 10
10.423
 20
-11.9487
 30
0.0
  0
VERTEX
  5
30E
  8
CAPA_1
 10
10.6325
 20
-11.9908
 30
0.0
  0
VERTEX
  5
30F
  8
CAPA_1
 10
10.8737
 20
-12.0048
 30
0.0
  0
VERTEX
  5
310
  8
CAPA_1
 10
11.1175
 20
-11.9884
 30
0.0
  0
VERTEX
  5
311
  8
CAPA_1
 10
11.3352
 20
-11.939
 30
0.0
  0
VERTEX
  5
312
  8
CAPA_1
 10
11.4342
 20
-11.9018
 30
0.0
  0
VERTEX
  5
313
  8
CAPA_1
 10
11.5267
 20
-11.8564
 30
0.0
  0
VERTEX
  5
314
  8
CAPA_1
 10
11.6126
 20
-11.8027
 30
0.0
  0
VERTEX
  5
315
  8
CAPA_1
 10
11.6921
 20
-11.7406
 30
0.0
  0
VERTEX
  5
316
  8
CAPA_1
 10
11.8245
 20
-11.603
 30
0.0
  0
VERTEX
  5
317
  8
CAPA_1
 10
11.9194
 20
-11.4537
 30
0.0
  0
VERTEX
  5
318
  8
CAPA_1
 10
11.9764
 20
-11.2929
 30
0.0
  0
VERTEX
  5
319
  8
CAPA_1
 10
11.9955
 20
-11.1207
 30
0.0
  0
VERTEX
  5
31A
  8
CAPA_1
 10
11.9851
 20
-10.9541
 30
0.0
  0
VERTEX
  5
31B
  8
CAPA_1
 10
11.9541
 20
-10.8078
 30
0.0
  0
VERTEX
  5
31C
  8
CAPA_1
 10
11.9028
 20
-10.6819
 30
0.0
  0
VERTEX
  5
31D
  8
CAPA_1
 10
11.8315
 20
-10.5768
 30
0.0
  0
VERTEX
  5
31E
  8
CAPA_1
 10
11.7444
 20
-10.4872
 30
0.0
  0
VERTEX
  5
31F
  8
CAPA_1
 10
11.6455
 20
-10.4099
 30
0.0
  0
VERTEX
  5
320
  8
CAPA_1
 10
11.5347
 20
-10.3447
 30
0.0
  0
VERTEX
  5
321
  8
CAPA_1
 10
11.412
 20
-10.2914
 30
0.0
  0
VERTEX
  5
322
  8
CAPA_1
 10
10.8388
 20
-10.1308
 30
0.0
  0
VERTEX
  5
323
  8
CAPA_1
 10
10.2073
 20
-9.9717
 30
0.0
  0
VERTEX
  5
324
  8
CAPA_1
 10
9.6351
 20
-9.7343
 30
0.0
  0
VERTEX
  5
325
  8
CAPA_1
 10
9.5127
 20
-9.6537
 30
0.0
  0
VERTEX
  5
326
  8
CAPA_1
 10
9.402
 20
-9.5554
 30
0.0
  0
VERTEX
  5
327
  8
CAPA_1
 10
9.3031
 20
-9.4396
 30
0.0
  0
VERTEX
  5
328
  8
CAPA_1
 10
9.216
 20
-9.3064
 30
0.0
  0
VERTEX
  5
329
  8
CAPA_1
 10
9.1433
 20
-9.1557
 30
0.0
  0
VERTEX
  5
32A
  8
CAPA_1
 10
9.0922
 20
-8.9878
 30
0.0
  0
VERTEX
  5
32B
  8
CAPA_1
 10
9.0619
 20
-8.8028
 30
0.0
  0
VERTEX
  5
32C
  8
CAPA_1
 10
9.052
 20
-8.6009
 30
0.0
  0
VERTEX
  5
32D
  8
CAPA_1
 10
9.0596
 20
-8.4341
 30
0.0
  0
VERTEX
  5
32E
  8
CAPA_1
 10
9.0823
 20
-8.2756
 30
0.0
  0
VERTEX
  5
32F
  8
CAPA_1
 10
9.1202
 20
-8.1255
 30
0.0
  0
VERTEX
  5
330
  8
CAPA_1
 10
9.1733
 20
-7.9836
 30
0.0
  0
VERTEX
  5
331
  8
CAPA_1
 10
9.2416
 20
-7.85
 30
0.0
  0
VERTEX
  5
332
  8
CAPA_1
 10
9.3252
 20
-7.7247
 30
0.0
  0
VERTEX
  5
333
  8
CAPA_1
 10
9.4241
 20
-7.6078
 30
0.0
  0
VERTEX
  5
334
  8
CAPA_1
 10
9.5384
 20
-7.4991
 30
0.0
  0
VERTEX
  5
335
  8
CAPA_1
 10
9.6645
 20
-7.4014
 30
0.0
  0
VERTEX
  5
336
  8
CAPA_1
 10
9.7999
 20
-7.3168
 30
0.0
  0
VERTEX
  5
337
  8
CAPA_1
 10
9.9446
 20
-7.2452
 30
0.0
  0
VERTEX
  5
338
  8
CAPA_1
 10
10.0986
 20
-7.1867
 30
0.0
  0
VERTEX
  5
339
  8
CAPA_1
 10
10.2619
 20
-7.1412
 30
0.0
  0
VERTEX
  5
33A
  8
CAPA_1
 10
10.4345
 20
-7.1088
 30
0.0
  0
VERTEX
  5
33B
  8
CAPA_1
 10
10.6165
 20
-7.0893
 30
0.0
  0
VERTEX
  5
33C
  8
CAPA_1
 10
10.8077
 20
-7.0828
 30
0.0
  0
VERTEX
  5
33D
  8
CAPA_1
 10
10.9983
 20
-7.0885
 30
0.0
  0
VERTEX
  5
33E
  8
CAPA_1
 10
11.1789
 20
-7.1055
 30
0.0
  0
VERTEX
  5
33F
  8
CAPA_1
 10
11.3496
 20
-7.1338
 30
0.0
  0
VERTEX
  5
340
  8
CAPA_1
 10
11.5103
 20
-7.1735
 30
0.0
  0
VERTEX
  5
341
  8
CAPA_1
 10
11.6611
 20
-7.2244
 30
0.0
  0
VERTEX
  5
342
  8
CAPA_1
 10
11.8018
 20
-7.2866
 30
0.0
  0
VERTEX
  5
343
  8
CAPA_1
 10
11.9326
 20
-7.3601
 30
0.0
  0
VERTEX
  5
344
  8
CAPA_1
 10
12.0534
 20
-7.4448
 30
0.0
  0
VERTEX
  5
345
  8
CAPA_1
 10
12.1632
 20
-7.5398
 30
0.0
  0
VERTEX
  5
346
  8
CAPA_1
 10
12.2607
 20
-7.6435
 30
0.0
  0
VERTEX
  5
347
  8
CAPA_1
 10
12.3458
 20
-7.7558
 30
0.0
  0
VERTEX
  5
348
  8
CAPA_1
 10
12.4186
 20
-7.8767
 30
0.0
  0
VERTEX
  5
349
  8
CAPA_1
 10
12.4792
 20
-8.0062
 30
0.0
  0
VERTEX
  5
34A
  8
CAPA_1
 10
12.5275
 20
-8.1442
 30
0.0
  0
VERTEX
  5
34B
  8
CAPA_1
 10
12.5636
 20
-8.2907
 30
0.0
  0
VERTEX
  5
34C
  8
CAPA_1
 10
12.5875
 20
-8.4456
 30
0.0
  0
VERTEX
  5
34D
  8
CAPA_1
 10
11.8019
 20
-8.4456
 30
0.0
  0
VERTEX
  5
34E
  8
CAPA_1
 10
11.7705
 20
-8.2923
 30
0.0
  0
VERTEX
  5
34F
  8
CAPA_1
 10
11.71
 20
-8.1505
 30
0.0
  0
VERTEX
  5
350
  8
CAPA_1
 10
11.6202
 20
-8.0201
 30
0.0
  0
VERTEX
  5
351
  8
CAPA_1
 10
11.5009
 20
-7.9009
 30
0.0
  0
VERTEX
  5
352
  8
CAPA_1
 10
11.3548
 20
-7.802
 30
0.0
  0
VERTEX
  5
353
  8
CAPA_1
 10
11.1852
 20
-7.7314
 30
0.0
  0
VERTEX
  5
354
  8
CAPA_1
 10
10.9925
 20
-7.689
 30
0.0
  0
VERTEX
  5
355
  8
CAPA_1
 10
10.7767
 20
-7.6748
 30
0.0
  0
VERTEX
  5
356
  8
CAPA_1
 10
10.559
 20
-7.6893
 30
0.0
  0
VERTEX
  5
357
  8
CAPA_1
 10
10.3624
 20
-7.7327
 30
0.0
  0
VERTEX
  5
358
  8
CAPA_1
 10
10.1868
 20
-7.8049
 30
0.0
  0
VERTEX
  5
359
  8
CAPA_1
 10
10.032
 20
-7.9059
 30
0.0
  0
VERTEX
  5
35A
  8
CAPA_1
 10
9.9646
 20
-7.9663
 30
0.0
  0
VERTEX
  5
35B
  8
CAPA_1
 10
9.9061
 20
-8.0336
 30
0.0
  0
VERTEX
  5
35C
  8
CAPA_1
 10
9.8567
 20
-8.1076
 30
0.0
  0
VERTEX
  5
35D
  8
CAPA_1
 10
9.8163
 20
-8.1885
 30
0.0
  0
VERTEX
  5
35E
  8
CAPA_1
 10
9.7849
 20
-8.276
 30
0.0
  0
VERTEX
  5
35F
  8
CAPA_1
 10
9.7624
 20
-8.3703
 30
0.0
  0
VERTEX
  5
360
  8
CAPA_1
 10
9.749
 20
-8.4713
 30
0.0
  0
VERTEX
  5
361
  8
CAPA_1
 10
9.7445
 20
-8.579
 30
0.0
  0
SEQEND
  5
53C
  8
CAPA_1
  0
POLYLINE
  5
82
  8
CAPA_1
 66
     1
 10
0.0
 20
0.0
 30
0.0
 70
     1
  0
VERTEX
  5
362
  8
CAPA_1
 10
13.7386
 20
-7.137
 30
0.0
  0
VERTEX
  5
363
  8
CAPA_1
 10
14.4484
 20
-7.137
 30
0.0
  0
VERTEX
  5
364
  8
CAPA_1
 10
14.4484
 20
-12.5338
 30
0.0
  0
VERTEX
  5
365
  8
CAPA_1
 10
13.7386
 20
-12.5338
 30
0.0
  0
VERTEX
  5
366
  8
CAPA_1
 10
13.7386
 20
-7.137
 30
0.0
  0
SEQEND
  5
53D
  8
CAPA_1
  0
POLYLINE
  5
83
  8
CAPA_1
 66
     1
 10
0.0
 20
0.0
 30
0.0
 70
     1
  0
VERTEX
  5
367
  8
CAPA_1
 10
15.3751
 20
-7.7067
 30
0.0
  0
VERTEX
  5
368
  8
CAPA_1
 10
15.3751
 20
-7.1373
 30
0.0
  0
VERTEX
  5
369
  8
CAPA_1
 10
18.9339
 20
-7.1373
 30
0.0
  0
VERTEX
  5
36A
  8
CAPA_1
 10
18.9339
 20
-7.7067
 30
0.0
  0
VERTEX
  5
36B
  8
CAPA_1
 10
17.5091
 20
-7.7067
 30
0.0
  0
VERTEX
  5
36C
  8
CAPA_1
 10
17.5091
 20
-12.5341
 30
0.0
  0
VERTEX
  5
36D
  8
CAPA_1
 10
16.8007
 20
-12.5341
 30
0.0
  0
VERTEX
  5
36E
  8
CAPA_1
 10
16.8007
 20
-7.7067
 30
0.0
  0
VERTEX
  5
36F
  8
CAPA_1
 10
15.3751
 20
-7.7067
 30
0.0
  0
SEQEND
  5
53E
  8
CAPA_1
  0
POLYLINE
  5
84
  8
CAPA_1
 66
     1
 10
0.0
 20
0.0
 30
0.0
 70
     1
  0
VERTEX
  5
370
  8
CAPA_1
 10
20.9748
 20
-10.79
 30
0.0
  0
VERTEX
  5
371
  8
CAPA_1
 10
22.9669
 20
-10.79
 30
0.0
  0
VERTEX
  5
372
  8
CAPA_1
 10
21.971
 20
-8.0017
 30
0.0
  0
VERTEX
  5
373
  8
CAPA_1
 10
20.9748
 20
-10.79
 30
0.0
  0
SEQEND
  5
53F
  8
CAPA_1
  0
POLYLINE
  5
85
  8
CAPA_1
 66
     1
 10
0.0
 20
0.0
 30
0.0
 70
     1
  0
VERTEX
  5
374
  8
CAPA_1
 10
23.5917
 20
-12.5334
 30
0.0
  0
VERTEX
  5
375
  8
CAPA_1
 10
23.1708
 20
-11.3509
 30
0.0
  0
VERTEX
  5
376
  8
CAPA_1
 10
20.7702
 20
-11.3509
 30
0.0
  0
VERTEX
  5
377
  8
CAPA_1
 10
20.3518
 20
-12.5334
 30
0.0
  0
VERTEX
  5
378
  8
CAPA_1
 10
19.6272
 20
-12.5334
 30
0.0
  0
VERTEX
  5
379
  8
CAPA_1
 10
21.59
 20
-7.1374
 30
0.0
  0
VERTEX
  5
37A
  8
CAPA_1
 10
22.3693
 20
-7.1374
 30
0.0
  0
VERTEX
  5
37B
  8
CAPA_1
 10
24.3234
 20
-12.5334
 30
0.0
  0
VERTEX
  5
37C
  8
CAPA_1
 10
23.5917
 20
-12.5334
 30
0.0
  0
SEQEND
  5
540
  8
CAPA_1
  0
POLYLINE
  5
86
  8
CAPA_1
 66
     1
 10
0.0
 20
0.0
 30
0.0
 70
     1
  0
VERTEX
  5
37D
  8
CAPA_1
 10
25.9578
 20
-7.7067
 30
0.0
  0
VERTEX
  5
37E
  8
CAPA_1
 10
25.9578
 20
-9.7464
 30
0.0
  0
VERTEX
  5
37F
  8
CAPA_1
 10
27.0024
 20
-9.7464
 30
0.0
  0
VERTEX
  5
380
  8
CAPA_1
 10
27.2753
 20
-9.7295
 30
0.0
  0
VERTEX
  5
381
  8
CAPA_1
 10
27.511
 20
-9.679
 30
0.0
  0
VERTEX
  5
382
  8
CAPA_1
 10
27.6148
 20
-9.6412
 30
0.0
  0
VERTEX
  5
383
  8
CAPA_1
 10
27.7093
 20
-9.5951
 30
0.0
  0
VERTEX
  5
384
  8
CAPA_1
 10
27.7943
 20
-9.5407
 30
0.0
  0
VERTEX
  5
385
  8
CAPA_1
 10
27.8698
 20
-9.478
 30
0.0
  0
VERTEX
  5
386
  8
CAPA_1
 10
27.9369
 20
-9.4077
 30
0.0
  0
VERTEX
  5
387
  8
CAPA_1
 10
27.9949
 20
-9.3306
 30
0.0
  0
VERTEX
  5
388
  8
CAPA_1
 10
28.044
 20
-9.2467
 30
0.0
  0
VERTEX
  5
389
  8
CAPA_1
 10
28.0841
 20
-9.1561
 30
0.0
  0
VERTEX
  5
38A
  8
CAPA_1
 10
28.1375
 20
-8.9546
 30
0.0
  0
VERTEX
  5
38B
  8
CAPA_1
 10
28.1552
 20
-8.7262
 30
0.0
  0
VERTEX
  5
38C
  8
CAPA_1
 10
28.1372
 20
-8.4871
 30
0.0
  0
VERTEX
  5
38D
  8
CAPA_1
 10
28.0831
 20
-8.2799
 30
0.0
  0
VERTEX
  5
38E
  8
CAPA_1
 10
27.993
 20
-8.1047
 30
0.0
  0
VERTEX
  5
38F
  8
CAPA_1
 10
27.8669
 20
-7.9614
 30
0.0
  0
VERTEX
  5
390
  8
CAPA_1
 10
27.7048
 20
-7.8499
 30
0.0
  0
VERTEX
  5
391
  8
CAPA_1
 10
27.5067
 20
-7.7703
 30
0.0
  0
VERTEX
  5
392
  8
CAPA_1
 10
27.2725
 20
-7.7226
 30
0.0
  0
VERTEX
  5
393
  8
CAPA_1
 10
27.0024
 20
-7.7067
 30
0.0
  0
VERTEX
  5
394
  8
CAPA_1
 10
25.9578
 20
-7.7067
 30
0.0
  0
SEQEND
  5
541
  8
CAPA_1
  0
POLYLINE
  5
87
  8
CAPA_1
 66
     1
 10
0.0
 20
0.0
 30
0.0
 70
     1
  0
VERTEX
  5
395
  8
CAPA_1
 10
25.9578
 20
-10.3073
 30
0.0
  0
VERTEX
  5
396
  8
CAPA_1
 10
25.9578
 20
-12.5341
 30
0.0
  0
VERTEX
  5
397
  8
CAPA_1
 10
25.2501
 20
-12.5341
 30
0.0
  0
VERTEX
  5
398
  8
CAPA_1
 10
25.2501
 20
-7.1373
 30
0.0
  0
VERTEX
  5
399
  8
CAPA_1
 10
27.0024
 20
-7.1373
 30
0.0
  0
VERTEX
  5
39A
  8
CAPA_1
 10
27.2233
 20
-7.1443
 30
0.0
  0
VERTEX
  5
39B
  8
CAPA_1
 10
27.4308
 20
-7.1652
 30
0.0
  0
VERTEX
  5
39C
  8
CAPA_1
 10
27.6248
 20
-7.2
 30
0.0
  0
VERTEX
  5
39D
  8
CAPA_1
 10
27.8052
 20
-7.2487
 30
0.0
  0
VERTEX
  5
39E
  8
CAPA_1
 10
27.9722
 20
-7.3113
 30
0.0
  0
VERTEX
  5
39F
  8
CAPA_1
 10
28.1256
 20
-7.3876
 30
0.0
  0
VERTEX
  5
3A0
  8
CAPA_1
 10
28.2655
 20
-7.4778
 30
0.0
  0
VERTEX
  5
3A1
  8
CAPA_1
 10
28.3919
 20
-7.5818
 30
0.0
  0
VERTEX
  5
3A2
  8
CAPA_1
 10
28.5048
 20
-7.6955
 30
0.0
  0
VERTEX
  5
3A3
  8
CAPA_1
 10
28.6024
 20
-7.8156
 30
0.0
  0
VERTEX
  5
3A4
  8
CAPA_1
 10
28.6847
 20
-7.942
 30
0.0
  0
VERTEX
  5
3A5
  8
CAPA_1
 10
28.752
 20
-8.0748
 30
0.0
  0
VERTEX
  5
3A6
  8
CAPA_1
 10
28.8042
 20
-8.2138
 30
0.0
  0
VERTEX
  5
3A7
  8
CAPA_1
 10
28.8413
 20
-8.359
 30
0.0
  0
VERTEX
  5
3A8
  8
CAPA_1
 10
28.8636
 20
-8.5104
 30
0.0
  0
VERTEX
  5
3A9
  8
CAPA_1
 10
28.871
 20
-8.668
 30
0.0
  0
VERTEX
  5
3AA
  8
CAPA_1
 10
28.8655
 20
-8.8252
 30
0.0
  0
VERTEX
  5
3AB
  8
CAPA_1
 10
28.8492
 20
-8.9757
 30
0.0
  0
VERTEX
  5
3AC
  8
CAPA_1
 10
28.8219
 20
-9.1196
 30
0.0
  0
VERTEX
  5
3AD
  8
CAPA_1
 10
28.7838
 20
-9.2569
 30
0.0
  0
VERTEX
  5
3AE
  8
CAPA_1
 10
28.7348
 20
-9.3875
 30
0.0
  0
VERTEX
  5
3AF
  8
CAPA_1
 10
28.6749
 20
-9.5113
 30
0.0
  0
VERTEX
  5
3B0
  8
CAPA_1
 10
28.6041
 20
-9.6284
 30
0.0
  0
VERTEX
  5
3B1
  8
CAPA_1
 10
28.5225
 20
-9.7387
 30
0.0
  0
VERTEX
  5
3B2
  8
CAPA_1
 10
28.4287
 20
-9.8408
 30
0.0
  0
VERTEX
  5
3B3
  8
CAPA_1
 10
28.3242
 20
-9.933
 30
0.0
  0
VERTEX
  5
3B4
  8
CAPA_1
 10
28.2088
 20
-10.0152
 30
0.0
  0
VERTEX
  5
3B5
  8
CAPA_1
 10
28.0826
 20
-10.0874
 30
0.0
  0
VERTEX
  5
3B6
  8
CAPA_1
 10
27.9456
 20
-10.1496
 30
0.0
  0
VERTEX
  5
3B7
  8
CAPA_1
 10
27.7976
 20
-10.2018
 30
0.0
  0
VERTEX
  5
3B8
  8
CAPA_1
 10
27.6386
 20
-10.2438
 30
0.0
  0
VERTEX
  5
3B9
  8
CAPA_1
 10
27.4687
 20
-10.2756
 30
0.0
  0
VERTEX
  5
3BA
  8
CAPA_1
 10
28.9578
 20
-12.5341
 30
0.0
  0
VERTEX
  5
3BB
  8
CAPA_1
 10
28.0695
 20
-12.5341
 30
0.0
  0
VERTEX
  5
3BC
  8
CAPA_1
 10
26.6524
 20
-10.3073
 30
0.0
  0
VERTEX
  5
3BD
  8
CAPA_1
 10
25.9578
 20
-10.3073
 30
0.0
  0
SEQEND
  5
542
  8
CAPA_1
  0
POLYLINE
  5
88
  8
CAPA_1
 66
     1
 10
0.0
 20
0.0
 30
0.0
 70
     1
  0
VERTEX
  5
3BE
  8
CAPA_1
 10
30.0546
 20
-7.137
 30
0.0
  0
VERTEX
  5
3BF
  8
CAPA_1
 10
30.7643
 20
-7.137
 30
0.0
  0
VERTEX
  5
3C0
  8
CAPA_1
 10
30.7643
 20
-12.5338
 30
0.0
  0
VERTEX
  5
3C1
  8
CAPA_1
 10
30.0546
 20
-12.5338
 30
0.0
  0
VERTEX
  5
3C2
  8
CAPA_1
 10
30.0546
 20
-7.137
 30
0.0
  0
SEQEND
  5
543
  8
CAPA_1
  0
POLYLINE
  5
89
  8
CAPA_1
 66
     1
 10
0.0
 20
0.0
 30
0.0
 70
     1
  0
VERTEX
  5
3C3
  8
CAPA_1
 10
35.85
 20
-11.374
 30
0.0
  0
VERTEX
  5
3C4
  8
CAPA_1
 10
35.9828
 20
-11.2221
 30
0.0
  0
VERTEX
  5
3C5
  8
CAPA_1
 10
36.0981
 20
-11.0585
 30
0.0
  0
VERTEX
  5
3C6
  8
CAPA_1
 10
36.1957
 20
-10.8832
 30
0.0
  0
VERTEX
  5
3C7
  8
CAPA_1
 10
36.2757
 20
-10.6963
 30
0.0
  0
VERTEX
  5
3C8
  8
CAPA_1
 10
36.338
 20
-10.4977
 30
0.0
  0
VERTEX
  5
3C9
  8
CAPA_1
 10
36.3826
 20
-10.2875
 30
0.0
  0
VERTEX
  5
3CA
  8
CAPA_1
 10
36.4094
 20
-10.0657
 30
0.0
  0
VERTEX
  5
3CB
  8
CAPA_1
 10
36.4183
 20
-9.8323
 30
0.0
  0
VERTEX
  5
3CC
  8
CAPA_1
 10
36.4094
 20
-9.5984
 30
0.0
  0
VERTEX
  5
3CD
  8
CAPA_1
 10
36.3826
 20
-9.3766
 30
0.0
  0
VERTEX
  5
3CE
  8
CAPA_1
 10
36.338
 20
-9.1666
 30
0.0
  0
VERTEX
  5
3CF
  8
CAPA_1
 10
36.2757
 20
-8.9686
 30
0.0
  0
VERTEX
  5
3D0
  8
CAPA_1
 10
36.1957
 20
-8.7824
 30
0.0
  0
VERTEX
  5
3D1
  8
CAPA_1
 10
36.0981
 20
-8.608
 30
0.0
  0
VERTEX
  5
3D2
  8
CAPA_1
 10
35.9828
 20
-8.4454
 30
0.0
  0
VERTEX
  5
3D3
  8
CAPA_1
 10
35.85
 20
-8.2946
 30
0.0
  0
VERTEX
  5
3D4
  8
CAPA_1
 10
35.7027
 20
-8.1586
 30
0.0
  0
VERTEX
  5
3D5
  8
CAPA_1
 10
35.5456
 20
-8.0407
 30
0.0
  0
VERTEX
  5
3D6
  8
CAPA_1
 10
35.3785
 20
-7.9408
 30
0.0
  0
VERTEX
  5
3D7
  8
CAPA_1
 10
35.2017
 20
-7.859
 30
0.0
  0
VERTEX
  5
3D8
  8
CAPA_1
 10
35.015
 20
-7.7954
 30
0.0
  0
VERTEX
  5
3D9
  8
CAPA_1
 10
34.8185
 20
-7.7499
 30
0.0
  0
VERTEX
  5
3DA
  8
CAPA_1
 10
34.6123
 20
-7.7226
 30
0.0
  0
VERTEX
  5
3DB
  8
CAPA_1
 10
34.3962
 20
-7.7135
 30
0.0
  0
VERTEX
  5
3DC
  8
CAPA_1
 10
34.1804
 20
-7.7226
 30
0.0
  0
VERTEX
  5
3DD
  8
CAPA_1
 10
33.9743
 20
-7.7499
 30
0.0
  0
VERTEX
  5
3DE
  8
CAPA_1
 10
33.7779
 20
-7.7954
 30
0.0
  0
VERTEX
  5
3DF
  8
CAPA_1
 10
33.5912
 20
-7.859
 30
0.0
  0
VERTEX
  5
3E0
  8
CAPA_1
 10
33.4142
 20
-7.9408
 30
0.0
  0
VERTEX
  5
3E1
  8
CAPA_1
 10
33.247
 20
-8.0407
 30
0.0
  0
VERTEX
  5
3E2
  8
CAPA_1
 10
33.0895
 20
-8.1586
 30
0.0
  0
VERTEX
  5
3E3
  8
CAPA_1
 10
32.9417
 20
-8.2946
 30
0.0
  0
VERTEX
  5
3E4
  8
CAPA_1
 10
32.8071
 20
-8.4454
 30
0.0
  0
VERTEX
  5
3E5
  8
CAPA_1
 10
32.6905
 20
-8.608
 30
0.0
  0
VERTEX
  5
3E6
  8
CAPA_1
 10
32.592
 20
-8.7824
 30
0.0
  0
VERTEX
  5
3E7
  8
CAPA_1
 10
32.5114
 20
-8.9686
 30
0.0
  0
VERTEX
  5
3E8
  8
CAPA_1
 10
32.4489
 20
-9.1666
 30
0.0
  0
VERTEX
  5
3E9
  8
CAPA_1
 10
32.4042
 20
-9.3766
 30
0.0
  0
VERTEX
  5
3EA
  8
CAPA_1
 10
32.3774
 20
-9.5984
 30
0.0
  0
VERTEX
  5
3EB
  8
CAPA_1
 10
32.3685
 20
-9.8323
 30
0.0
  0
VERTEX
  5
3EC
  8
CAPA_1
 10
32.3775
 20
-10.0657
 30
0.0
  0
VERTEX
  5
3ED
  8
CAPA_1
 10
32.4044
 20
-10.2875
 30
0.0
  0
VERTEX
  5
3EE
  8
CAPA_1
 10
32.4494
 20
-10.4977
 30
0.0
  0
VERTEX
  5
3EF
  8
CAPA_1
 10
32.5123
 20
-10.6963
 30
0.0
  0
VERTEX
  5
3F0
  8
CAPA_1
 10
32.5933
 20
-10.8832
 30
0.0
  0
VERTEX
  5
3F1
  8
CAPA_1
 10
32.6923
 20
-11.0585
 30
0.0
  0
VERTEX
  5
3F2
  8
CAPA_1
 10
32.8094
 20
-11.2221
 30
0.0
  0
VERTEX
  5
3F3
  8
CAPA_1
 10
32.9445
 20
-11.374
 30
0.0
  0
VERTEX
  5
3F4
  8
CAPA_1
 10
33.0935
 20
-11.5108
 30
0.0
  0
VERTEX
  5
3F5
  8
CAPA_1
 10
33.2519
 20
-11.6294
 30
0.0
  0
VERTEX
  5
3F6
  8
CAPA_1
 10
33.4198
 20
-11.7298
 30
0.0
  0
VERTEX
  5
3F7
  8
CAPA_1
 10
33.5972
 20
-11.812
 30
0.0
  0
VERTEX
  5
3F8
  8
CAPA_1
 10
33.784
 20
-11.876
 30
0.0
  0
VERTEX
  5
3F9
  8
CAPA_1
 10
33.9803
 20
-11.9216
 30
0.0
  0
VERTEX
  5
3FA
  8
CAPA_1
 10
34.186
 20
-11.9491
 30
0.0
  0
VERTEX
  5
3FB
  8
CAPA_1
 10
34.4012
 20
-11.9582
 30
0.0
  0
VERTEX
  5
3FC
  8
CAPA_1
 10
34.616
 20
-11.9491
 30
0.0
  0
VERTEX
  5
3FD
  8
CAPA_1
 10
34.8212
 20
-11.9216
 30
0.0
  0
VERTEX
  5
3FE
  8
CAPA_1
 10
35.0169
 20
-11.876
 30
0.0
  0
VERTEX
  5
3FF
  8
CAPA_1
 10
35.2029
 20
-11.812
 30
0.0
  0
VERTEX
  5
400
  8
CAPA_1
 10
35.3792
 20
-11.7298
 30
0.0
  0
VERTEX
  5
401
  8
CAPA_1
 10
35.5458
 20
-11.6294
 30
0.0
  0
VERTEX
  5
402
  8
CAPA_1
 10
35.7028
 20
-11.5108
 30
0.0
  0
VERTEX
  5
403
  8
CAPA_1
 10
35.85
 20
-11.374
 30
0.0
  0
SEQEND
  5
544
  8
CAPA_1
  0
POLYLINE
  5
8A
  8
CAPA_1
 66
     1
 10
0.0
 20
0.0
 30
0.0
 70
     1
  0
VERTEX
  5
404
  8
CAPA_1
 10
34.4012
 20
-12.5886
 30
0.0
  0
VERTEX
  5
405
  8
CAPA_1
 10
34.1169
 20
-12.5764
 30
0.0
  0
VERTEX
  5
406
  8
CAPA_1
 10
33.8439
 20
-12.5397
 30
0.0
  0
VERTEX
  5
407
  8
CAPA_1
 10
33.5824
 20
-12.4787
 30
0.0
  0
VERTEX
  5
408
  8
CAPA_1
 10
33.3322
 20
-12.3932
 30
0.0
  0
VERTEX
  5
409
  8
CAPA_1
 10
33.0934
 20
-12.2833
 30
0.0
  0
VERTEX
  5
40A
  8
CAPA_1
 10
32.8661
 20
-12.1491
 30
0.0
  0
VERTEX
  5
40B
  8
CAPA_1
 10
32.6501
 20
-11.9905
 30
0.0
  0
VERTEX
  5
40C
  8
CAPA_1
 10
32.4457
 20
-11.8075
 30
0.0
  0
VERTEX
  5
40D
  8
CAPA_1
 10
32.2599
 20
-11.6051
 30
0.0
  0
VERTEX
  5
40E
  8
CAPA_1
 10
32.0989
 20
-11.3899
 30
0.0
  0
VERTEX
  5
40F
  8
CAPA_1
 10
31.9626
 20
-11.1618
 30
0.0
  0
VERTEX
  5
410
  8
CAPA_1
 10
31.8511
 20
-10.9209
 30
0.0
  0
VERTEX
  5
411
  8
CAPA_1
 10
31.7643
 20
-10.6671
 30
0.0
  0
VERTEX
  5
412
  8
CAPA_1
 10
31.7023
 20
-10.4006
 30
0.0
  0
VERTEX
  5
413
  8
CAPA_1
 10
31.6651
 20
-10.1213
 30
0.0
  0
VERTEX
  5
414
  8
CAPA_1
 10
31.6527
 20
-9.8292
 30
0.0
  0
VERTEX
  5
415
  8
CAPA_1
 10
31.6651
 20
-9.5364
 30
0.0
  0
VERTEX
  5
416
  8
CAPA_1
 10
31.7023
 20
-9.257
 30
0.0
  0
VERTEX
  5
417
  8
CAPA_1
 10
31.7643
 20
-8.9908
 30
0.0
  0
VERTEX
  5
418
  8
CAPA_1
 10
31.8511
 20
-8.7378
 30
0.0
  0
VERTEX
  5
419
  8
CAPA_1
 10
31.9626
 20
-8.4981
 30
0.0
  0
VERTEX
  5
41A
  8
CAPA_1
 10
32.0989
 20
-8.2716
 30
0.0
  0
VERTEX
  5
41B
  8
CAPA_1
 10
32.2599
 20
-8.0583
 30
0.0
  0
VERTEX
  5
41C
  8
CAPA_1
 10
32.4457
 20
-7.8582
 30
0.0
  0
VERTEX
  5
41D
  8
CAPA_1
 10
32.6501
 20
-7.6764
 30
0.0
  0
VERTEX
  5
41E
  8
CAPA_1
 10
32.8661
 20
-7.5189
 30
0.0
  0
VERTEX
  5
41F
  8
CAPA_1
 10
33.0934
 20
-7.3856
 30
0.0
  0
VERTEX
  5
420
  8
CAPA_1
 10
33.3322
 20
-7.2766
 30
0.0
  0
VERTEX
  5
421
  8
CAPA_1
 10
33.5824
 20
-7.1918
 30
0.0
  0
VERTEX
  5
422
  8
CAPA_1
 10
33.8439
 20
-7.1312
 30
0.0
  0
VERTEX
  5
423
  8
CAPA_1
 10
34.1169
 20
-7.0949
 30
0.0
  0
VERTEX
  5
424
  8
CAPA_1
 10
34.4012
 20
-7.0828
 30
0.0
  0
VERTEX
  5
425
  8
CAPA_1
 10
34.6853
 20
-7.0949
 30
0.0
  0
VERTEX
  5
426
  8
CAPA_1
 10
34.958
 20
-7.1312
 30
0.0
  0
VERTEX
  5
427
  8
CAPA_1
 10
35.2192
 20
-7.1918
 30
0.0
  0
VERTEX
  5
428
  8
CAPA_1
 10
35.4689
 20
-7.2766
 30
0.0
  0
VERTEX
  5
429
  8
CAPA_1
 10
35.707
 20
-7.3856
 30
0.0
  0
VERTEX
  5
42A
  8
CAPA_1
 10
35.9335
 20
-7.5189
 30
0.0
  0
VERTEX
  5
42B
  8
CAPA_1
 10
36.1485
 20
-7.6764
 30
0.0
  0
VERTEX
  5
42C
  8
CAPA_1
 10
36.3517
 20
-7.8582
 30
0.0
  0
VERTEX
  5
42D
  8
CAPA_1
 10
36.537
 20
-8.0584
 30
0.0
  0
VERTEX
  5
42E
  8
CAPA_1
 10
36.6975
 20
-8.272
 30
0.0
  0
VERTEX
  5
42F
  8
CAPA_1
 10
36.8333
 20
-8.4988
 30
0.0
  0
VERTEX
  5
430
  8
CAPA_1
 10
36.9444
 20
-8.739
 30
0.0
  0
VERTEX
  5
431
  8
CAPA_1
 10
37.0308
 20
-8.9925
 30
0.0
  0
VERTEX
  5
432
  8
CAPA_1
 10
37.0925
 20
-9.2592
 30
0.0
  0
VERTEX
  5
433
  8
CAPA_1
 10
37.1296
 20
-9.5391
 30
0.0
  0
VERTEX
  5
434
  8
CAPA_1
 10
37.1419
 20
-9.8323
 30
0.0
  0
VERTEX
  5
435
  8
CAPA_1
 10
37.1296
 20
-10.1255
 30
0.0
  0
VERTEX
  5
436
  8
CAPA_1
 10
37.0925
 20
-10.4056
 30
0.0
  0
VERTEX
  5
437
  8
CAPA_1
 10
37.0308
 20
-10.6726
 30
0.0
  0
VERTEX
  5
438
  8
CAPA_1
 10
36.9444
 20
-10.9264
 30
0.0
  0
VERTEX
  5
439
  8
CAPA_1
 10
36.8333
 20
-11.167
 30
0.0
  0
VERTEX
  5
43A
  8
CAPA_1
 10
36.6975
 20
-11.3944
 30
0.0
  0
VERTEX
  5
43B
  8
CAPA_1
 10
36.537
 20
-11.6086
 30
0.0
  0
VERTEX
  5
43C
  8
CAPA_1
 10
36.3517
 20
-11.8096
 30
0.0
  0
VERTEX
  5
43D
  8
CAPA_1
 10
36.1485
 20
-11.9925
 30
0.0
  0
VERTEX
  5
43E
  8
CAPA_1
 10
35.9335
 20
-12.1509
 30
0.0
  0
VERTEX
  5
43F
  8
CAPA_1
 10
35.707
 20
-12.2848
 30
0.0
  0
VERTEX
  5
440
  8
CAPA_1
 10
35.4689
 20
-12.3943
 30
0.0
  0
VERTEX
  5
441
  8
CAPA_1
 10
35.2192
 20
-12.4793
 30
0.0
  0
VERTEX
  5
442
  8
CAPA_1
 10
34.958
 20
-12.5401
 30
0.0
  0
VERTEX
  5
443
  8
CAPA_1
 10
34.6853
 20
-12.5765
 30
0.0
  0
VERTEX
  5
444
  8
CAPA_1
 10
34.4012
 20
-12.5886
 30
0.0
  0
SEQEND
  5
545
  8
CAPA_1
  0
POLYLINE
  5
8B
  8
CAPA_1
 66
     1
 10
0.0
 20
0.0
 30
0.0
 70
     1
  0
VERTEX
  5
445
  8
CAPA_1
 10
40.2811
 20
-11.7908
 30
0.0
  0
VERTEX
  5
446
  8
CAPA_1
 10
40.0904
 20
-11.5866
 30
0.0
  0
VERTEX
  5
447
  8
CAPA_1
 10
39.9249
 20
-11.369
 30
0.0
  0
VERTEX
  5
448
  8
CAPA_1
 10
39.7848
 20
-11.138
 30
0.0
  0
VERTEX
  5
449
  8
CAPA_1
 10
39.67
 20
-10.8938
 30
0.0
  0
VERTEX
  5
44A
  8
CAPA_1
 10
39.5806
 20
-10.6363
 30
0.0
  0
VERTEX
  5
44B
  8
CAPA_1
 10
39.5167
 20
-10.3656
 30
0.0
  0
VERTEX
  5
44C
  8
CAPA_1
 10
39.4783
 20
-10.0816
 30
0.0
  0
VERTEX
  5
44D
  8
CAPA_1
 10
39.4655
 20
-9.7846
 30
0.0
  0
VERTEX
  5
44E
  8
CAPA_1
 10
39.4783
 20
-9.4878
 30
0.0
  0
VERTEX
  5
44F
  8
CAPA_1
 10
39.5167
 20
-9.2042
 30
0.0
  0
VERTEX
  5
450
  8
CAPA_1
 10
39.5806
 20
-8.9338
 30
0.0
  0
VERTEX
  5
451
  8
CAPA_1
 10
39.67
 20
-8.6766
 30
0.0
  0
VERTEX
  5
452
  8
CAPA_1
 10
39.7848
 20
-8.4327
 30
0.0
  0
VERTEX
  5
453
  8
CAPA_1
 10
39.9249
 20
-8.202
 30
0.0
  0
VERTEX
  5
454
  8
CAPA_1
 10
40.0904
 20
-7.9847
 30
0.0
  0
VERTEX
  5
455
  8
CAPA_1
 10
40.2811
 20
-7.7808
 30
0.0
  0
VERTEX
  5
456
  8
CAPA_1
 10
40.4902
 20
-7.5952
 30
0.0
  0
VERTEX
  5
457
  8
CAPA_1
 10
40.7107
 20
-7.4344
 30
0.0
  0
VERTEX
  5
458
  8
CAPA_1
 10
40.9424
 20
-7.2985
 30
0.0
  0
VERTEX
  5
459
  8
CAPA_1
 10
41.1855
 20
-7.1873
 30
0.0
  0
VERTEX
  5
45A
  8
CAPA_1
 10
41.4399
 20
-7.1009
 30
0.0
  0
VERTEX
  5
45B
  8
CAPA_1
 10
41.7056
 20
-7.0392
 30
0.0
  0
VERTEX
  5
45C
  8
CAPA_1
 10
41.9827
 20
-7.0022
 30
0.0
  0
VERTEX
  5
45D
  8
CAPA_1
 10
42.2711
 20
-6.9899
 30
0.0
  0
VERTEX
  5
45E
  8
CAPA_1
 10
42.4956
 20
-6.9975
 30
0.0
  0
VERTEX
  5
45F
  8
CAPA_1
 10
42.7138
 20
-7.0201
 30
0.0
  0
VERTEX
  5
460
  8
CAPA_1
 10
42.9258
 20
-7.0579
 30
0.0
  0
VERTEX
  5
461
  8
CAPA_1
 10
43.1316
 20
-7.1107
 30
0.0
  0
VERTEX
  5
462
  8
CAPA_1
 10
43.3311
 20
-7.1786
 30
0.0
  0
VERTEX
  5
463
  8
CAPA_1
 10
43.5243
 20
-7.2615
 30
0.0
  0
VERTEX
  5
464
  8
CAPA_1
 10
43.7112
 20
-7.3595
 30
0.0
  0
VERTEX
  5
465
  8
CAPA_1
 10
43.8918
 20
-7.4725
 30
0.0
  0
VERTEX
  5
466
  8
CAPA_1
 10
44.0623
 20
-7.5992
 30
0.0
  0
VERTEX
  5
467
  8
CAPA_1
 10
44.2192
 20
-7.7375
 30
0.0
  0
VERTEX
  5
468
  8
CAPA_1
 10
44.3627
 20
-7.8874
 30
0.0
  0
VERTEX
  5
469
  8
CAPA_1
 10
44.4928
 20
-8.049
 30
0.0
  0
VERTEX
  5
46A
  8
CAPA_1
 10
44.6096
 20
-8.2222
 30
0.0
  0
VERTEX
  5
46B
  8
CAPA_1
 10
44.7131
 20
-8.4072
 30
0.0
  0
VERTEX
  5
46C
  8
CAPA_1
 10
44.8034
 20
-8.6039
 30
0.0
  0
VERTEX
  5
46D
  8
CAPA_1
 10
44.8806
 20
-8.8123
 30
0.0
  0
VERTEX
  5
46E
  8
CAPA_1
 10
43.2903
 20
-8.8123
 30
0.0
  0
VERTEX
  5
46F
  8
CAPA_1
 10
43.2067
 20
-8.6716
 30
0.0
  0
VERTEX
  5
470
  8
CAPA_1
 10
43.1114
 20
-8.5497
 30
0.0
  0
VERTEX
  5
471
  8
CAPA_1
 10
43.0044
 20
-8.4465
 30
0.0
  0
VERTEX
  5
472
  8
CAPA_1
 10
42.8858
 20
-8.362
 30
0.0
  0
VERTEX
  5
473
  8
CAPA_1
 10
42.7554
 20
-8.2962
 30
0.0
  0
VERTEX
  5
474
  8
CAPA_1
 10
42.6134
 20
-8.2492
 30
0.0
  0
VERTEX
  5
475
  8
CAPA_1
 10
42.4596
 20
-8.221
 30
0.0
  0
VERTEX
  5
476
  8
CAPA_1
 10
42.294
 20
-8.2116
 30
0.0
  0
VERTEX
  5
477
  8
CAPA_1
 10
42.1276
 20
-8.2184
 30
0.0
  0
VERTEX
  5
478
  8
CAPA_1
 10
41.9702
 20
-8.2386
 30
0.0
  0
VERTEX
  5
479
  8
CAPA_1
 10
41.8217
 20
-8.2723
 30
0.0
  0
VERTEX
  5
47A
  8
CAPA_1
 10
41.6821
 20
-8.3193
 30
0.0
  0
VERTEX
  5
47B
  8
CAPA_1
 10
41.5516
 20
-8.3798
 30
0.0
  0
VERTEX
  5
47C
  8
CAPA_1
 10
41.4302
 20
-8.4535
 30
0.0
  0
VERTEX
  5
47D
  8
CAPA_1
 10
41.318
 20
-8.5406
 30
0.0
  0
VERTEX
  5
47E
  8
CAPA_1
 10
41.2149
 20
-8.6409
 30
0.0
  0
VERTEX
  5
47F
  8
CAPA_1
 10
41.1231
 20
-8.7525
 30
0.0
  0
VERTEX
  5
480
  8
CAPA_1
 10
41.0434
 20
-8.8731
 30
0.0
  0
VERTEX
  5
481
  8
CAPA_1
 10
40.9759
 20
-9.0027
 30
0.0
  0
VERTEX
  5
482
  8
CAPA_1
 10
40.9206
 20
-9.1412
 30
0.0
  0
VERTEX
  5
483
  8
CAPA_1
 10
40.8776
 20
-9.2886
 30
0.0
  0
VERTEX
  5
484
  8
CAPA_1
 10
40.8468
 20
-9.445
 30
0.0
  0
VERTEX
  5
485
  8
CAPA_1
 10
40.8284
 20
-9.6103
 30
0.0
  0
VERTEX
  5
486
  8
CAPA_1
 10
40.8222
 20
-9.7846
 30
0.0
  0
VERTEX
  5
487
  8
CAPA_1
 10
40.8284
 20
-9.9598
 30
0.0
  0
VERTEX
  5
488
  8
CAPA_1
 10
40.8468
 20
-10.1257
 30
0.0
  0
VERTEX
  5
489
  8
CAPA_1
 10
40.8776
 20
-10.2826
 30
0.0
  0
VERTEX
  5
48A
  8
CAPA_1
 10
40.9206
 20
-10.4303
 30
0.0
  0
VERTEX
  5
48B
  8
CAPA_1
 10
40.9759
 20
-10.5688
 30
0.0
  0
VERTEX
  5
48C
  8
CAPA_1
 10
41.0434
 20
-10.6984
 30
0.0
  0
VERTEX
  5
48D
  8
CAPA_1
 10
41.1231
 20
-10.8189
 30
0.0
  0
VERTEX
  5
48E
  8
CAPA_1
 10
41.2149
 20
-10.9304
 30
0.0
  0
VERTEX
  5
48F
  8
CAPA_1
 10
41.318
 20
-11.0308
 30
0.0
  0
VERTEX
  5
490
  8
CAPA_1
 10
41.4302
 20
-11.1178
 30
0.0
  0
VERTEX
  5
491
  8
CAPA_1
 10
41.5516
 20
-11.1913
 30
0.0
  0
VERTEX
  5
492
  8
CAPA_1
 10
41.6821
 20
-11.2514
 30
0.0
  0
VERTEX
  5
493
  8
CAPA_1
 10
41.8217
 20
-11.2981
 30
0.0
  0
VERTEX
  5
494
  8
CAPA_1
 10
41.9702
 20
-11.3314
 30
0.0
  0
VERTEX
  5
495
  8
CAPA_1
 10
42.1276
 20
-11.3513
 30
0.0
  0
VERTEX
  5
496
  8
CAPA_1
 10
42.294
 20
-11.358
 30
0.0
  0
VERTEX
  5
497
  8
CAPA_1
 10
42.4596
 20
-11.3487
 30
0.0
  0
VERTEX
  5
498
  8
CAPA_1
 10
42.6134
 20
-11.3208
 30
0.0
  0
VERTEX
  5
499
  8
CAPA_1
 10
42.7554
 20
-11.2741
 30
0.0
  0
VERTEX
  5
49A
  8
CAPA_1
 10
42.8858
 20
-11.2088
 30
0.0
  0
VERTEX
  5
49B
  8
CAPA_1
 10
43.0044
 20
-11.1246
 30
0.0
  0
VERTEX
  5
49C
  8
CAPA_1
 10
43.1114
 20
-11.0216
 30
0.0
  0
VERTEX
  5
49D
  8
CAPA_1
 10
43.2067
 20
-10.8998
 30
0.0
  0
VERTEX
  5
49E
  8
CAPA_1
 10
43.2903
 20
-10.759
 30
0.0
  0
VERTEX
  5
49F
  8
CAPA_1
 10
44.8806
 20
-10.759
 30
0.0
  0
VERTEX
  5
4A0
  8
CAPA_1
 10
44.8034
 20
-10.9675
 30
0.0
  0
VERTEX
  5
4A1
  8
CAPA_1
 10
44.7131
 20
-11.1642
 30
0.0
  0
VERTEX
  5
4A2
  8
CAPA_1
 10
44.6096
 20
-11.3492
 30
0.0
  0
VERTEX
  5
4A3
  8
CAPA_1
 10
44.4928
 20
-11.5225
 30
0.0
  0
VERTEX
  5
4A4
  8
CAPA_1
 10
44.3627
 20
-11.6841
 30
0.0
  0
VERTEX
  5
4A5
  8
CAPA_1
 10
44.2192
 20
-11.834
 30
0.0
  0
VERTEX
  5
4A6
  8
CAPA_1
 10
44.0623
 20
-11.9721
 30
0.0
  0
VERTEX
  5
4A7
  8
CAPA_1
 10
43.8918
 20
-12.0985
 30
0.0
  0
VERTEX
  5
4A8
  8
CAPA_1
 10
43.7112
 20
-12.2115
 30
0.0
  0
VERTEX
  5
4A9
  8
CAPA_1
 10
43.5243
 20
-12.3095
 30
0.0
  0
VERTEX
  5
4AA
  8
CAPA_1
 10
43.3311
 20
-12.3924
 30
0.0
  0
VERTEX
  5
4AB
  8
CAPA_1
 10
43.1316
 20
-12.4603
 30
0.0
  0
VERTEX
  5
4AC
  8
CAPA_1
 10
42.9258
 20
-12.5131
 30
0.0
  0
VERTEX
  5
4AD
  8
CAPA_1
 10
42.7138
 20
-12.5509
 30
0.0
  0
VERTEX
  5
4AE
  8
CAPA_1
 10
42.4956
 20
-12.5735
 30
0.0
  0
VERTEX
  5
4AF
  8
CAPA_1
 10
42.2711
 20
-12.5811
 30
0.0
  0
VERTEX
  5
4B0
  8
CAPA_1
 10
41.9827
 20
-12.5687
 30
0.0
  0
VERTEX
  5
4B1
  8
CAPA_1
 10
41.7056
 20
-12.5317
 30
0.0
  0
VERTEX
  5
4B2
  8
CAPA_1
 10
41.4399
 20
-12.4699
 30
0.0
  0
VERTEX
  5
4B3
  8
CAPA_1
 10
41.1855
 20
-12.3835
 30
0.0
  0
VERTEX
  5
4B4
  8
CAPA_1
 10
40.9424
 20
-12.2723
 30
0.0
  0
VERTEX
  5
4B5
  8
CAPA_1
 10
40.7107
 20
-12.1365
 30
0.0
  0
VERTEX
  5
4B6
  8
CAPA_1
 10
40.4902
 20
-11.976
 30
0.0
  0
VERTEX
  5
4B7
  8
CAPA_1
 10
40.2811
 20
-11.7908
 30
0.0
  0
SEQEND
  5
546
  8
CAPA_1
  0
POLYLINE
  5
8C
  8
CAPA_1
 66
     1
 10
0.0
 20
0.0
 30
0.0
 70
     1
  0
VERTEX
  5
4B8
  8
CAPA_1
 10
45.7366
 20
-7.0672
 30
0.0
  0
VERTEX
  5
4B9
  8
CAPA_1
 10
47.0676
 20
-7.0672
 30
0.0
  0
VERTEX
  5
4BA
  8
CAPA_1
 10
47.0676
 20
-12.5338
 30
0.0
  0
VERTEX
  5
4BB
  8
CAPA_1
 10
45.7366
 20
-12.5338
 30
0.0
  0
VERTEX
  5
4BC
  8
CAPA_1
 10
45.7366
 20
-7.0672
 30
0.0
  0
SEQEND
  5
547
  8
CAPA_1
  0
POLYLINE
  5
8D
  8
CAPA_1
 66
     1
 10
0.0
 20
0.0
 30
0.0
 70
     1
  0
VERTEX
  5
4BD
  8
CAPA_1
 10
49.5684
 20
-11.5221
 30
0.0
  0
VERTEX
  5
4BE
  8
CAPA_1
 10
50.1593
 20
-11.5221
 30
0.0
  0
VERTEX
  5
4BF
  8
CAPA_1
 10
50.3452
 20
-11.5148
 30
0.0
  0
VERTEX
  5
4C0
  8
CAPA_1
 10
50.5208
 20
-11.4929
 30
0.0
  0
VERTEX
  5
4C1
  8
CAPA_1
 10
50.6861
 20
-11.4564
 30
0.0
  0
VERTEX
  5
4C2
  8
CAPA_1
 10
50.8411
 20
-11.4054
 30
0.0
  0
VERTEX
  5
4C3
  8
CAPA_1
 10
50.9859
 20
-11.3397
 30
0.0
  0
VERTEX
  5
4C4
  8
CAPA_1
 10
51.1203
 20
-11.2594
 30
0.0
  0
VERTEX
  5
4C5
  8
CAPA_1
 10
51.2445
 20
-11.1645
 30
0.0
  0
VERTEX
  5
4C6
  8
CAPA_1
 10
51.3584
 20
-11.055
 30
0.0
  0
VERTEX
  5
4C7
  8
CAPA_1
 10
51.4608
 20
-10.9332
 30
0.0
  0
VERTEX
  5
4C8
  8
CAPA_1
 10
51.5496
 20
-10.8014
 30
0.0
  0
VERTEX
  5
4C9
  8
CAPA_1
 10
51.6246
 20
-10.6596
 30
0.0
  0
VERTEX
  5
4CA
  8
CAPA_1
 10
51.686
 20
-10.5078
 30
0.0
  0
VERTEX
  5
4CB
  8
CAPA_1
 10
51.7338
 20
-10.346
 30
0.0
  0
VERTEX
  5
4CC
  8
CAPA_1
 10
51.7678
 20
-10.1742
 30
0.0
  0
VERTEX
  5
4CD
  8
CAPA_1
 10
51.7883
 20
-9.9924
 30
0.0
  0
VERTEX
  5
4CE
  8
CAPA_1
 10
51.7951
 20
-9.8005
 30
0.0
  0
VERTEX
  5
4CF
  8
CAPA_1
 10
51.7883
 20
-9.6091
 30
0.0
  0
VERTEX
  5
4D0
  8
CAPA_1
 10
51.7678
 20
-9.4276
 30
0.0
  0
VERTEX
  5
4D1
  8
CAPA_1
 10
51.7338
 20
-9.256
 30
0.0
  0
VERTEX
  5
4D2
  8
CAPA_1
 10
51.686
 20
-9.0943
 30
0.0
  0
VERTEX
  5
4D3
  8
CAPA_1
 10
51.6246
 20
-8.9425
 30
0.0
  0
VERTEX
  5
4D4
  8
CAPA_1
 10
51.5496
 20
-8.8006
 30
0.0
  0
VERTEX
  5
4D5
  8
CAPA_1
 10
51.4608
 20
-8.6687
 30
0.0
  0
VERTEX
  5
4D6
  8
CAPA_1
 10
51.3584
 20
-8.5468
 30
0.0
  0
VERTEX
  5
4D7
  8
CAPA_1
 10
51.2445
 20
-8.4375
 30
0.0
  0
VERTEX
  5
4D8
  8
CAPA_1
 10
51.1203
 20
-8.3427
 30
0.0
  0
VERTEX
  5
4D9
  8
CAPA_1
 10
50.9859
 20
-8.2625
 30
0.0
  0
VERTEX
  5
4DA
  8
CAPA_1
 10
50.8411
 20
-8.1969
 30
0.0
  0
VERTEX
  5
4DB
  8
CAPA_1
 10
50.6861
 20
-8.1457
 30
0.0
  0
VERTEX
  5
4DC
  8
CAPA_1
 10
50.5208
 20
-8.1092
 30
0.0
  0
VERTEX
  5
4DD
  8
CAPA_1
 10
50.3452
 20
-8.0873
 30
0.0
  0
VERTEX
  5
4DE
  8
CAPA_1
 10
50.1593
 20
-8.08
 30
0.0
  0
VERTEX
  5
4DF
  8
CAPA_1
 10
49.5684
 20
-8.08
 30
0.0
  0
VERTEX
  5
4E0
  8
CAPA_1
 10
49.5684
 20
-11.5221
 30
0.0
  0
SEQEND
  5
548
  8
CAPA_1
  0
POLYLINE
  5
8E
  8
CAPA_1
 66
     1
 10
0.0
 20
0.0
 30
0.0
 70
     1
  0
VERTEX
  5
4E1
  8
CAPA_1
 10
50.1593
 20
-7.0672
 30
0.0
  0
VERTEX
  5
4E2
  8
CAPA_1
 10
50.479
 20
-7.0791
 30
0.0
  0
VERTEX
  5
4E3
  8
CAPA_1
 10
50.7842
 20
-7.1147
 30
0.0
  0
VERTEX
  5
4E4
  8
CAPA_1
 10
51.0749
 20
-7.1742
 30
0.0
  0
VERTEX
  5
4E5
  8
CAPA_1
 10
51.3511
 20
-7.2573
 30
0.0
  0
VERTEX
  5
4E6
  8
CAPA_1
 10
51.6127
 20
-7.3641
 30
0.0
  0
VERTEX
  5
4E7
  8
CAPA_1
 10
51.8597
 20
-7.4947
 30
0.0
  0
VERTEX
  5
4E8
  8
CAPA_1
 10
52.0921
 20
-7.6489
 30
0.0
  0
VERTEX
  5
4E9
  8
CAPA_1
 10
52.3098
 20
-7.8268
 30
0.0
  0
VERTEX
  5
4EA
  8
CAPA_1
 10
52.5069
 20
-8.024
 30
0.0
  0
VERTEX
  5
4EB
  8
CAPA_1
 10
52.6776
 20
-8.2351
 30
0.0
  0
VERTEX
  5
4EC
  8
CAPA_1
 10
52.8218
 20
-8.4602
 30
0.0
  0
VERTEX
  5
4ED
  8
CAPA_1
 10
52.9398
 20
-8.6993
 30
0.0
  0
VERTEX
  5
4EE
  8
CAPA_1
 10
53.0314
 20
-8.9526
 30
0.0
  0
VERTEX
  5
4EF
  8
CAPA_1
 10
53.0968
 20
-9.22
 30
0.0
  0
VERTEX
  5
4F0
  8
CAPA_1
 10
53.136
 20
-9.5016
 30
0.0
  0
VERTEX
  5
4F1
  8
CAPA_1
 10
53.1491
 20
-9.7974
 30
0.0
  0
VERTEX
  5
4F2
  8
CAPA_1
 10
53.136
 20
-10.093
 30
0.0
  0
VERTEX
  5
4F3
  8
CAPA_1
 10
53.0968
 20
-10.3747
 30
0.0
  0
VERTEX
  5
4F4
  8
CAPA_1
 10
53.0314
 20
-10.6424
 30
0.0
  0
VERTEX
  5
4F5
  8
CAPA_1
 10
52.9398
 20
-10.8962
 30
0.0
  0
VERTEX
  5
4F6
  8
CAPA_1
 10
52.8218
 20
-11.1361
 30
0.0
  0
VERTEX
  5
4F7
  8
CAPA_1
 10
52.6776
 20
-11.3619
 30
0.0
  0
VERTEX
  5
4F8
  8
CAPA_1
 10
52.5069
 20
-11.5737
 30
0.0
  0
VERTEX
  5
4F9
  8
CAPA_1
 10
52.3098
 20
-11.7715
 30
0.0
  0
VERTEX
  5
4FA
  8
CAPA_1
 10
52.0921
 20
-11.9503
 30
0.0
  0
VERTEX
  5
4FB
  8
CAPA_1
 10
51.8597
 20
-12.1052
 30
0.0
  0
VERTEX
  5
4FC
  8
CAPA_1
 10
51.6127
 20
-12.2363
 30
0.0
  0
VERTEX
  5
4FD
  8
CAPA_1
 10
51.3511
 20
-12.3435
 30
0.0
  0
VERTEX
  5
4FE
  8
CAPA_1
 10
51.0749
 20
-12.4268
 30
0.0
  0
VERTEX
  5
4FF
  8
CAPA_1
 10
50.7842
 20
-12.4863
 30
0.0
  0
VERTEX
  5
500
  8
CAPA_1
 10
50.479
 20
-12.522
 30
0.0
  0
VERTEX
  5
501
  8
CAPA_1
 10
50.1593
 20
-12.5339
 30
0.0
  0
VERTEX
  5
502
  8
CAPA_1
 10
48.2359
 20
-12.5339
 30
0.0
  0
VERTEX
  5
503
  8
CAPA_1
 10
48.2359
 20
-7.0672
 30
0.0
  0
VERTEX
  5
504
  8
CAPA_1
 10
50.1593
 20
-7.0672
 30
0.0
  0
SEQEND
  5
549
  8
CAPA_1
  0
POLYLINE
  5
8F
  8
CAPA_1
 66
     1
 10
0.0
 20
0.0
 30
0.0
 70
     1
  0
VERTEX
  5
505
  8
CAPA_1
 10
54.181
 20
-8.1894
 30
0.0
  0
VERTEX
  5
506
  8
CAPA_1
 10
55.5138
 20
-8.1894
 30
0.0
  0
VERTEX
  5
507
  8
CAPA_1
 10
55.5138
 20
-12.5338
 30
0.0
  0
VERTEX
  5
508
  8
CAPA_1
 10
54.181
 20
-12.5338
 30
0.0
  0
VERTEX
  5
509
  8
CAPA_1
 10
54.181
 20
-8.1894
 30
0.0
  0
SEQEND
  5
54A
  8
CAPA_1
  0
POLYLINE
  5
90
  8
CAPA_1
 66
     1
 10
0.0
 20
0.0
 30
0.0
 70
     1
  0
VERTEX
  5
50A
  8
CAPA_1
 10
55.3963
 20
-7.698
 30
0.0
  0
VERTEX
  5
50B
  8
CAPA_1
 10
55.2773
 20
-7.797
 30
0.0
  0
VERTEX
  5
50C
  8
CAPA_1
 10
55.1456
 20
-7.8678
 30
0.0
  0
VERTEX
  5
50D
  8
CAPA_1
 10
55.0014
 20
-7.9102
 30
0.0
  0
VERTEX
  5
50E
  8
CAPA_1
 10
54.845
 20
-7.9244
 30
0.0
  0
VERTEX
  5
50F
  8
CAPA_1
 10
54.6872
 20
-7.9102
 30
0.0
  0
VERTEX
  5
510
  8
CAPA_1
 10
54.5424
 20
-7.8678
 30
0.0
  0
VERTEX
  5
511
  8
CAPA_1
 10
54.4105
 20
-7.797
 30
0.0
  0
VERTEX
  5
512
  8
CAPA_1
 10
54.2914
 20
-7.698
 30
0.0
  0
VERTEX
  5
513
  8
CAPA_1
 10
54.1928
 20
-7.5789
 30
0.0
  0
VERTEX
  5
514
  8
CAPA_1
 10
54.122
 20
-7.4463
 30
0.0
  0
VERTEX
  5
515
  8
CAPA_1
 10
54.0793
 20
-7.3004
 30
0.0
  0
VERTEX
  5
516
  8
CAPA_1
 10
54.065
 20
-7.1416
 30
0.0
  0
VERTEX
  5
517
  8
CAPA_1
 10
54.0793
 20
-6.9827
 30
0.0
  0
VERTEX
  5
518
  8
CAPA_1
 10
54.122
 20
-6.837
 30
0.0
  0
VERTEX
  5
519
  8
CAPA_1
 10
54.1928
 20
-6.7044
 30
0.0
  0
VERTEX
  5
51A
  8
CAPA_1
 10
54.2914
 20
-6.5846
 30
0.0
  0
VERTEX
  5
51B
  8
CAPA_1
 10
54.4105
 20
-6.486
 30
0.0
  0
VERTEX
  5
51C
  8
CAPA_1
 10
54.5424
 20
-6.4155
 30
0.0
  0
VERTEX
  5
51D
  8
CAPA_1
 10
54.6872
 20
-6.3733
 30
0.0
  0
VERTEX
  5
51E
  8
CAPA_1
 10
54.845
 20
-6.3592
 30
0.0
  0
VERTEX
  5
51F
  8
CAPA_1
 10
55.0014
 20
-6.3733
 30
0.0
  0
VERTEX
  5
520
  8
CAPA_1
 10
55.1456
 20
-6.4155
 30
0.0
  0
VERTEX
  5
521
  8
CAPA_1
 10
55.2773
 20
-6.486
 30
0.0
  0
VERTEX
  5
522
  8
CAPA_1
 10
55.3963
 20
-6.5846
 30
0.0
  0
VERTEX
  5
523
  8
CAPA_1
 10
55.4955
 20
-6.7044
 30
0.0
  0
VERTEX
  5
524
  8
CAPA_1
 10
55.5659
 20
-6.837
 30
0.0
  0
VERTEX
  5
525
  8
CAPA_1
 10
55.6079
 20
-6.9827
 30
0.0
  0
VERTEX
  5
526
  8
CAPA_1
 10
55.6218
 20
-7.1416
 30
0.0
  0
VERTEX
  5
527
  8
CAPA_1
 10
55.6079
 20
-7.3004
 30
0.0
  0
VERTEX
  5
528
  8
CAPA_1
 10
55.5659
 20
-7.4463
 30
0.0
  0
VERTEX
  5
529
  8
CAPA_1
 10
55.4955
 20
-7.5789
 30
0.0
  0
VERTEX
  5
52A
  8
CAPA_1
 10
55.3963
 20
-7.698
 30
0.0
  0
SEQEND
  5
54B
  8
CAPA_1
  0
ENDSEC
  0
EOF
