999
"DXF R12 Output" (www.mydxf.blogspot.com)
 0 
SECTION
 2 
HEADER
 9 
$ACADVER
 1 
AC1009
 9 
$EXTMIN
 10 
 0 
 20 
 0 
 9 
$EXTMAX
 10 
 8.5 
 20 
 11 
 0 
ENDSEC
 0 
SECTION
 2 
ENTITIES
0
LINE
8
Capa 2
10
24.739100
20
51.842100
11
22.682797
21
51.693114
0
LINE
8
Capa 2
10
22.682797
20
51.693114
11
20.600990
21
51.265854
0
LINE
8
Capa 2
10
20.600990
20
51.265854
11
18.550017
21
50.589805
0
LINE
8
Capa 2
10
18.550017
20
50.589805
11
16.586212
21
49.694451
0
LINE
8
Capa 2
10
16.586212
20
49.694451
11
14.765912
21
48.609279
0
LINE
8
Capa 2
10
14.765912
20
48.609279
11
13.145453
21
47.363773
0
LINE
8
Capa 2
10
13.145453
20
47.363773
11
11.781170
21
45.987418
0
LINE
8
Capa 2
10
11.781170
20
45.987418
11
10.729400
21
44.509700
0
LINE
8
Capa 2
10
10.729400
20
44.509700
11
10.074882
21
43.031997
0
LINE
8
Capa 2
10
10.074882
20
43.031997
11
9.849915
21
41.655659
0
LINE
8
Capa 2
10
9.849915
20
41.655659
11
10.032209
21
40.410172
0
LINE
8
Capa 2
10
10.032209
20
40.410172
11
10.599476
21
39.325019
0
LINE
8
Capa 2
10
10.599476
20
39.325019
11
11.529424
21
38.429684
0
LINE
8
Capa 2
10
11.529424
20
38.429684
11
12.799766
21
37.753652
0
LINE
8
Capa 2
10
12.799766
20
37.753652
11
14.388211
21
37.326406
0
LINE
8
Capa 2
10
14.388211
20
37.326406
11
16.272470
21
37.177430
0
LINE
8
Capa 2
10
16.272470
20
37.177430
11
18.328762
21
37.326390
0
LINE
8
Capa 2
10
18.328762
20
37.326390
11
20.410565
21
37.753625
0
LINE
8
Capa 2
10
20.410565
20
37.753625
11
22.461541
21
38.429652
0
LINE
8
Capa 2
10
22.461541
20
38.429652
11
24.425356
21
39.324986
0
LINE
8
Capa 2
10
24.425356
20
39.324986
11
26.245673
21
40.410143
0
LINE
8
Capa 2
10
26.245673
20
40.410143
11
27.866155
21
41.655637
0
LINE
8
Capa 2
10
27.866155
20
41.655637
11
29.230466
21
43.031984
0
LINE
8
Capa 2
10
29.230466
20
43.031984
11
30.282270
21
44.509700
0
LINE
8
Capa 2
10
30.282270
20
44.509700
11
30.922444
21
45.946866
0
LINE
8
Capa 2
10
30.922444
20
45.946866
11
31.158145
21
47.315700
0
LINE
8
Capa 2
10
31.158145
20
47.315700
11
30.988408
21
48.577737
0
LINE
8
Capa 2
10
30.988408
20
48.577737
11
30.412269
21
49.694511
0
LINE
8
Capa 2
10
30.412269
20
49.694511
11
29.451906
21
50.610193
0
LINE
8
Capa 2
10
29.451906
20
50.610193
11
28.158198
21
51.283974
0
LINE
8
Capa 2
10
28.158198
20
51.283974
11
26.573233
21
51.699920
0
LINE
8
Capa 2
10
26.573233
20
51.699920
11
24.739100
21
51.842100
0
LINE
8
Capa 2
10
24.739100
20
51.842100
11
24.739100
21
51.842100
0
LINE
8
Capa 2
10
24.033515
20
50.619990
11
25.561938
21
50.501500
0
LINE
8
Capa 2
10
25.561938
20
50.501500
11
26.882725
21
50.154875
0
LINE
8
Capa 2
10
26.882725
20
50.154875
11
27.960802
21
49.593393
0
LINE
8
Capa 2
10
27.960802
20
49.593393
11
28.761096
21
48.830332
0
LINE
8
Capa 2
10
28.761096
20
48.830332
11
29.241211
21
47.899696
0
LINE
8
Capa 2
10
29.241211
20
47.899696
11
29.382664
21
46.848009
0
LINE
8
Capa 2
10
29.382664
20
46.848009
11
29.186259
21
45.707326
0
LINE
8
Capa 2
10
29.186259
20
45.707326
11
28.652800
21
44.509700
0
LINE
8
Capa 2
10
28.652800
20
44.509700
11
27.776315
21
43.278264
0
LINE
8
Capa 2
10
27.776315
20
43.278264
11
26.639403
21
42.131301
0
LINE
8
Capa 2
10
26.639403
20
42.131301
11
25.289011
21
41.093380
0
LINE
8
Capa 2
10
25.289011
20
41.093380
11
23.772086
21
40.189073
0
LINE
8
Capa 2
10
23.772086
20
40.189073
11
22.135576
21
39.442950
0
LINE
8
Capa 2
10
22.135576
20
39.442950
11
20.426426
21
38.879583
0
LINE
8
Capa 2
10
20.426426
20
38.879583
11
18.691585
21
38.523543
0
LINE
8
Capa 2
10
18.691585
20
38.523543
11
16.978000
21
38.399400
0
LINE
8
Capa 2
10
16.978000
20
38.399400
11
15.449570
21
38.517888
0
LINE
8
Capa 2
10
15.449570
20
38.517888
11
14.128779
21
38.864511
0
LINE
8
Capa 2
10
14.128779
20
38.864511
11
13.050697
21
39.425993
0
LINE
8
Capa 2
10
13.050697
20
39.425993
11
12.250399
21
40.189057
0
LINE
8
Capa 2
10
12.250399
20
40.189057
11
11.770283
21
41.119695
0
LINE
8
Capa 2
10
11.770283
20
41.119695
11
11.628830
21
42.171384
0
LINE
8
Capa 2
10
11.628830
20
42.171384
11
11.825237
21
43.312070
0
LINE
8
Capa 2
10
11.825237
20
43.312070
11
12.358700
21
44.509700
0
LINE
8
Capa 2
10
12.358700
20
44.509700
11
13.208143
21
45.707333
0
LINE
8
Capa 2
10
13.208143
20
45.707333
11
14.328890
21
46.848023
0
LINE
8
Capa 2
10
14.328890
20
46.848023
11
15.684734
21
47.899714
0
LINE
8
Capa 2
10
15.684734
20
47.899714
11
17.239464
21
48.830354
0
LINE
8
Capa 2
10
17.239464
20
48.830354
11
18.920878
21
49.593417
0
LINE
8
Capa 2
10
18.920878
20
49.593417
11
20.647308
21
50.154897
0
LINE
8
Capa 2
10
20.647308
20
50.154897
11
22.368350
21
50.501517
0
LINE
8
Capa 2
10
22.368350
20
50.501517
11
24.033600
21
50.620000
0
LINE
8
Capa 2
10
24.033600
20
50.620000
11
24.033515
21
50.619990
0
LINE
8
Capa 2
10
15.065900
20
55.642000
11
13.765320
21
55.853367
0
LINE
8
Capa 2
10
13.765320
20
55.853367
11
12.629763
21
56.215427
0
LINE
8
Capa 2
10
12.629763
20
56.215427
11
11.670234
21
56.716932
0
LINE
8
Capa 2
10
11.670234
20
56.716932
11
10.897737
21
57.346639
0
LINE
8
Capa 2
10
10.897737
20
57.346639
11
10.323280
21
58.093301
0
LINE
8
Capa 2
10
10.323280
20
58.093301
11
9.957866
21
58.945672
0
LINE
8
Capa 2
10
9.957866
20
58.945672
11
9.812501
21
59.892507
0
LINE
8
Capa 2
10
9.812501
20
59.892507
11
9.898190
21
60.922560
0
LINE
8
Capa 2
10
9.898190
20
60.922560
11
10.181935
21
61.878171
0
LINE
8
Capa 2
10
10.181935
20
61.878171
11
10.702625
21
62.923200
0
LINE
8
Capa 2
10
10.702625
20
62.923200
11
11.426778
21
64.002250
0
LINE
8
Capa 2
10
11.426778
20
64.002250
11
12.319597
21
65.026843
0
LINE
8
Capa 2
10
12.319597
20
65.026843
11
14.638125
21
66.940120
0
LINE
8
Capa 2
10
14.638125
20
66.940120
11
16.916480
21
68.276162
0
LINE
8
Capa 2
10
16.916480
20
68.276162
11
19.335654
21
69.284714
0
LINE
8
Capa 2
10
19.335654
20
69.284714
11
21.816498
21
69.938919
0
LINE
8
Capa 2
10
21.816498
20
69.938919
11
24.279865
21
70.211920
0
LINE
8
Capa 2
10
24.279865
20
70.211920
11
25.975844
21
70.149060
0
LINE
8
Capa 2
10
25.975844
20
70.149060
11
27.462837
21
69.863738
0
LINE
8
Capa 2
10
27.462837
20
69.863738
11
28.720613
21
69.373603
0
LINE
8
Capa 2
10
28.720613
20
69.373603
11
29.728944
21
68.696303
0
LINE
8
Capa 2
10
29.728944
20
68.696303
11
30.467600
21
67.849487
0
LINE
8
Capa 2
10
30.467600
20
67.849487
11
30.916354
21
66.850802
0
LINE
8
Capa 2
10
30.916354
20
66.850802
11
31.054975
21
65.717897
0
LINE
8
Capa 2
10
31.054975
20
65.717897
11
30.863235
21
64.468420
0
LINE
8
Capa 2
10
30.863235
20
64.468420
11
30.179817
21
62.913709
0
LINE
8
Capa 2
10
30.179817
20
62.913709
11
29.048615
21
61.328800
0
LINE
8
Capa 2
10
29.048615
20
61.328800
11
27.419541
21
59.766804
0
LINE
8
Capa 2
10
27.419541
20
59.766804
11
25.423905
21
58.343610
0
LINE
8
Capa 2
10
25.423905
20
58.343610
11
23.503812
21
57.321522
0
LINE
8
Capa 2
10
23.503812
20
57.321522
11
21.472478
21
56.514360
0
LINE
8
Capa 2
10
21.472478
20
56.514360
11
19.400489
21
55.945788
0
LINE
8
Capa 2
10
19.400489
20
55.945788
11
17.358435
21
55.639470
0
LINE
8
Capa 2
10
17.358435
20
55.639470
11
15.065965
21
55.642010
0
LINE
8
Capa 2
10
15.065965
20
55.642010
11
15.065900
21
55.642000
0
LINE
8
Capa 2
10
18.216170
20
56.858720
11
20.363235
21
57.271715
0
LINE
8
Capa 2
10
20.363235
20
57.271715
11
22.457907
21
57.987555
0
LINE
8
Capa 2
10
22.457907
20
57.987555
11
24.426133
21
58.975193
0
LINE
8
Capa 2
10
24.426133
20
58.975193
11
26.193860
21
60.203580
0
LINE
8
Capa 2
10
26.193860
20
60.203580
11
27.658935
21
61.605302
0
LINE
8
Capa 2
10
27.658935
20
61.605302
11
28.690030
21
63.107740
0
LINE
8
Capa 2
10
28.690030
20
63.107740
11
29.218287
21
64.429320
0
LINE
8
Capa 2
10
29.218287
20
64.429320
11
29.328366
21
65.248142
0
LINE
8
Capa 2
10
29.328366
20
65.248142
11
29.263244
21
66.008648
0
LINE
8
Capa 2
10
29.263244
20
66.008648
11
29.029512
21
66.702785
0
LINE
8
Capa 2
10
29.029512
20
66.702785
11
28.633763
21
67.322496
0
LINE
8
Capa 2
10
28.633763
20
67.322496
11
28.082589
21
67.859729
0
LINE
8
Capa 2
10
28.082589
20
67.859729
11
27.382581
21
68.306429
0
LINE
8
Capa 2
10
27.382581
20
68.306429
11
25.562437
21
68.896010
0
LINE
8
Capa 2
10
25.562437
20
68.896010
11
23.700663
21
69.024463
0
LINE
8
Capa 2
10
23.700663
20
69.024463
11
21.663692
21
68.803453
0
LINE
8
Capa 2
10
21.663692
20
68.803453
11
19.551579
21
68.251616
0
LINE
8
Capa 2
10
19.551579
20
68.251616
11
17.464377
21
67.387590
0
LINE
8
Capa 2
10
17.464377
20
67.387590
11
15.055792
21
65.906920
0
LINE
8
Capa 2
10
15.055792
20
65.906920
11
13.116497
21
64.103460
0
LINE
8
Capa 2
10
13.116497
20
64.103460
11
12.312091
21
62.907580
0
LINE
8
Capa 2
10
12.312091
20
62.907580
11
11.736666
21
61.715130
0
LINE
8
Capa 2
10
11.736666
20
61.715130
11
11.557112
21
60.200845
0
LINE
8
Capa 2
10
11.557112
20
60.200845
11
11.680796
21
59.524544
0
LINE
8
Capa 2
10
11.680796
20
59.524544
11
11.943035
21
58.908764
0
LINE
8
Capa 2
10
11.943035
20
58.908764
11
12.871921
21
57.878648
0
LINE
8
Capa 2
10
12.871921
20
57.878648
11
14.321256
21
57.150260
0
LINE
8
Capa 2
10
14.321256
20
57.150260
11
15.813236
21
56.846770
0
LINE
8
Capa 2
10
15.813236
20
56.846770
11
16.264493
21
56.798160
0
LINE
8
Capa 2
10
16.264493
20
56.798160
11
18.216163
21
56.858725
0
LINE
8
Capa 2
10
18.216163
20
56.858725
11
18.216170
21
56.858720
0
LINE
8
Capa 2
10
15.008600
20
59.264300
11
13.708020
21
59.475667
0
LINE
8
Capa 2
10
13.708020
20
59.475667
11
12.572463
21
59.837727
0
LINE
8
Capa 2
10
12.572463
20
59.837727
11
11.612934
21
60.339232
0
LINE
8
Capa 2
10
11.612934
20
60.339232
11
10.840439
21
60.968939
0
LINE
8
Capa 2
10
10.840439
20
60.968939
11
10.265982
21
61.715601
0
LINE
8
Capa 2
10
10.265982
20
61.715601
11
9.900570
21
62.567972
0
LINE
8
Capa 2
10
9.900570
20
62.567972
11
9.755207
21
63.514807
0
LINE
8
Capa 2
10
9.755207
20
63.514807
11
9.840900
21
64.544860
0
LINE
8
Capa 2
10
9.840900
20
64.544860
11
10.124645
21
65.500471
0
LINE
8
Capa 2
10
10.124645
20
65.500471
11
10.645335
21
66.545500
0
LINE
8
Capa 2
10
10.645335
20
66.545500
11
11.369488
21
67.624550
0
LINE
8
Capa 2
10
11.369488
20
67.624550
11
12.262307
21
68.649144
0
LINE
8
Capa 2
10
12.262307
20
68.649144
11
14.580835
21
70.562430
0
LINE
8
Capa 2
10
14.580835
20
70.562430
11
16.859190
21
71.898472
0
LINE
8
Capa 2
10
16.859190
20
71.898472
11
19.278364
21
72.907024
0
LINE
8
Capa 2
10
19.278364
20
72.907024
11
21.759208
21
73.561229
0
LINE
8
Capa 2
10
21.759208
20
73.561229
11
24.222575
21
73.834230
0
LINE
8
Capa 2
10
24.222575
20
73.834230
11
25.918555
21
73.771370
0
LINE
8
Capa 2
10
25.918555
20
73.771370
11
27.405548
21
73.486048
0
LINE
8
Capa 2
10
27.405548
20
73.486048
11
28.663326
21
72.995912
0
LINE
8
Capa 2
10
28.663326
20
72.995912
11
29.671659
21
72.318612
0
LINE
8
Capa 2
10
29.671659
20
72.318612
11
30.410317
21
71.471794
0
LINE
8
Capa 2
10
30.410317
20
71.471794
11
30.859072
21
70.473108
0
LINE
8
Capa 2
10
30.859072
20
70.473108
11
30.997695
21
69.340200
0
LINE
8
Capa 2
10
30.997695
20
69.340200
11
30.805955
21
68.090720
0
LINE
8
Capa 2
10
30.805955
20
68.090720
11
30.122536
21
66.536009
0
LINE
8
Capa 2
10
30.122536
20
66.536009
11
28.991335
21
64.951100
0
LINE
8
Capa 2
10
28.991335
20
64.951100
11
27.362259
21
63.389104
0
LINE
8
Capa 2
10
27.362259
20
63.389104
11
25.366625
21
61.965910
0
LINE
8
Capa 2
10
25.366625
20
61.965910
11
23.446532
21
60.943822
0
LINE
8
Capa 2
10
23.446532
20
60.943822
11
21.415197
21
60.136660
0
LINE
8
Capa 2
10
21.415197
20
60.136660
11
19.343209
21
59.568088
0
LINE
8
Capa 2
10
19.343209
20
59.568088
11
17.301155
21
59.261770
0
LINE
8
Capa 2
10
17.301155
20
59.261770
11
15.008685
21
59.264310
0
LINE
8
Capa 2
10
15.008685
20
59.264310
11
15.008600
21
59.264300
0
LINE
8
Capa 2
10
18.158870
20
60.481020
11
20.305935
21
60.894015
0
LINE
8
Capa 2
10
20.305935
20
60.894015
11
22.400607
21
61.609855
0
LINE
8
Capa 2
10
22.400607
20
61.609855
11
24.368833
21
62.597493
0
LINE
8
Capa 2
10
24.368833
20
62.597493
11
26.136560
21
63.825880
0
LINE
8
Capa 2
10
26.136560
20
63.825880
11
27.601636
21
65.227602
0
LINE
8
Capa 2
10
27.601636
20
65.227602
11
28.632740
21
66.730040
0
LINE
8
Capa 2
10
28.632740
20
66.730040
11
29.160997
21
68.051620
0
LINE
8
Capa 2
10
29.160997
20
68.051620
11
29.271076
21
68.870445
0
LINE
8
Capa 2
10
29.271076
20
68.870445
11
29.205954
21
69.630954
0
LINE
8
Capa 2
10
29.205954
20
69.630954
11
28.972221
21
70.325092
0
LINE
8
Capa 2
10
28.972221
20
70.325092
11
28.576472
21
70.944805
0
LINE
8
Capa 2
10
28.576472
20
70.944805
11
28.025297
21
71.482039
0
LINE
8
Capa 2
10
28.025297
20
71.482039
11
27.325290
21
71.928738
0
LINE
8
Capa 2
10
27.325290
20
71.928738
11
25.505147
21
72.518320
0
LINE
8
Capa 2
10
25.505147
20
72.518320
11
23.643373
21
72.646773
0
LINE
8
Capa 2
10
23.643373
20
72.646773
11
21.606402
21
72.425763
0
LINE
8
Capa 2
10
21.606402
20
72.425763
11
19.494289
21
71.873926
0
LINE
8
Capa 2
10
19.494289
20
71.873926
11
17.407087
21
71.009900
0
LINE
8
Capa 2
10
17.407087
20
71.009900
11
14.998502
21
69.529226
0
LINE
8
Capa 2
10
14.998502
20
69.529226
11
13.059207
21
67.725760
0
LINE
8
Capa 2
10
13.059207
20
67.725760
11
12.254801
21
66.529870
0
LINE
8
Capa 2
10
12.254801
20
66.529870
11
11.679376
21
65.337420
0
LINE
8
Capa 2
10
11.679376
20
65.337420
11
11.499822
21
63.823135
0
LINE
8
Capa 2
10
11.499822
20
63.823135
11
11.623506
21
63.146834
0
LINE
8
Capa 2
10
11.623506
20
63.146834
11
11.885745
21
62.531054
0
LINE
8
Capa 2
10
11.885745
20
62.531054
11
12.814631
21
61.500938
0
LINE
8
Capa 2
10
12.814631
20
61.500938
11
14.263966
21
60.772550
0
LINE
8
Capa 2
10
14.263966
20
60.772550
11
15.755946
21
60.469060
0
LINE
8
Capa 2
10
15.755946
20
60.469060
11
16.207203
21
60.420450
0
LINE
8
Capa 2
10
16.207203
20
60.420450
11
18.158873
21
60.481015
0
LINE
8
Capa 2
10
18.158873
20
60.481015
11
18.158870
21
60.481020
0
LINE
8
Capa 4
10
15.008600
20
51.954100
11
13.708009
21
52.165489
0
LINE
8
Capa 4
10
13.708009
20
52.165489
11
12.572446
21
52.527559
0
LINE
8
Capa 4
10
12.572446
20
52.527559
11
11.612917
21
53.029069
0
LINE
8
Capa 4
10
11.612917
20
53.029069
11
10.840424
21
53.658775
0
LINE
8
Capa 4
10
10.840424
20
53.658775
11
10.265972
21
54.405434
0
LINE
8
Capa 4
10
10.265972
20
54.405434
11
9.900564
21
55.257803
0
LINE
8
Capa 4
10
9.900564
20
55.257803
11
9.755206
21
56.204639
0
LINE
8
Capa 4
10
9.755206
20
56.204639
11
9.840900
21
57.234700
0
LINE
8
Capa 4
10
9.840900
20
57.234700
11
10.124645
21
58.190311
0
LINE
8
Capa 4
10
10.124645
20
58.190311
11
10.645335
21
59.235340
0
LINE
8
Capa 4
10
10.645335
20
59.235340
11
11.369488
21
60.314390
0
LINE
8
Capa 4
10
11.369488
20
60.314390
11
12.262307
21
61.338984
0
LINE
8
Capa 4
10
12.262307
20
61.338984
11
14.580835
21
63.252270
0
LINE
8
Capa 4
10
14.580835
20
63.252270
11
16.859190
21
64.588312
0
LINE
8
Capa 4
10
16.859190
20
64.588312
11
19.278364
21
65.596864
0
LINE
8
Capa 4
10
19.278364
20
65.596864
11
21.759208
21
66.251069
0
LINE
8
Capa 4
10
21.759208
20
66.251069
11
24.222575
21
66.524070
0
LINE
8
Capa 4
10
24.222575
20
66.524070
11
25.918555
21
66.461210
0
LINE
8
Capa 4
10
25.918555
20
66.461210
11
27.405548
21
66.175888
0
LINE
8
Capa 4
10
27.405548
20
66.175888
11
28.663326
21
65.685752
0
LINE
8
Capa 4
10
28.663326
20
65.685752
11
29.671659
21
65.008452
0
LINE
8
Capa 4
10
29.671659
20
65.008452
11
30.410317
21
64.161634
0
LINE
8
Capa 4
10
30.410317
20
64.161634
11
30.859072
21
63.162948
0
LINE
8
Capa 4
10
30.859072
20
63.162948
11
30.997695
21
62.030040
0
LINE
8
Capa 4
10
30.997695
20
62.030040
11
30.805955
21
60.780560
0
LINE
8
Capa 4
10
30.805955
20
60.780560
11
30.122536
21
59.225849
0
LINE
8
Capa 4
10
30.122536
20
59.225849
11
28.991335
21
57.640940
0
LINE
8
Capa 4
10
28.991335
20
57.640940
11
27.362259
21
56.078944
0
LINE
8
Capa 4
10
27.362259
20
56.078944
11
25.366625
21
54.655750
0
LINE
8
Capa 4
10
25.366625
20
54.655750
11
23.446532
21
53.633662
0
LINE
8
Capa 4
10
23.446532
20
53.633662
11
21.415197
21
52.826500
0
LINE
8
Capa 4
10
21.415197
20
52.826500
11
19.343209
21
52.257928
0
LINE
8
Capa 4
10
19.343209
20
52.257928
11
17.301155
21
51.951610
0
LINE
8
Capa 4
10
17.301155
20
51.951610
11
15.008685
21
51.954150
0
LINE
8
Capa 4
10
15.008685
20
51.954150
11
15.008600
21
51.954100
0
LINE
8
Capa 4
10
18.158870
20
53.170820
11
20.305935
21
53.583815
0
LINE
8
Capa 4
10
20.305935
20
53.583815
11
22.400607
21
54.299655
0
LINE
8
Capa 4
10
22.400607
20
54.299655
11
24.368833
21
55.287293
0
LINE
8
Capa 4
10
24.368833
20
55.287293
11
26.136560
21
56.515680
0
LINE
8
Capa 4
10
26.136560
20
56.515680
11
27.601636
21
57.917402
0
LINE
8
Capa 4
10
27.601636
20
57.917402
11
28.632740
21
59.419840
0
LINE
8
Capa 4
10
28.632740
20
59.419840
11
29.160997
21
60.741420
0
LINE
8
Capa 4
10
29.160997
20
60.741420
11
29.271076
21
61.560245
0
LINE
8
Capa 4
10
29.271076
20
61.560245
11
29.205954
21
62.320754
0
LINE
8
Capa 4
10
29.205954
20
62.320754
11
28.972221
21
63.014892
0
LINE
8
Capa 4
10
28.972221
20
63.014892
11
28.576472
21
63.634605
0
LINE
8
Capa 4
10
28.576472
20
63.634605
11
28.025297
21
64.171839
0
LINE
8
Capa 4
10
28.025297
20
64.171839
11
27.325290
21
64.618538
0
LINE
8
Capa 4
10
27.325290
20
64.618538
11
25.505147
21
65.208120
0
LINE
8
Capa 4
10
25.505147
20
65.208120
11
23.643373
21
65.336573
0
LINE
8
Capa 4
10
23.643373
20
65.336573
11
21.606402
21
65.115563
0
LINE
8
Capa 4
10
21.606402
20
65.115563
11
19.494289
21
64.563726
0
LINE
8
Capa 4
10
19.494289
20
64.563726
11
17.407087
21
63.699700
0
LINE
8
Capa 4
10
17.407087
20
63.699700
11
14.998506
21
62.219026
0
LINE
8
Capa 4
10
14.998506
20
62.219026
11
13.059207
21
60.415560
0
LINE
8
Capa 4
10
13.059207
20
60.415560
11
12.254801
21
59.219680
0
LINE
8
Capa 4
10
12.254801
20
59.219680
11
11.679376
21
58.027230
0
LINE
8
Capa 4
10
11.679376
20
58.027230
11
11.499822
21
56.512945
0
LINE
8
Capa 4
10
11.499822
20
56.512945
11
11.623506
21
55.836644
0
LINE
8
Capa 4
10
11.623506
20
55.836644
11
11.885745
21
55.220864
0
LINE
8
Capa 4
10
11.885745
20
55.220864
11
12.814631
21
54.190748
0
LINE
8
Capa 4
10
12.814631
20
54.190748
11
14.263966
21
53.462360
0
LINE
8
Capa 4
10
14.263966
20
53.462360
11
15.755946
21
53.158870
0
LINE
8
Capa 4
10
15.755946
20
53.158870
11
16.207202
21
53.110260
0
LINE
8
Capa 4
10
16.207202
20
53.110260
11
18.158872
21
53.170825
0
LINE
8
Capa 4
10
18.158872
20
53.170825
11
18.158870
21
53.170820
 0 
ENDSEC
 0 
EOF