0
SECTION
2
HEADER
9
$INSUNITS
70
4
9
$ACADVER
1
AC1014
9
$HANDSEED
5
FFFF
0
ENDSEC
0
SECTION
2
TABLES
0
TABLE
2
VPORT
5
8
100
AcDbSymbolTable
0
ENDTAB
0
TABLE
2
LTYPE
5
5
100
AcDbSymbolTable
0
LTYPE
5
14
100
AcDbSymbolTableRecord
100
AcDbLinetypeTableRecord
2
BYBLOCK
70
0
0
LTYPE
5
15
100
AcDbSymbolTableRecord
100
AcDbLinetypeTableRecord
2
BYLAYER
70
0
0
ENDTAB
0
TABLE
2
LAYER
5
2
100
AcDbSymbolTable
70
2
0
LAYER
5
50
100
AcDbSymbolTableRecord
100
AcDbLayerTableRecord
2
0
70
0
6
CONTINUOUS
0
ENDTAB
0
TABLE
2
STYLE
5
3
100
AcDbSymbolTable
70
1
0
STYLE
5
11
100
AcDbSymbolTableRecord
100
AcDbTextStyleTableRecord
2
STANDARD
70
0
0
ENDTAB
0
TABLE
2
VIEW
5
6
100
AcDbSymbolTable
70
0
0
ENDTAB
0
TABLE
2
UCS
5
7
100
AcDbSymbolTable
70
0
0
ENDTAB
0
TABLE
2
APPID
5
9
100
AcDbSymbolTable
70
2
0
APPID
5
12
100
AcDbSymbolTableRecord
100
AcDbRegAppTableRecord
2
ACAD
70
0
0
ENDTAB
0
TABLE
2
DIMSTYLE
5
A
100
AcDbSymbolTable
70
1
0
ENDTAB
0
TABLE
2
BLOCK_RECORD
5
1
100
AcDbSymbolTable
70
1
0
BLOCK_RECORD
5
1F
100
AcDbSymbolTableRecord
100
AcDbBlockTableRecord
2
*MODEL_SPACE
0
BLOCK_RECORD
5
1B
100
AcDbSymbolTableRecord
100
AcDbBlockTableRecord
2
*PAPER_SPACE
0
ENDTAB
0
ENDSEC
0
SECTION
2
BLOCKS
0
BLOCK
5
20
100
AcDbEntity
100
AcDbBlockBegin
2
*MODEL_SPACE
0
ENDBLK
5
21
100
AcDbEntity
100
AcDbBlockEnd
0
BLOCK
5
1C
100
AcDbEntity
100
AcDbBlockBegin
2
*PAPER_SPACE
0
ENDBLK
5
1D
100
AcDbEntity
100
AcDbBlockEnd
0
ENDSEC
0
SECTION
2
ENTITIES
0
LWPOLYLINE
5
100
100
AcDbEntity
8
0
100
AcDbPolyline
90
22
70
1
43
0.0
10
1438.2759941929191
20
583.57946232068332
10
1438.2759941929189
20
340.9995226090482
10
1438.2759941929189
20
98.41958289741315
42
-0.20700073018099946
10
1436.6999781417912
20
94.775912506465858
10
1397.987766291064
20
58.397761416963199
42
-0.42641437813538197
10
1390.7812737836975
20
58.771473244730871
10
1382.0585027514144
20
68.861495930318881
42
0.45737938462433669
10
1374.4934856344232
20
68.861495930319109
10
1365.6271356211264
20
58.605388961395505
42
-0.42753012098631771
10
1358.4069133978041
20
58.244627932170808
10
1319.8382805280912
20
94.762985485133854
42
-0.20601678406642535
10
1318.2759941929189
20
98.393705077536495
10
1318.2759941929189
20
340.9995226090482
10
1318.2759941929185
20
583.60534014055986
42
-0.2060167840664382
10
1319.8382805280912
20
587.23605973296287
10
1358.4069133978032
20
623.75441728592602
42
-0.42753012098635079
10
1365.6271356211269
20
623.39365625670132
10
1374.493485634423
20
613.13754928777735
42
0.45737938462434502
10
1382.0585027514144
20
613.13754928777757
10
1390.7812737836966
20
623.22757197336603
42
-0.42641437813541949
10
1397.9877662910649
20
623.60128380113349
10
1436.6999781417915
20
587.22313271163091
42
-0.20700073018100801
0
CIRCLE
5
101
100
AcDbEntity
8
0
100
AcDbCircle
10
1360.262543175995
20
619.49952260904763
30
-1.7763568394002505e-14
40
1.5000000000000571
210
9.280770596475918e-17
220
0
230
1
0
CIRCLE
5
102
100
AcDbEntity
8
0
100
AcDbCircle
10
1396.2625431760011
20
619.49952260904763
30
-8.8817841970012523e-15
40
1.5000000000000571
210
9.280770596475918e-17
220
0
230
1
0
CIRCLE
5
103
100
AcDbEntity
8
0
100
AcDbCircle
10
1360.262543175995
20
62.500000000000554
30
-1.7763568394002505e-14
40
1.5000000000000571
210
9.280770596475918e-17
220
0
230
1
0
CIRCLE
5
104
100
AcDbEntity
8
0
100
AcDbCircle
10
1396.2625431760014
20
62.500000000000561
30
-8.8817841970012523e-15
40
1.5000000000000571
210
9.280770596475918e-17
220
0
230
1
0
CIRCLE
5
105
100
AcDbEntity
8
0
100
AcDbCircle
10
1360.262543175995
20
619.49952260904763
30
-8.8817841970012523e-15
40
1.5000000000000571
210
0
220
-0
230
1
0
CIRCLE
5
106
100
AcDbEntity
8
0
100
AcDbCircle
10
1396.2625431760011
20
619.49952260904763
30
0
40
1.5000000000000571
210
0
220
-0
230
1
0
CIRCLE
5
107
100
AcDbEntity
8
0
100
AcDbCircle
10
1360.262543175995
20
62.500000000000554
30
-8.8817841970012523e-15
40
1.5000000000000571
210
0
220
-0
230
1
0
CIRCLE
5
108
100
AcDbEntity
8
0
100
AcDbCircle
10
1396.2625431760014
20
62.500000000000561
30
0
40
1.5000000000000571
210
0
220
-0
230
1
0
LWPOLYLINE
5
109
100
AcDbEntity
8
0
100
AcDbPolyline
90
22
70
1
43
0.0
10
1438.2759941929191
20
583.57946232068332
10
1438.2759941929189
20
340.9995226090482
10
1438.2759941929189
20
98.419582897413022
42
-0.20700073018100373
10
1436.6999781417912
20
94.775912506465858
10
1397.987766291064
20
58.397761416962894
42
-0.42641437813537963
10
1390.7812737836971
20
58.771473244730871
10
1382.0585027514144
20
68.861495930318895
42
0.45737938462435579
10
1374.4934856344232
20
68.861495930319109
10
1365.6271356211259
20
58.60538896139532
42
-0.42753012098630355
10
1358.4069133978041
20
58.244627932170808
10
1319.8382805280912
20
94.762985485133711
42
-0.20601678406643611
10
1318.2759941929189
20
98.393705077536495
10
1318.2759941929189
20
340.9995226090482
10
1318.2759941929185
20
583.60534014055975
42
-0.20601678406642882
10
1319.8382805280912
20
587.23605973296287
10
1358.4069133978032
20
623.7544172859258
42
-0.427530120986363
10
1365.6271356211269
20
623.39365625670132
10
1374.493485634423
20
613.13754928777735
42
0.45737938462435629
10
1382.0585027514148
20
613.13754928777757
10
1390.7812737836962
20
623.22757197336614
42
-0.42641437813546945
10
1397.9877662910649
20
623.60128380113349
10
1436.6999781417915
20
587.22313271163068
42
-0.20700073018100801
0
ENDSEC
0
SECTION
2
OBJECTS
0
DICTIONARY
5
C
100
AcDbDictionary
3
ACAD_GROUP
350
D
3
ACAD_MLINESTYLE
350
17
0
DICTIONARY
5
D
100
AcDbDictionary
0
DICTIONARY
5
1A
330
C
100
AcDbDictionary
0
DICTIONARY
5
17
100
AcDbDictionary
0
ENDSEC
0
EOF
