0
SECTION
2
HEADER
9
$INSUNITS
70
4
9
$ACADVER
1
AC1014
9
$HANDSEED
5
FFFF
0
ENDSEC
0
SECTION
2
TABLES
0
TABLE
2
VPORT
5
8
100
AcDbSymbolTable
0
ENDTAB
0
TABLE
2
LTYPE
5
5
100
AcDbSymbolTable
0
LTYPE
5
14
100
AcDbSymbolTableRecord
100
AcDbLinetypeTableRecord
2
BYBLOCK
70
0
0
LTYPE
5
15
100
AcDbSymbolTableRecord
100
AcDbLinetypeTableRecord
2
BYLAYER
70
0
0
ENDTAB
0
TABLE
2
LAYER
5
2
100
AcDbSymbolTable
70
2
0
LAYER
5
50
100
AcDbSymbolTableRecord
100
AcDbLayerTableRecord
2
0
70
0
6
CONTINUOUS
0
ENDTAB
0
TABLE
2
STYLE
5
3
100
AcDbSymbolTable
70
1
0
STYLE
5
11
100
AcDbSymbolTableRecord
100
AcDbTextStyleTableRecord
2
STANDARD
70
0
0
ENDTAB
0
TABLE
2
VIEW
5
6
100
AcDbSymbolTable
70
0
0
ENDTAB
0
TABLE
2
UCS
5
7
100
AcDbSymbolTable
70
0
0
ENDTAB
0
TABLE
2
APPID
5
9
100
AcDbSymbolTable
70
2
0
APPID
5
12
100
AcDbSymbolTableRecord
100
AcDbRegAppTableRecord
2
ACAD
70
0
0
ENDTAB
0
TABLE
2
DIMSTYLE
5
A
100
AcDbSymbolTable
70
1
0
ENDTAB
0
TABLE
2
BLOCK_RECORD
5
1
100
AcDbSymbolTable
70
1
0
BLOCK_RECORD
5
1F
100
AcDbSymbolTableRecord
100
AcDbBlockTableRecord
2
*MODEL_SPACE
0
BLOCK_RECORD
5
1B
100
AcDbSymbolTableRecord
100
AcDbBlockTableRecord
2
*PAPER_SPACE
0
ENDTAB
0
ENDSEC
0
SECTION
2
BLOCKS
0
BLOCK
5
20
100
AcDbEntity
100
AcDbBlockBegin
2
*MODEL_SPACE
0
ENDBLK
5
21
100
AcDbEntity
100
AcDbBlockEnd
0
BLOCK
5
1C
100
AcDbEntity
100
AcDbBlockBegin
2
*PAPER_SPACE
0
ENDBLK
5
1D
100
AcDbEntity
100
AcDbBlockEnd
0
ENDSEC
0
SECTION
2
ENTITIES
0
LWPOLYLINE
5
100
100
AcDbEntity
8
0
100
AcDbPolyline
90
4
70
1
43
0.0
10
483.17831375177121
20
-1408.1214050781882
10
65.14772265700617
20
-1408.1210687902342
10
65.128395730928261
20
-1358.121022142906
10
483.15898682569343
20
-1358.1213584308603
0
ELLIPSE
5
101
100
AcDbEntity
8
0
100
AcDbEllipse
10
476.67077686088487
20
-1388.6239476949218
30
-1.1102230246251565e-15
11
-0.00096634531442138538
21
2.4999997725692298
31
0.0
40
0.99999999995536593
41
0
42
6.2831853071795862
0
ELLIPSE
5
102
100
AcDbEntity
8
0
100
AcDbEllipse
10
476.66652492174393
20
-1377.6238975818474
30
-1.1102230246251565e-15
11
-0.00096634531442141281
21
2.4999997725693008
31
0.0
40
0.99999999995536593
41
0
42
6.2831853071795862
0
ELLIPSE
5
103
100
AcDbEntity
8
0
100
AcDbEllipse
10
476.67078463587819
20
-1388.6239703448141
30
0
11
-0.00096634533018342982
21
2.4999998133468107
31
0.0
40
0.99999999995536593
41
0
42
6.2831853071795862
0
ELLIPSE
5
104
100
AcDbEntity
8
0
100
AcDbEllipse
10
476.6665326966679
20
-1377.6239200523171
30
0
11
-0.00096634533018345725
21
2.4999998133468817
31
0.0
40
0.99999999995536593
41
0
42
6.2831853071795862
0
LINE
5
105
100
AcDbEntity
8
0
100
AcDbLine
10
65.147723719633007
20
-1408.1210917581448
30
0
11
483.17832163290927
21
-1408.1214280461043
31
0
0
LINE
5
106
100
AcDbEntity
8
0
100
AcDbLine
10
483.17832163290927
20
-1408.1214280461043
30
0
11
483.15899470651618
21
-1358.1213805832235
31
0
0
LINE
5
107
100
AcDbEntity
8
0
100
AcDbLine
10
483.15899470651618
20
-1358.1213805832235
30
0
11
65.128396793239887
21
-1358.1210442952638
31
0
0
LINE
5
108
100
AcDbEntity
8
0
100
AcDbLine
10
65.128396793239887
20
-1358.1210442952638
30
0
11
65.147723719633007
21
-1408.1210917581448
31
0
0
ELLIPSE
5
109
100
AcDbEntity
8
0
100
AcDbEllipse
10
71.640185740469775
20
-1388.6185807174979
30
0
11
-2.4999998132352257
21
-0.00096634533014022849
31
0.0
40
0.99999999995536604
41
0
42
6.2831853071795862
0
ELLIPSE
5
110
100
AcDbEntity
8
0
100
AcDbEllipse
10
71.635933801259853
20
-1377.6185304259834
30
0
11
-2.4999998132352967
21
-0.00096634533014025603
31
0.0
40
0.99999999995536604
41
0
42
6.2831853071795862
0
LINE
5
111
100
AcDbEntity
8
0
100
AcDbLine
10
65.143858338312413
20
-1398.1210925052483
30
0
11
65.144051607378458
21
-1398.6210924678508
31
0
0
LINE
5
112
100
AcDbEntity
8
0
100
AcDbLine
10
65.144051607378458
20
-1398.6210924678508
30
0
11
78.144050636202095
21
-1398.6160674721345
31
0
0
LINE
5
113
100
AcDbEntity
8
0
100
AcDbLine
10
78.144050636202095
20
-1398.6160674721345
30
0
11
78.143857367135837
21
-1398.1160675095314
31
0
0
LINE
5
114
100
AcDbEntity
8
0
100
AcDbLine
10
78.143857367135837
20
-1398.1160675095314
30
0
11
78.132067934351412
21
-1367.6160186756288
31
0
0
LINE
5
115
100
AcDbEntity
8
0
100
AcDbLine
10
78.132067934351412
20
-1367.6160186756288
30
0
11
65.132068905527774
21
-1367.6210436713454
31
0
0
LINE
5
116
100
AcDbEntity
8
0
100
AcDbLine
10
65.132068905527774
20
-1367.6210436713454
30
0
11
65.143858338312413
21
-1398.1210925052483
31
0
0
CIRCLE
5
117
100
AcDbEntity
8
0
100
AcDbCircle
10
71.63090880550989
20
-1364.6185313118181
30
-1.1102230246251565e-15
40
2.5000000000000693
210
0
220
-0
230
1
0
LINE
5
118
100
AcDbEntity
8
0
100
AcDbLine
10
65.132064263653689
20
-1367.6090348338287
30
-1.1102230246251565e-15
11
78.132063292477355
21
-1367.6040098381118
31
-1.1102230246251565e-15
0
LINE
5
119
100
AcDbEntity
8
0
100
AcDbLine
10
78.132063292477355
20
-1367.6040098381118
30
-1.1102230246251565e-15
11
78.128395822063524
21
-1358.1160192995471
31
-1.1102230246251565e-15
0
LINE
5
120
100
AcDbEntity
8
0
100
AcDbLine
10
78.128395822063524
20
-1358.1160192995471
30
-1.1102230246251565e-15
11
65.128396793239887
21
-1358.1210442952638
31
0
0
LINE
5
121
100
AcDbEntity
8
0
100
AcDbLine
10
65.128396793239887
20
-1358.1210442952638
30
0
11
65.132064263653689
21
-1367.6090348338287
31
-1.1102230246251565e-15
0
CIRCLE
5
122
100
AcDbEntity
8
0
100
AcDbCircle
10
71.700635261058949
20
-1401.6184559259048
30
-1.1102230246251565e-15
40
2.4999999999999272
210
0
220
-0
230
1
0
LINE
5
123
100
AcDbEntity
8
0
100
AcDbLine
10
78.144050636202095
20
-1398.6160674721345
30
0
11
65.144051607378458
21
-1398.6210924678508
31
0
0
LINE
5
124
100
AcDbEntity
8
0
100
AcDbLine
10
65.144051607378458
20
-1398.6210924678508
30
0
11
65.147723719633007
21
-1408.1210917581448
31
0
0
LINE
5
125
100
AcDbEntity
8
0
100
AcDbLine
10
65.147723719633007
20
-1408.1210917581448
30
0
11
78.147722748456687
21
-1408.1160667624281
31
-1.1102230246251565e-15
0
LINE
5
126
100
AcDbEntity
8
0
100
AcDbLine
10
78.147722748456687
20
-1408.1160667624281
30
-1.1102230246251565e-15
11
78.144050636202095
21
-1398.6160674721345
31
0
0
CIRCLE
5
127
100
AcDbEntity
8
0
100
AcDbCircle
10
172.95324789795137
20
-1363.0793818166849
30
0
40
1.4999999999999847
210
0
220
-0
230
1
0
LWPOLYLINE
5
128
100
AcDbEntity
8
0
100
AcDbPolyline
90
4
70
1
43
0.0
10
182.95324391864165
20
-1368.0259596677627
10
162.95324391864813
20
-1368.0259435786079
10
162.95325187726104
20
-1358.1328039656066
10
182.95325187725456
20
-1358.1328200547616
0
CIRCLE
5
129
100
AcDbEntity
8
0
100
AcDbCircle
10
172.95322376421851
20
-1393.0793818166749
30
0
40
1.4999999999999136
210
0
220
-0
230
1
0
LWPOLYLINE
5
130
100
AcDbEntity
8
0
100
AcDbPolyline
90
4
70
1
43
0.0
10
162.95322782949287
20
-1388.0259435786013
10
182.95322782948637
20
-1388.0259596677561
10
182.95321969894414
20
-1398.1328200547487
10
162.95321969895065
20
-1398.1328039655937
0
CIRCLE
5
131
100
AcDbEntity
8
0
100
AcDbCircle
10
274.14778478881891
20
-1363.0736246486365
30
0
40
1.4999999999999847
210
0
220
-0
230
1
0
LWPOLYLINE
5
132
100
AcDbEntity
8
0
100
AcDbPolyline
90
4
70
1
43
0.0
10
284.14778080950919
20
-1368.0202024997141
10
264.14778080951567
20
-1368.0201864105593
10
264.14778876812858
20
-1358.1270467975583
10
284.1477887681221
20
-1358.1270628867132
0
CIRCLE
5
133
100
AcDbEntity
8
0
100
AcDbCircle
10
274.14776065508602
20
-1393.0736246486263
30
0
40
1.4999999999999136
210
0
220
-0
230
1
0
LWPOLYLINE
5
134
100
AcDbEntity
8
0
100
AcDbPolyline
90
4
70
1
43
0.0
10
264.14776472036044
20
-1388.0201864105527
10
284.14776472035396
20
-1388.0202024997075
10
284.14775658981165
20
-1398.1270628867003
10
264.14775658981819
20
-1398.1270467975451
0
CIRCLE
5
135
100
AcDbEntity
8
0
100
AcDbCircle
10
375.38793659484224
20
-1363.0678636924633
30
0
40
1.4999999999999847
210
0
220
-0
230
1
0
LWPOLYLINE
5
136
100
AcDbEntity
8
0
100
AcDbPolyline
90
4
70
1
43
0.0
10
385.38793261553252
20
-1368.0144415435411
10
365.387932615539
20
-1368.0144254543861
10
365.38794057415191
20
-1358.1212858413851
10
385.38794057414549
20
-1358.1213019305403
0
CIRCLE
5
137
100
AcDbEntity
8
0
100
AcDbCircle
10
375.38791246110929
20
-1393.0678636924531
30
0
40
1.4999999999999136
210
0
220
-0
230
1
0
LWPOLYLINE
5
138
100
AcDbEntity
8
0
100
AcDbPolyline
90
4
70
1
43
0.0
10
365.38791652638372
20
-1388.0144254543798
10
385.38791652637724
20
-1388.0144415435345
10
385.38790839583498
20
-1398.1213019305274
10
365.38790839584146
20
-1398.1212858413721
0
ELLIPSE
5
139
100
AcDbEntity
8
0
100
AcDbEllipse
10
476.67078462492225
20
-1388.6239420011746
30
0
11
-2.4999998132352257
21
-0.00096634533014022849
31
0.0
40
0.99999999995536604
41
0
42
6.2831853071795862
0
ELLIPSE
5
140
100
AcDbEntity
8
0
100
AcDbEllipse
10
476.66653268571235
20
-1377.6238917096598
30
0
11
-2.4999998132352967
21
-0.00096634533014025603
31
0.0
40
0.99999999995536604
41
0
42
6.2831853071795862
0
LINE
5
141
100
AcDbEntity
8
0
100
AcDbLine
10
470.17445722276506
20
-1398.1264537889247
30
0
11
470.17465049183107
21
-1398.6264537515272
31
0
0
LINE
5
142
100
AcDbEntity
8
0
100
AcDbLine
10
470.17465049183107
20
-1398.6264537515272
30
0
11
483.17464952065461
21
-1398.6214287558105
31
0
0
LINE
5
143
100
AcDbEntity
8
0
100
AcDbLine
10
483.17464952065461
20
-1398.6214287558105
30
0
11
483.17445625158837
21
-1398.1214287932075
31
0
0
LINE
5
144
100
AcDbEntity
8
0
100
AcDbLine
10
483.17445625158837
20
-1398.1214287932075
30
0
11
483.16266681880393
21
-1367.6213799593054
31
0
0
LINE
5
145
100
AcDbEntity
8
0
100
AcDbLine
10
483.16266681880393
20
-1367.6213799593054
30
0
11
470.16266778998033
21
-1367.6264049550221
31
0
0
LINE
5
146
100
AcDbEntity
8
0
100
AcDbLine
10
470.16266778998033
20
-1367.6264049550221
30
0
11
470.17445722276506
21
-1398.1264537889247
31
0
0
CIRCLE
5
147
100
AcDbEntity
8
0
100
AcDbCircle
10
476.66150768996249
20
-1364.6238925954947
30
-1.1102230246251565e-15
40
2.5000000000000693
210
0
220
-0
230
1
0
LWPOLYLINE
5
148
100
AcDbEntity
8
0
100
AcDbPolyline
90
4
70
1
43
0.0
10
483.16266217693004
20
-1367.6093711217882
10
470.16266314810639
20
-1367.6143961175053
10
470.15899567769247
20
-1358.1264055789402
10
483.15899470651618
20
-1358.1213805832238
0
CIRCLE
5
149
100
AcDbEntity
8
0
100
AcDbCircle
10
476.73123414551156
20
-1401.6238172095811
30
-1.1102230246251565e-15
40
2.4999999999999272
210
0
220
-0
230
1
0
LINE
5
150
100
AcDbEntity
8
0
100
AcDbLine
10
483.17464952065461
20
-1398.6214287558105
30
0
11
470.17465049183107
21
-1398.6264537515272
31
0
0
LINE
5
151
100
AcDbEntity
8
0
100
AcDbLine
10
470.17465049183107
20
-1398.6264537515272
30
0
11
470.17832260408557
21
-1408.1264530418207
31
-1.1102230246251565e-15
0
LINE
5
152
100
AcDbEntity
8
0
100
AcDbLine
10
470.17832260408557
20
-1408.1264530418207
30
-1.1102230246251565e-15
11
483.17832163290922
21
-1408.121428046104
31
-1.1102230246251565e-15
0
LINE
5
153
100
AcDbEntity
8
0
100
AcDbLine
10
483.17832163290922
20
-1408.121428046104
30
-1.1102230246251565e-15
11
483.17464952065461
21
-1398.6214287558105
31
0
0
ENDSEC
0
SECTION
2
OBJECTS
0
DICTIONARY
5
C
100
AcDbDictionary
3
ACAD_GROUP
350
D
3
ACAD_MLINESTYLE
350
17
0
DICTIONARY
5
D
100
AcDbDictionary
0
DICTIONARY
5
1A
330
C
100
AcDbDictionary
0
DICTIONARY
5
17
100
AcDbDictionary
0
ENDSEC
0
EOF
