0
SECTION
2
HEADER
9
$INSUNITS
70
4
9
$ACADVER
1
AC1014
9
$HANDSEED
5
FFFF
0
ENDSEC
0
SECTION
2
TABLES
0
TABLE
2
VPORT
5
8
100
AcDbSymbolTable
0
ENDTAB
0
TABLE
2
LTYPE
5
5
100
AcDbSymbolTable
0
LTYPE
5
14
100
AcDbSymbolTableRecord
100
AcDbLinetypeTableRecord
2
BYBLOCK
70
0
0
LTYPE
5
15
100
AcDbSymbolTableRecord
100
AcDbLinetypeTableRecord
2
BYLAYER
70
0
0
ENDTAB
0
TABLE
2
LAYER
5
2
100
AcDbSymbolTable
70
2
0
LAYER
5
50
100
AcDbSymbolTableRecord
100
AcDbLayerTableRecord
2
0
70
0
6
CONTINUOUS
0
ENDTAB
0
TABLE
2
STYLE
5
3
100
AcDbSymbolTable
70
1
0
STYLE
5
11
100
AcDbSymbolTableRecord
100
AcDbTextStyleTableRecord
2
STANDARD
70
0
0
ENDTAB
0
TABLE
2
VIEW
5
6
100
AcDbSymbolTable
70
0
0
ENDTAB
0
TABLE
2
UCS
5
7
100
AcDbSymbolTable
70
0
0
ENDTAB
0
TABLE
2
APPID
5
9
100
AcDbSymbolTable
70
2
0
APPID
5
12
100
AcDbSymbolTableRecord
100
AcDbRegAppTableRecord
2
ACAD
70
0
0
ENDTAB
0
TABLE
2
DIMSTYLE
5
A
100
AcDbSymbolTable
70
1
0
ENDTAB
0
TABLE
2
BLOCK_RECORD
5
1
100
AcDbSymbolTable
70
1
0
BLOCK_RECORD
5
1F
100
AcDbSymbolTableRecord
100
AcDbBlockTableRecord
2
*MODEL_SPACE
0
BLOCK_RECORD
5
1B
100
AcDbSymbolTableRecord
100
AcDbBlockTableRecord
2
*PAPER_SPACE
0
ENDTAB
0
ENDSEC
0
SECTION
2
BLOCKS
0
BLOCK
5
20
100
AcDbEntity
100
AcDbBlockBegin
2
*MODEL_SPACE
0
ENDBLK
5
21
100
AcDbEntity
100
AcDbBlockEnd
0
BLOCK
5
1C
100
AcDbEntity
100
AcDbBlockBegin
2
*PAPER_SPACE
0
ENDBLK
5
1D
100
AcDbEntity
100
AcDbBlockEnd
0
ENDSEC
0
SECTION
2
ENTITIES
0
LWPOLYLINE
5
100
100
AcDbEntity
8
0
100
AcDbPolyline
90
132
70
1
43
0.0
10
-97.84721949999998
20
-138.52394900000002
10
65.57906850000002
20
-138.53442900000002
10
66.91527750000003
20
-138.50299000000004
10
68.235767500000009
20
-138.40343700000003
10
69.535296500000001
20
-138.23576700000001
10
70.81386550000002
20
-138.00522099999998
10
72.071474500000008
20
-137.71179899999998
10
73.302883500000007
20
-137.36074100000002
10
74.513332500000018
20
-136.94680700000004
10
75.697580500000015
20
-136.48047500000001
10
76.850389499999991
20
-135.95650800000001
10
77.976997499999996
20
-135.380143
10
79.066924500000013
20
-134.75138200000004
10
80.12541250000001
20
-134.07022400000002
10
81.147219500000034
20
-133.34190899999999
10
82.137586500000026
20
-132.56643700000001
10
83.086033500000013
20
-131.743808
10
83.992560499999982
20
-130.87926100000004
10
84.857166500000005
20
-129.97279700000001
10
85.679852499999996
20
-129.02441600000003
10
86.455377499999997
20
-128.03411699999998
10
87.183742500000037
20
-127.01238000000004
10
87.864947500000028
20
-125.95396500000004
10
88.493752500000014
20
-124.86411200000003
10
89.070156499999982
20
-123.737582
10
89.594160500000015
20
-122.58485300000001
10
90.065763500000031
20
-121.40068600000004
10
90.47448650000004
20
-120.19032100000001
10
90.825568500000003
20
-118.958997
10
91.119011500000013
20
-117.701474
10
91.349572500000022
20
-116.42299300000002
10
91.517253499999995
20
-115.12355400000001
10
91.616814500000004
20
-113.80315500000002
10
91.648254500000021
20
-112.46703800000003
10
91.658734500000037
20
50.953234999999992
10
91.627294500000033
20
52.289351999999987
10
91.527733500000011
20
53.60975100000001
10
91.360052499999995
20
54.909190999999993
10
91.129491499999986
20
56.187672000000006
10
90.836049500000016
20
57.445193999999979
10
90.484966500000013
20
58.676518000000009
10
90.076243500000004
20
59.886884000000009
10
89.604640500000059
20
61.071050000000007
10
89.080636500000026
20
62.223779000000015
10
88.504232500000029
20
63.350310000000007
10
87.875427500000001
20
64.440162000000001
10
87.194222500000009
20
65.498577000000012
10
86.465857500000027
20
66.520314000000013
10
85.690332500000011
20
67.510613000000006
10
84.867646499999978
20
68.458994000000004
10
84.003040500000026
20
69.365458000000018
10
83.096513500000029
20
70.230004999999977
10
82.148066499999999
20
71.052634000000012
10
81.157699500000007
20
71.828105999999991
10
80.135892500000026
20
72.556421
10
79.077404500000029
20
73.237579000000011
10
77.987477500000011
20
73.866340999999977
10
76.860869500000007
20
74.442704999999989
10
75.708060500000016
20
74.966673000000014
10
74.52381250000002
20
75.433003999999997
10
73.313363500000008
20
75.846937999999994
10
72.081954500000023
20
76.197997000000015
10
70.824345500000021
20
76.491419000000008
10
69.545776500000017
20
76.721964000000014
10
68.24624750000001
20
76.889634000000029
10
66.925758500000001
20
76.989188000000013
10
65.589548499999992
20
77.020626000000021
10
-97.836739500000007
20
77.031105000000011
10
-99.172949499999987
20
76.999667000000017
10
-100.4934385
20
76.900112999999976
10
-101.7929685
20
76.732443999999987
10
-103.07153750000001
20
76.501897999999997
10
-104.32914650000001
20
76.208476000000019
10
-105.56055549999999
20
75.85741800000001
10
-106.77100350000001
20
75.443482999999986
10
-107.9552525
20
74.97715199999999
10
-109.10806050000002
20
74.453184000000022
10
-110.23466849999998
20
73.876820000000009
10
-111.32459650000001
20
73.248059000000012
10
-112.3830835
20
72.566901000000001
10
-113.40489149999999
20
71.838586000000006
10
-114.39525849999998
20
71.063113999999985
10
-115.34370549999998
20
70.240484000000009
10
-116.25023150000001
20
69.375937999999991
10
-117.11483749999999
20
68.469474000000019
10
-117.93752349999998
20
67.521091999999996
10
-118.71304949999998
20
66.530792999999989
10
-119.44141450000001
20
65.509056000000001
10
-120.12261949999998
20
64.450642000000016
10
-120.7514235
20
63.360789000000004
10
-121.32782750000001
20
62.234258999999987
10
-121.8518315
20
61.081530000000015
10
-122.32343450000002
20
59.897363000000006
10
-122.73215749999999
20
58.686997999999981
10
-123.08324049999999
20
57.455673999999988
10
-123.3766825
20
56.198151000000003
10
-123.60724449999999
20
54.919669999999989
10
-123.77492549999999
20
53.620230000000006
10
-123.87448649999999
20
52.299831999999995
10
-123.90592649999999
20
50.963713999999989
10
-123.91640649999999
20
-112.45655800000002
10
-123.8849665
20
-113.79267600000003
10
-123.7854055
20
-115.113074
10
-123.61772450000001
20
-116.41251400000003
10
-123.38716250000002
20
-117.69099499999999
10
-123.0937205
20
-118.94851799999999
10
-122.7426375
20
-120.17984199999999
10
-122.3339155
20
-121.39020700000002
10
-121.8623115
20
-122.57437399999999
10
-121.33830750000001
20
-123.72710300000001
10
-120.76190350000002
20
-124.85363300000002
10
-120.1330995
20
-125.94348600000002
10
-119.45189450000001
20
-127.00189999999999
10
-118.7235295
20
-128.02363700000001
10
-117.9480035
20
-129.01393600000003
10
-117.12531749999999
20
-129.96231800000001
10
-116.26071150000001
20
-130.86878200000001
10
-115.3541855
20
-131.733328
10
-114.4057385
20
-132.55595800000003
10
-113.41537150000001
20
-133.33143000000001
10
-112.39356350000001
20
-134.05974499999999
10
-111.33507649999999
20
-134.740903
10
-110.2451485
20
-135.369664
10
-109.11854049999999
20
-135.94602800000001
10
-107.96573250000002
20
-136.46999600000001
10
-106.78148350000001
20
-136.93632700000001
10
-105.57103550000001
20
-137.35026200000004
10
-104.33962649999998
20
-137.70132000000001
10
-103.08201750000002
20
-137.99474199999997
10
-101.8034485
20
-138.22528800000001
10
-100.5039185
20
-138.39295700000002
10
-99.183429499999988
20
-138.49251100000004
0
LWPOLYLINE
5
101
100
AcDbEntity
8
0
100
AcDbPolyline
90
132
70
1
43
0.0
10
65.589548499999992
20
83.402552000000014
10
67.250640500000003
20
83.360635000000016
10
68.896012500000012
20
83.234881999999999
10
70.51518350000002
20
83.025294999999986
10
72.108155499999995
20
82.737112999999994
10
73.680166500000013
20
82.375575000000012
10
75.220737500000013
20
81.935442999999992
10
76.729868500000009
20
81.421954000000028
10
78.202318500000018
20
80.835110000000014
10
79.638088500000038
20
80.18539100000001
10
81.037178500000024
20
79.467554999999976
10
82.394348500000021
20
78.68684300000001
10
83.709598499999984
20
77.838014999999984
10
84.982927499999974
20
76.931551000000013
10
86.209095500000004
20
75.967450999999997
10
87.388104499999997
20
74.945714000000009
10
88.514712500000002
20
73.871579999999994
10
89.5889205
20
72.74505000000002
10
90.61072750000001
20
71.56612299999999
10
91.574894500000028
20
70.340038000000007
10
92.481420500000013
20
69.066797000000008
10
93.330306500000006
20
67.751637999999986
10
94.111072500000006
20
66.394562000000008
10
94.828957500000044
20
64.995568000000006
10
95.478722500000003
20
63.559896999999985
10
96.060366500000001
20
62.087548000000012
10
96.573890500000033
20
60.578521000000016
10
97.014053500000017
20
59.038056000000019
10
97.375615500000023
20
57.466152999999984
10
97.663817500000007
20
55.873291000000016
10
97.873419500000054
20
54.254230999999997
10
97.999180500000023
20
52.608972999999999
10
98.041100163963335
20
50.947995000021571
10
98.030620500000012
20
-112.46703800000003
10
97.988700499999979
20
-114.12801500000002
10
97.86293950000001
20
-115.773274
10
97.653337499999992
20
-117.39233400000002
10
97.365135500000008
20
-118.98519499999999
10
97.003573499999973
20
-120.55709800000001
10
96.563409500000034
20
-122.09756300000002
10
96.049886500000028
20
-123.60659000000001
10
95.468242500000031
20
-125.07893900000001
10
94.8184775
20
-126.51461
10
94.100592500000033
20
-127.91360400000002
10
93.319826500000005
20
-129.27068000000003
10
92.47094050000004
20
-130.58583900000002
10
91.564414499999998
20
-131.85908100000003
10
90.600247500000037
20
-133.08516500000002
10
89.578440500000028
20
-134.26409199999998
10
88.504232500000029
20
-135.39062299999998
10
87.377624500000024
20
-136.46475600000002
10
86.198615500000031
20
-137.486493
10
84.972447500000001
20
-138.450594
10
83.699117500000028
20
-139.35705799999999
10
82.383868500000005
20
-140.20588500000002
10
81.026698499999981
20
-140.98659699999999
10
79.627608500000022
20
-141.70443300000002
10
78.191838500000017
20
-142.354153
10
76.719388500000008
20
-142.94099700000001
10
75.210257499999997
20
-143.45448500000003
10
73.669686500000012
20
-143.89461799999998
10
72.097675500000022
20
-144.25615500000004
10
70.504703500000048
20
-144.54433800000004
10
68.885532500000011
20
-144.75392499999998
10
67.240160500000002
20
-144.87967699999999
10
65.57906850000002
20
-144.92159400000003
10
-97.84721949999998
20
-144.90587500000001
10
-99.508311499999991
20
-144.863958
10
-101.1536835
20
-144.73820599999999
10
-102.77285550000002
20
-144.52861900000002
10
-104.36582649999998
20
-144.24043600000002
10
-105.9378375
20
-143.87889900000002
10
-107.4784085
20
-143.43876600000002
10
-108.9875395
20
-142.92527800000002
10
-110.45999049999999
20
-142.33843400000001
10
-111.89576049999999
20
-141.688714
10
-113.2948505
20
-140.970878
10
-114.65202049999999
20
-140.190166
10
-115.96726950000001
20
-139.34133900000003
10
-117.2405985
20
-138.43487500000003
10
-118.4667675
20
-137.47077399999998
10
-119.64577550000001
20
-136.449037
10
-120.77238350000002
20
-135.37490399999999
10
-121.84659150000002
20
-134.24837300000002
10
-122.8683985
20
-133.06944600000003
10
-123.83256549999999
20
-131.84336200000004
10
-124.73909249999998
20
-130.57012
10
-125.58797850000002
20
-129.25496100000004
10
-126.36874349999999
20
-127.897885
10
-127.08662849999999
20
-126.49889100000003
10
-127.73639349999999
20
-125.06322
10
-128.3180375
20
-123.59087099999999
10
-128.83156150000002
20
-122.081844
10
-129.2717245
20
-120.54137900000002
10
-129.63328749999999
20
-118.96947600000001
10
-129.92148950000001
20
-117.37661500000003
10
-130.1310905
20
-115.75755400000003
10
-130.25685150000001
20
-114.112296
10
-130.29877150000002
20
-112.45131900000001
10
-130.28829150000001
20
50.963713999999989
10
-130.24637150000001
20
52.624691999999982
10
-130.1206105
20
54.269950000000016
10
-129.91100950000001
20
55.889009999999999
10
-129.62280750000002
20
57.481872000000003
10
-129.2612445
20
59.053775000000002
10
-128.82108149999999
20
60.594239999999999
10
-128.30755750000003
20
62.103266999999995
10
-127.72591349999999
20
63.575616000000004
10
-127.07614849999999
20
65.011286999999982
10
-126.35826349999999
20
66.410280999999998
10
-125.5774985
20
67.767357000000004
10
-124.72861250000001
20
69.082515999999998
10
-123.82208550000001
20
70.355756999999983
10
-122.85791849999998
20
71.581842000000009
10
-121.83611150000002
20
72.760768999999996
10
-120.76190350000002
20
73.887299000000013
10
-119.63529550000001
20
74.961433
10
-118.4562875
20
75.983169999999973
10
-117.23011849999999
20
76.947270000000003
10
-115.9567895
20
77.853734000000003
10
-114.64154050000002
20
78.702562
10
-113.28437050000002
20
79.483273999999994
10
-111.88528049999999
20
80.20111
10
-110.44951050000002
20
80.850829000000004
10
-108.9770595
20
81.437673000000004
10
-107.46792849999999
20
81.951162000000011
10
-105.9273575
20
82.391293999999988
10
-104.35534650000001
20
82.752832000000012
10
-102.76237550000002
20
83.041014000000004
10
-101.1432035
20
83.250600999999989
10
-99.497831500000018
20
83.376353999999992
10
-97.836739500000007
20
83.418271000000004
0
LINE
5
102
100
AcDbEntity
8
0
100
AcDbLine
10
-31.265297799831746
20
-87.091284000000002
30
0
11
-42.156101499999977
21
-87.091284000000002
31
0
0
LINE
5
103
100
AcDbEntity
8
0
100
AcDbLine
10
-42.156101499999977
20
-87.091284000000002
30
0
11
-41.003293499999991
21
-82.055955000000012
31
0
0
SPLINE
5
104
100
AcDbEntity
8
0
100
AcDbSpline
70
0
71
3
72
8
73
4
74
0
42
0.000000001
43
0.0000000001
44
0.0000000001
40
-1
40
-1
40
-1
40
-1
40
0
40
0
40
0
40
0
10
-41.003293499999991
20
-82.055955000000012
30
0
10
-40.956133500000007
20
-81.856846999999988
30
0
10
-40.846092499999997
20
-81.704895999999991
30
0
10
-40.69413149999999
20
-81.584384000000014
30
0
0
SPLINE
5
105
100
AcDbEntity
8
0
100
AcDbSpline
70
0
71
3
72
8
73
4
74
0
42
0.000000001
43
0.0000000001
44
0.0000000001
40
-1
40
-1
40
-1
40
-1
40
0
40
0
40
0
40
0
10
-40.69413149999999
20
-81.584384000000014
30
0
10
-40.536930499999997
20
-81.469110999999998
30
0
10
-40.379729499999982
20
-81.41147500000001
30
0
10
-40.222527499999998
20
-81.41147500000001
30
0
0
LINE
5
106
100
AcDbEntity
8
0
100
AcDbLine
10
-40.222527500000005
20
-81.41147500000001
30
0
11
-30.035895500000009
21
-81.41147500000001
31
0
0
SPLINE
5
107
100
AcDbEntity
8
0
100
AcDbSpline
70
0
71
3
72
8
73
4
74
0
42
0.000000001
43
0.0000000001
44
0.0000000001
40
-1
40
-1
40
-1
40
-1
40
0
40
0
40
0
40
0
10
-30.035895500000009
20
-81.41147500000001
30
0
10
-29.789613499999987
20
-81.41147500000001
30
0
10
-29.590491499999985
20
-81.500549000000007
30
0
10
-29.428050499999987
20
-81.683938000000012
30
0
0
SPLINE
5
108
100
AcDbEntity
8
0
100
AcDbSpline
70
0
71
3
72
8
73
4
74
0
42
0.000000001
43
0.0000000001
44
0.0000000001
40
-1
40
-1
40
-1
40
-1
40
0
40
0
40
0
40
0
10
-29.428050499999987
20
-81.683938000000012
30
0
10
-29.276089499999998
20
-81.862087000000017
30
0
10
-29.213209500000001
20
-82.082153000000005
30
0
10
-29.255129499999981
20
-82.328417999999999
30
0
0
LINE
5
109
100
AcDbEntity
8
0
100
AcDbLine
10
-29.255129499999981
20
-82.328418000000013
30
0
11
-30.297391719723716
21
-86.342596196460761
31
0
0
ARC
5
110
100
AcDbEntity
8
0
100
AcDbCircle
10
-31.26529779983176
20
-86.091283999999973
30
0
40
1.000000000000032
210
0
220
0
230
1
100
AcDbArc
50
270.0000000000008
51
345.44482520202342
0
SPLINE
5
111
100
AcDbEntity
8
0
100
AcDbSpline
70
0
71
3
72
8
73
4
74
0
42
0.000000001
43
0.0000000001
44
0.0000000001
40
-1
40
-1
40
-1
40
-1
40
0
40
0
40
0
40
0
10
-55.114714500000005
20
-75.254855000000006
30
0
10
-55.266675499999991
20
-75.679267999999979
30
0
10
-55.581077499999985
20
-75.899335000000022
30
0
10
-56.063161499999985
20
-75.899335000000022
30
0
0
LINE
5
112
100
AcDbEntity
8
0
100
AcDbLine
10
-56.063161499999985
20
-75.899335000000022
30
0
11
-68.848852499999992
21
-75.899335000000022
31
0
0
LINE
5
113
100
AcDbEntity
8
0
100
AcDbLine
10
-68.848852499999992
20
-75.899335000000022
30
0
11
-67.507403499999995
21
-69.941822999999999
31
0
0
SPLINE
5
114
100
AcDbEntity
8
0
100
AcDbSpline
70
0
71
3
72
8
73
4
74
0
42
0.000000001
43
0.0000000001
44
0.0000000001
40
-1
40
-1
40
-1
40
-1
40
0
40
0
40
0
40
0
10
-67.507403499999995
20
-69.941822999999999
30
0
10
-67.444522500000005
20
-69.721756000000013
30
0
10
-67.324001500000008
20
-69.538366999999994
30
0
10
-67.135360500000004
20
-69.391657000000009
30
0
0
SPLINE
5
115
100
AcDbEntity
8
0
100
AcDbSpline
70
0
71
3
72
8
73
4
74
0
42
0.000000001
43
0.0000000001
44
0.0000000001
40
-1
40
-1
40
-1
40
-1
40
0
40
0
40
0
40
0
10
-67.135360500000004
20
-69.391657000000009
30
0
10
-66.951959500000001
20
-69.250185000000016
30
0
10
-66.773797500000001
20
-69.176829999999995
30
0
10
-66.606116499999999
20
-69.176829999999995
30
0
0
LINE
5
116
100
AcDbEntity
8
0
100
AcDbLine
10
-66.606116499999999
20
-69.176829999999995
30
0
11
-54.690271500000009
21
-69.176829999999995
31
0
0
SPLINE
5
117
100
AcDbEntity
8
0
100
AcDbSpline
70
0
71
3
72
8
73
4
74
0
42
0.000000001
43
0.0000000001
44
0.0000000001
40
-1
40
-1
40
-1
40
-1
40
0
40
0
40
0
40
0
10
-54.690271500000009
20
-69.176829999999995
30
0
10
-54.417789499999998
20
-69.176829999999995
30
0
10
-54.187227500000006
20
-69.292103000000012
30
0
10
-53.998586499999995
20
-69.522648000000004
30
0
0
SPLINE
5
118
100
AcDbEntity
8
0
100
AcDbSpline
70
0
71
3
72
8
73
4
74
0
42
0.000000001
43
0.0000000001
44
0.0000000001
40
-1
40
-1
40
-1
40
-1
40
0
40
0
40
0
40
0
10
-53.998586499999995
20
-69.522648000000004
30
0
10
-53.820425499999999
20
-69.732235000000017
30
0
10
-53.747064499999986
20
-69.983740000000012
30
0
10
-53.794224499999999
20
-70.261443000000014
30
0
0
LINE
5
119
100
AcDbEntity
8
0
100
AcDbLine
10
-53.794224499999991
20
-70.261443000000014
30
0
11
-55.114714500000005
21
-75.254855000000006
31
0
0
LWPOLYLINE
5
120
100
AcDbEntity
8
0
100
AcDbPolyline
90
138
70
1
43
0.0
10
69.551016500000003
20
30.570892999999998
10
69.556256500000018
20
30.570892999999995
10
69.556256500000018
20
-92.058497000000003
10
69.561496500000004
20
-92.058497000000003
10
69.530056500000015
20
-93.305540000000036
10
69.435736500000019
20
-94.536864000000023
10
69.278534500000006
20
-95.752468999999991
10
69.063693499999985
20
-96.952354999999983
10
68.791211500000003
20
-98.13128300000001
10
68.461089500000014
20
-99.289250999999993
10
68.078566500000022
20
-100.42102100000001
10
67.638403500000024
20
-101.52659299999999
10
67.151079500000009
20
-102.60596600000001
10
66.611355500000045
20
-103.653902
10
66.024471500000004
20
-104.67563900000003
10
65.390427500000001
20
-105.66593700000001
10
64.70922250000001
20
-106.61955900000002
10
63.986097500000021
20
-107.54174199999997
10
63.215811500000001
20
-108.42724700000002
10
62.408845500000005
20
-109.27607500000001
10
61.565199499999999
20
-110.08298500000002
10
60.679633499999994
20
-110.84797800000001
10
59.757386500000003
20
-111.57105300000001
10
58.803699500000022
20
-112.252211
10
57.81333250000003
20
-112.88621200000001
10
56.791525500000013
20
-113.473056
10
55.743518500000029
20
-114.012742
10
54.664070500000008
20
-114.50527199999999
10
53.558422499999985
20
-114.94540500000001
10
52.426574499999994
20
-115.32790100000001
10
51.273766500000022
20
-115.65800100000001
10
50.0947575
20
-115.93046400000003
10
48.894789500000009
20
-116.14529100000001
10
47.679100500000011
20
-116.30248100000001
10
46.447691500000019
20
-116.39679500000001
10
45.200562499999997
20
-116.42823300000002
10
-77.447754500000002
20
-116.42823300000002
10
-77.447754500000002
20
-116.43871200000004
10
-78.694883499999989
20
-116.40727400000002
10
-79.926291499999977
20
-116.31296000000003
10
-81.141980499999988
20
-116.15577
10
-82.341949499999998
20
-115.94094299999998
10
-83.520957500000009
20
-115.66848
10
-84.673765499999988
20
-115.33838000000002
10
-85.805613499999993
20
-114.95588400000001
10
-86.911261500000009
20
-114.51575100000001
10
-87.990709499999994
20
-114.02322199999999
10
-89.038716499999992
20
-113.483535
10
-90.060524499999985
20
-112.896691
10
-91.050891499999992
20
-112.26269000000001
10
-92.004578500000008
20
-111.58153200000002
10
-92.926824500000009
20
-110.858457
10
-93.81239149999999
20
-110.09346400000001
10
-94.656037499999996
20
-109.286554
10
-95.463002500000002
20
-108.43772600000001
10
-96.2332885
20
-107.55222099999999
10
-96.956413500000011
20
-106.63003800000001
10
-97.637618500000016
20
-105.67641699999999
10
-98.271662500000019
20
-104.68611800000002
10
-98.8585475
20
-103.66438099999999
10
-99.398271499999993
20
-102.616446
10
-99.885594499999996
20
-101.53707200000001
10
-100.32575749999999
20
-100.43150100000003
10
-100.7082805
20
-99.299730000000011
10
-101.03840249999999
20
-98.141762000000028
10
-101.3108845
20
-96.962835000000041
10
-101.52572649999999
20
-95.762949000000006
10
-101.68292749999999
20
-94.547343999999995
10
-101.77724850000001
20
-93.316020000000009
10
-101.80868849999999
20
-92.068977000000004
10
-101.8139285
20
-92.068977000000004
10
-101.8139285
20
30.560413999999998
10
-101.8191685
20
30.560413999999998
10
-101.7877285
20
31.807456999999996
10
-101.69340750000001
20
33.038780999999993
10
-101.53620650000001
20
34.254385999999997
10
-101.32136449999999
20
35.454271999999996
10
-101.0488825
20
36.633198999999998
10
-100.7187605
20
37.791167000000002
10
-100.33623750000001
20
38.922938000000002
10
-99.896074500000012
20
40.028508999999993
10
-99.408751499999994
20
41.107882999999994
10
-98.869027499999987
20
42.155817999999996
10
-98.282143499999989
20
43.177555000000005
10
-97.648098499999989
20
44.167853999999991
10
-96.966893500000012
20
45.121475000000004
10
-96.243768500000016
20
46.043658000000001
10
-95.473482500000003
20
46.929163000000003
10
-94.666517499999998
20
47.777991
10
-93.822871499999991
20
48.584901000000002
10
-92.937304499999996
20
49.349893999999999
10
-92.015058500000009
20
50.072969000000001
10
-91.061371499999979
20
50.754126999999997
10
-90.071004499999987
20
51.388128000000002
10
-89.049197499999977
20
51.974971999999994
10
-88.001189499999981
20
52.514658999999995
10
-86.92174150000001
20
53.007187999999999
10
-85.816093499999994
20
53.447321000000002
10
-84.684245500000003
20
53.829816999999991
10
-83.53143750000001
20
54.159916999999993
10
-82.3524295
20
54.432379999999995
10
-81.152460499999989
20
54.647206999999995
10
-79.936771499999992
20
54.804396999999994
10
-78.705363500000004
20
54.898711000000006
10
-77.458234500000003
20
54.930149
10
45.190082500000024
20
54.930149
10
45.190082500000024
20
54.940628999999994
10
46.437211500000011
20
54.909191
10
47.668620500000003
20
54.81487700000001
10
48.884309500000001
20
54.657686000000005
10
50.084277499999992
20
54.442859999999996
10
51.263286499999978
20
54.170395999999997
10
52.416094500000021
20
53.840296999999993
10
53.547942500000012
20
53.457799999999992
10
54.6535905
20
53.017667999999993
10
55.733038500000021
20
52.525137999999991
10
56.781045500000005
20
51.985451000000005
10
57.802852500000022
20
51.398606999999998
10
58.793219500000014
20
50.764606999999991
10
59.74690650000003
20
50.083449000000002
10
60.669153500000021
20
49.360372999999996
10
61.55471949999999
20
48.595381000000003
10
62.398365499999997
20
47.78846999999999
10
63.205331500000028
20
46.93964299999999
10
63.975616500000001
20
46.054136999999997
10
64.698742500000009
20
45.131954
10
65.379947500000029
20
44.178332999999995
10
66.013991499999989
20
43.188033999999995
10
66.600875500000029
20
42.166297
10
67.140599499999993
20
41.118361999999991
10
67.627923500000009
20
40.038988999999994
10
68.068086500000007
20
38.933416999999999
10
68.45060850000003
20
37.801646999999996
10
68.78073150000003
20
36.643678000000001
10
69.053213500000012
20
35.464751
10
69.268054500000034
20
34.264865
10
69.42525550000002
20
33.049259999999997
10
69.519576500000042
20
31.817935999999996
0
LINE
5
121
100
AcDbEntity
8
0
100
AcDbLine
10
-97.024534500000001
20
30.570892999999995
30
0
11
-97.029501582140682
21
30.570892999999998
31
0
0
LINE
5
122
100
AcDbEntity
8
0
100
AcDbLine
10
-97.029501582140682
20
30.570892999999998
30
0
11
-97.003573500000016
21
31.566431999999999
31
0
0
LINE
5
123
100
AcDbEntity
8
0
100
AcDbLine
10
-97.003573500000016
20
31.566431999999999
30
0
11
-96.930213500000008
21
32.556730999999999
31
0
0
LINE
5
124
100
AcDbEntity
8
0
100
AcDbLine
10
-96.930213500000008
20
32.556730999999999
30
0
11
-96.804452499999996
21
33.531309999999991
31
0
0
LINE
5
125
100
AcDbEntity
8
0
100
AcDbLine
10
-96.804452499999996
20
33.531309999999991
30
0
11
-96.631531499999994
21
34.490170999999997
31
0
0
LINE
5
126
100
AcDbEntity
8
0
100
AcDbLine
10
-96.631531499999994
20
34.490170999999997
30
0
11
-96.411449499999989
21
35.433312999999998
31
0
0
LINE
5
127
100
AcDbEntity
8
0
100
AcDbLine
10
-96.411449499999989
20
35.433312999999998
30
0
11
-96.144207500000007
21
36.360735999999996
31
0
0
LINE
5
128
100
AcDbEntity
8
0
100
AcDbLine
10
-96.144207500000007
20
36.360735999999996
30
0
11
-95.835045500000007
21
37.267199999999995
31
0
0
LINE
5
129
100
AcDbEntity
8
0
100
AcDbLine
10
-95.835045500000007
20
37.267199999999995
30
0
11
-95.483963500000016
21
38.152704999999997
31
0
0
LINE
5
130
100
AcDbEntity
8
0
100
AcDbLine
10
-95.483963500000016
20
38.152704999999997
30
0
11
-95.090960499999994
21
39.022490999999995
31
0
0
LINE
5
131
100
AcDbEntity
8
0
100
AcDbLine
10
-95.090960499999994
20
39.022490999999995
30
0
11
-94.656037499999996
21
39.866078999999999
31
0
0
LINE
5
132
100
AcDbEntity
8
0
100
AcDbLine
10
-94.656037499999996
20
39.866078999999999
30
0
11
-94.184433499999983
21
40.683469000000002
31
0
0
LINE
5
133
100
AcDbEntity
8
0
100
AcDbLine
10
-94.184433499999983
20
40.683469000000002
30
0
11
-93.670910500000005
21
41.479900000000001
31
0
0
LINE
5
134
100
AcDbEntity
8
0
100
AcDbLine
10
-93.670910500000005
20
41.479900000000001
30
0
11
-93.120706499999983
21
42.250132000000001
31
0
0
LINE
5
135
100
AcDbEntity
8
0
100
AcDbLine
10
-93.120706499999983
20
42.250132000000001
30
0
11
-92.539061500000003
21
42.988926999999997
31
0
0
LINE
5
136
100
AcDbEntity
8
0
100
AcDbLine
10
-92.539061500000003
20
42.988926999999997
30
0
11
-91.920737500000001
21
43.701523000000002
31
0
0
LINE
5
137
100
AcDbEntity
8
0
100
AcDbLine
10
-91.920737500000001
20
43.701523000000002
30
0
11
-91.270972499999999
21
44.382681000000005
31
0
0
LINE
5
138
100
AcDbEntity
8
0
100
AcDbLine
10
-91.270972499999999
20
44.382681000000005
30
0
11
-90.589768500000005
21
45.032399999999996
31
0
0
LINE
5
139
100
AcDbEntity
8
0
100
AcDbLine
10
-90.589768500000005
20
45.032399999999996
30
0
11
-89.877122499999999
21
45.650681999999996
31
0
0
LINE
5
140
100
AcDbEntity
8
0
100
AcDbLine
10
-89.877122499999999
20
45.650681999999996
30
0
11
-89.138277499999987
21
46.232286000000002
31
0
0
LINE
5
141
100
AcDbEntity
8
0
100
AcDbLine
10
-89.138277499999987
20
46.232286000000002
30
0
11
-88.367992499999986
21
46.782451999999999
31
0
0
LINE
5
142
100
AcDbEntity
8
0
100
AcDbLine
10
-88.367992499999986
20
46.782451999999999
30
0
11
-87.571506499999998
21
47.295940999999999
31
0
0
LINE
5
143
100
AcDbEntity
8
0
100
AcDbLine
10
-87.571506499999998
20
47.295940999999999
30
0
11
-86.754060499999994
21
47.767511999999996
31
0
0
LINE
5
144
100
AcDbEntity
8
0
100
AcDbLine
10
-86.754060499999994
20
47.767511999999996
30
0
11
-85.910414499999987
21
48.202404999999999
31
0
0
LINE
5
145
100
AcDbEntity
8
0
100
AcDbLine
10
-85.910414499999987
20
48.202404999999999
30
0
11
-85.045808499999993
21
48.595381000000003
31
0
0
LINE
5
146
100
AcDbEntity
8
0
100
AcDbLine
10
-85.045808499999993
20
48.595381000000003
30
0
11
-84.160242499999995
21
48.946438999999998
31
0
0
LINE
5
147
100
AcDbEntity
8
0
100
AcDbLine
10
-84.160242499999995
20
48.946438999999998
30
0
11
-83.253715499999998
21
49.255580000000009
31
0
0
LINE
5
148
100
AcDbEntity
8
0
100
AcDbLine
10
-83.253715499999998
20
49.255580000000009
30
0
11
-82.326228499999985
21
49.522802999999996
31
0
0
LINE
5
149
100
AcDbEntity
8
0
100
AcDbLine
10
-82.326228499999985
20
49.522802999999996
30
0
11
-81.383022499999981
21
49.742870000000003
31
0
0
LINE
5
150
100
AcDbEntity
8
0
100
AcDbLine
10
-81.383022499999981
20
49.742870000000003
30
0
11
-80.424095499999993
21
49.915778999999993
31
0
0
LINE
5
151
100
AcDbEntity
8
0
100
AcDbLine
10
-80.424095499999993
20
49.915778999999993
30
0
11
-79.449448499999988
21
50.041530999999999
31
0
0
LINE
5
152
100
AcDbEntity
8
0
100
AcDbLine
10
-79.449448499999988
20
50.041530999999999
30
0
11
-78.459081499999996
21
50.114886999999996
31
0
0
LINE
5
153
100
AcDbEntity
8
0
100
AcDbLine
10
-78.459081499999996
20
50.114886999999996
30
0
11
-77.452994500000003
21
50.14108499999999
31
0
0
LINE
5
154
100
AcDbEntity
8
0
100
AcDbLine
10
-77.452994500000003
20
50.14108499999999
30
0
11
45.195322500000017
21
50.141084999999997
31
0
0
LINE
5
155
100
AcDbEntity
8
0
100
AcDbLine
10
45.195322500000017
20
50.141084999999997
30
0
11
45.19532250000001
21
50.15142755303269
31
0
0
LINE
5
156
100
AcDbEntity
8
0
100
AcDbLine
10
45.19532250000001
20
50.15142755303269
30
0
11
46.196169500000011
21
50.125366
31
0
0
LINE
5
157
100
AcDbEntity
8
0
100
AcDbLine
10
46.196169500000011
20
50.125366
30
0
11
47.186536500000003
21
50.052011
31
0
0
LINE
5
158
100
AcDbEntity
8
0
100
AcDbLine
10
47.186536500000003
20
50.052011
30
0
11
48.1611835
21
49.926257999999997
31
0
0
LINE
5
159
100
AcDbEntity
8
0
100
AcDbLine
10
48.1611835
20
49.926257999999997
30
0
11
49.120110500000003
21
49.753349
31
0
0
LINE
5
160
100
AcDbEntity
8
0
100
AcDbLine
10
49.120110500000003
20
49.753349
30
0
11
50.063317500000011
21
49.533282999999997
31
0
0
LINE
5
161
100
AcDbEntity
8
0
100
AcDbLine
10
50.063317500000011
20
49.533282999999997
30
0
11
50.990804500000024
21
49.266058999999998
31
0
0
LINE
5
162
100
AcDbEntity
8
0
100
AcDbLine
10
50.990804500000024
20
49.266058999999998
30
0
11
51.89733050000001
21
48.956918000000002
31
0
0
LINE
5
163
100
AcDbEntity
8
0
100
AcDbLine
10
51.89733050000001
20
48.956918000000002
30
0
11
52.782896500000014
21
48.605859999999993
31
0
0
LINE
5
164
100
AcDbEntity
8
0
100
AcDbLine
10
52.782896500000014
20
48.605859999999993
30
0
11
53.647503500000013
21
48.212883999999995
31
0
0
LINE
5
165
100
AcDbEntity
8
0
100
AcDbLine
10
53.647503500000013
20
48.212883999999995
30
0
11
54.491149499999985
21
47.777991
31
0
0
LINE
5
166
100
AcDbEntity
8
0
100
AcDbLine
10
54.491149499999985
20
47.777991
30
0
11
55.308595500000024
21
47.306419999999996
31
0
0
LINE
5
167
100
AcDbEntity
8
0
100
AcDbLine
10
55.308595500000024
20
47.306419999999996
30
0
11
56.1050805
21
46.792932
31
0
0
LINE
5
168
100
AcDbEntity
8
0
100
AcDbLine
10
56.1050805
20
46.792932
30
0
11
56.87536650000002
21
46.242766000000003
31
0
0
LINE
5
169
100
AcDbEntity
8
0
100
AcDbLine
10
56.87536650000002
20
46.242766000000003
30
0
11
57.614211500000003
21
45.661161999999997
31
0
0
LINE
5
170
100
AcDbEntity
8
0
100
AcDbLine
10
57.614211500000003
20
45.661161999999997
30
0
11
58.326856500000019
21
45.042879999999997
31
0
0
LINE
5
171
100
AcDbEntity
8
0
100
AcDbLine
10
58.326856500000019
20
45.042879999999997
30
0
11
59.008061499999975
21
44.393159999999995
31
0
0
LINE
5
172
100
AcDbEntity
8
0
100
AcDbLine
10
59.008061499999975
20
44.393159999999995
30
0
11
59.657826500000013
21
43.712001999999998
31
0
0
LINE
5
173
100
AcDbEntity
8
0
100
AcDbLine
10
59.657826500000013
20
43.712001999999998
30
0
11
60.276150500000014
21
42.999405999999993
31
0
0
LINE
5
174
100
AcDbEntity
8
0
100
AcDbLine
10
60.276150500000014
20
42.999405999999993
30
0
11
60.857794500000004
21
42.260611999999995
31
0
0
LINE
5
175
100
AcDbEntity
8
0
100
AcDbLine
10
60.857794500000004
20
42.260611999999995
30
0
11
61.407998500000005
21
41.490378999999997
31
0
0
LINE
5
176
100
AcDbEntity
8
0
100
AcDbLine
10
61.407998500000005
20
41.490378999999997
30
0
11
61.921522499999995
21
40.693947999999992
31
0
0
LINE
5
177
100
AcDbEntity
8
0
100
AcDbLine
10
61.921522499999995
20
40.693947999999992
30
0
11
62.393125500000011
21
39.876558999999993
31
0
0
LINE
5
178
100
AcDbEntity
8
0
100
AcDbLine
10
62.393125500000011
20
39.876558999999993
30
0
11
62.828048500000016
21
39.032970999999996
31
0
0
LINE
5
179
100
AcDbEntity
8
0
100
AcDbLine
10
62.828048500000016
20
39.032970999999996
30
0
11
63.221051500000023
21
38.163183999999994
31
0
0
LINE
5
180
100
AcDbEntity
8
0
100
AcDbLine
10
63.221051500000023
20
38.163183999999994
30
0
11
63.572134499999997
21
37.277678999999999
31
0
0
LINE
5
181
100
AcDbEntity
8
0
100
AcDbLine
10
63.572134499999997
20
37.277678999999999
30
0
11
63.881296500000033
21
36.371214999999999
31
0
0
LINE
5
182
100
AcDbEntity
8
0
100
AcDbLine
10
63.881296500000033
20
36.371214999999999
30
0
11
64.148538500000001
21
35.443792000000002
31
0
0
LINE
5
183
100
AcDbEntity
8
0
100
AcDbLine
10
64.148538500000001
20
35.443792000000002
30
0
11
64.368619500000008
21
34.500650999999998
31
0
0
LINE
5
184
100
AcDbEntity
8
0
100
AcDbLine
10
64.368619500000008
20
34.500650999999998
30
0
11
64.541541500000008
21
33.541789999999999
31
0
0
LINE
5
185
100
AcDbEntity
8
0
100
AcDbLine
10
64.541541500000008
20
33.541789999999999
30
0
11
64.667301500000008
21
32.567209999999996
31
0
0
LINE
5
186
100
AcDbEntity
8
0
100
AcDbLine
10
64.667301500000008
20
32.567209999999996
30
0
11
64.740662499999999
21
31.576910999999996
31
0
0
LINE
5
187
100
AcDbEntity
8
0
100
AcDbLine
10
64.740662499999999
20
31.576910999999996
30
0
11
64.766862500000002
21
30.570892999999995
31
0
0
LINE
5
188
100
AcDbEntity
8
0
100
AcDbLine
10
64.766862500000002
20
30.570892999999995
30
0
11
64.766862500000002
21
-92.068977000000004
31
0
0
LINE
5
189
100
AcDbEntity
8
0
100
AcDbLine
10
64.766862500000002
20
-92.068977000000004
30
0
11
64.771829566513759
21
-92.068977000000004
31
0
0
LINE
5
190
100
AcDbEntity
8
0
100
AcDbLine
10
64.771829566513759
20
-92.068977000000004
30
0
11
64.745902500000028
21
-93.064515000000014
31
0
0
LINE
5
191
100
AcDbEntity
8
0
100
AcDbLine
10
64.745902500000028
20
-93.064515000000014
30
0
11
64.672541500000023
21
-94.054814000000022
31
0
0
LINE
5
192
100
AcDbEntity
8
0
100
AcDbLine
10
64.672541500000023
20
-94.054814000000022
30
0
11
64.546781500000037
21
-95.029394000000011
31
0
0
LINE
5
193
100
AcDbEntity
8
0
100
AcDbLine
10
64.546781500000037
20
-95.029394000000011
30
0
11
64.373859499999995
21
-95.988255000000024
31
0
0
LINE
5
194
100
AcDbEntity
8
0
100
AcDbLine
10
64.373859499999995
20
-95.988255000000024
30
0
11
64.153778500000016
21
-96.931397000000004
31
0
0
LINE
5
195
100
AcDbEntity
8
0
100
AcDbLine
10
64.153778500000016
20
-96.931397000000004
30
0
11
63.88653650000002
21
-97.858818999999997
31
0
0
LINE
5
196
100
AcDbEntity
8
0
100
AcDbLine
10
63.88653650000002
20
-97.858818999999997
30
0
11
63.577374500000019
21
-98.765283000000025
31
0
0
LINE
5
197
100
AcDbEntity
8
0
100
AcDbLine
10
63.577374500000019
20
-98.765283000000025
30
0
11
63.226291500000009
21
-99.650789000000017
31
0
0
LINE
5
198
100
AcDbEntity
8
0
100
AcDbLine
10
63.226291500000009
20
-99.650789000000017
30
0
11
62.833288500000002
21
-100.52057500000001
31
0
0
LINE
5
199
100
AcDbEntity
8
0
100
AcDbLine
10
62.833288500000002
20
-100.52057500000001
30
0
11
62.398365499999997
21
-101.364163
31
0
0
LINE
5
200
100
AcDbEntity
8
0
100
AcDbLine
10
62.398365499999997
20
-101.364163
30
0
11
61.926762499999981
21
-102.181552
31
0
0
LINE
5
201
100
AcDbEntity
8
0
100
AcDbLine
10
61.926762499999981
20
-102.181552
30
0
11
61.413238499999991
21
-102.97798299999999
31
0
0
LINE
5
202
100
AcDbEntity
8
0
100
AcDbLine
10
61.413238499999991
20
-102.97798299999999
30
0
11
60.863034499999991
21
-103.74821600000003
31
0
0
LINE
5
203
100
AcDbEntity
8
0
100
AcDbLine
10
60.863034499999991
20
-103.74821600000003
30
0
11
60.281390500000001
21
-104.48701000000001
31
0
0
LINE
5
204
100
AcDbEntity
8
0
100
AcDbLine
10
60.281390500000001
20
-104.48701000000001
30
0
11
59.663066499999999
21
-105.19960600000002
31
0
0
LINE
5
205
100
AcDbEntity
8
0
100
AcDbLine
10
59.663066499999999
20
-105.19960600000002
30
0
11
59.013301499999997
21
-105.88076400000003
31
0
0
LINE
5
206
100
AcDbEntity
8
0
100
AcDbLine
10
59.013301499999997
20
-105.88076400000003
30
0
11
58.332096500000006
21
-106.53048400000002
31
0
0
LINE
5
207
100
AcDbEntity
8
0
100
AcDbLine
10
58.332096500000006
20
-106.53048400000002
30
0
11
57.619451500000025
21
-107.14876599999999
31
0
0
LINE
5
208
100
AcDbEntity
8
0
100
AcDbLine
10
57.619451500000025
20
-107.14876599999999
30
0
11
56.880606500000006
21
-107.73037000000001
31
0
0
LINE
5
209
100
AcDbEntity
8
0
100
AcDbLine
10
56.880606500000006
20
-107.73037000000001
30
0
11
56.110320499999986
21
-108.28053600000003
31
0
0
LINE
5
210
100
AcDbEntity
8
0
100
AcDbLine
10
56.110320499999986
20
-108.28053600000003
30
0
11
55.31383550000001
21
-108.79402400000001
31
0
0
LINE
5
211
100
AcDbEntity
8
0
100
AcDbLine
10
55.31383550000001
20
-108.79402400000001
30
0
11
54.496389500000006
21
-109.26559499999999
31
0
0
LINE
5
212
100
AcDbEntity
8
0
100
AcDbLine
10
54.496389500000006
20
-109.26559499999999
30
0
11
53.6527435
21
-109.70048800000002
31
0
0
LINE
5
213
100
AcDbEntity
8
0
100
AcDbLine
10
53.6527435
20
-109.70048800000002
30
0
11
52.7881365
21
-110.09346400000001
31
0
0
LINE
5
214
100
AcDbEntity
8
0
100
AcDbLine
10
52.7881365
20
-110.09346400000001
30
0
11
51.902570500000031
21
-110.44452199999998
31
0
0
LINE
5
215
100
AcDbEntity
8
0
100
AcDbLine
10
51.902570500000031
20
-110.44452199999998
30
0
11
50.996044500000011
21
-110.75366300000002
31
0
0
LINE
5
216
100
AcDbEntity
8
0
100
AcDbLine
10
50.996044500000011
20
-110.75366300000002
30
0
11
50.068557500000033
21
-111.02088700000003
31
0
0
LINE
5
217
100
AcDbEntity
8
0
100
AcDbLine
10
50.068557500000033
20
-111.02088700000003
30
0
11
49.125350500000025
21
-111.240953
31
0
0
LINE
5
218
100
AcDbEntity
8
0
100
AcDbLine
10
49.125350500000025
20
-111.240953
30
0
11
48.166423499999986
21
-111.41386300000001
31
0
0
LINE
5
219
100
AcDbEntity
8
0
100
AcDbLine
10
48.166423499999986
20
-111.41386300000001
30
0
11
47.191776500000024
21
-111.53961500000001
31
0
0
LINE
5
220
100
AcDbEntity
8
0
100
AcDbLine
10
47.191776500000024
20
-111.53961500000001
30
0
11
46.201409499999997
21
-111.61297000000002
31
0
0
LINE
5
221
100
AcDbEntity
8
0
100
AcDbLine
10
46.201409499999997
20
-111.61297000000002
30
0
11
45.19532250000001
21
-111.63916900000001
31
0
0
LINE
5
222
100
AcDbEntity
8
0
100
AcDbLine
10
45.19532250000001
20
-111.63916900000001
30
0
11
-77.452994500000017
21
-111.63916900000001
31
0
0
LINE
5
223
100
AcDbEntity
8
0
100
AcDbLine
10
-77.452994500000017
20
-111.63916900000001
30
0
11
-77.452994500000003
21
-111.6495115530327
31
0
0
LINE
5
224
100
AcDbEntity
8
0
100
AcDbLine
10
-77.452994500000003
20
-111.6495115530327
30
0
11
-78.453841499999996
21
-111.62345000000001
31
0
0
LINE
5
225
100
AcDbEntity
8
0
100
AcDbLine
10
-78.453841499999996
20
-111.62345000000001
30
0
11
-79.444208500000002
21
-111.55009399999999
31
0
0
LINE
5
226
100
AcDbEntity
8
0
100
AcDbLine
10
-79.444208500000002
20
-111.55009399999999
30
0
11
-80.418855500000006
21
-111.424342
31
0
0
LINE
5
227
100
AcDbEntity
8
0
100
AcDbLine
10
-80.418855500000006
20
-111.424342
30
0
11
-81.377782499999995
21
-111.25143300000002
31
0
0
LINE
5
228
100
AcDbEntity
8
0
100
AcDbLine
10
-81.377782499999995
20
-111.25143300000002
30
0
11
-82.320988499999999
21
-111.03136600000002
31
0
0
LINE
5
229
100
AcDbEntity
8
0
100
AcDbLine
10
-82.320988499999999
20
-111.03136600000002
30
0
11
-83.248475499999998
21
-110.76414299999999
31
0
0
LINE
5
230
100
AcDbEntity
8
0
100
AcDbLine
10
-83.248475499999998
20
-110.76414299999999
30
0
11
-84.155002500000009
21
-110.45500200000004
31
0
0
LINE
5
231
100
AcDbEntity
8
0
100
AcDbLine
10
-84.155002500000009
20
-110.45500200000004
30
0
11
-85.040568500000006
21
-110.103943
31
0
0
LINE
5
232
100
AcDbEntity
8
0
100
AcDbLine
10
-85.040568500000006
20
-110.103943
30
0
11
-85.905174500000001
21
-109.71096799999999
31
0
0
LINE
5
233
100
AcDbEntity
8
0
100
AcDbLine
10
-85.905174500000001
20
-109.71096799999999
30
0
11
-86.748820500000008
21
-109.27607500000001
31
0
0
LINE
5
234
100
AcDbEntity
8
0
100
AcDbLine
10
-86.748820500000008
20
-109.27607500000001
30
0
11
-87.566266500000012
21
-108.80450400000002
31
0
0
LINE
5
235
100
AcDbEntity
8
0
100
AcDbLine
10
-87.566266500000012
20
-108.80450400000002
30
0
11
-88.362752499999999
21
-108.29101500000004
31
0
0
LINE
5
236
100
AcDbEntity
8
0
100
AcDbLine
10
-88.362752499999999
20
-108.29101500000004
30
0
11
-89.1330375
21
-107.74084900000003
31
0
0
LINE
5
237
100
AcDbEntity
8
0
100
AcDbLine
10
-89.1330375
20
-107.74084900000003
30
0
11
-89.871882500000012
21
-107.15924500000001
31
0
0
LINE
5
238
100
AcDbEntity
8
0
100
AcDbLine
10
-89.871882500000012
20
-107.15924500000001
30
0
11
-90.584528499999976
21
-106.54096300000003
31
0
0
LINE
5
239
100
AcDbEntity
8
0
100
AcDbLine
10
-90.584528499999976
20
-106.54096300000003
30
0
11
-91.265732499999999
21
-105.89124400000001
31
0
0
LINE
5
240
100
AcDbEntity
8
0
100
AcDbLine
10
-91.265732499999999
20
-105.89124400000001
30
0
11
-91.915497500000001
21
-105.210086
31
0
0
LINE
5
241
100
AcDbEntity
8
0
100
AcDbLine
10
-91.915497500000001
20
-105.210086
30
0
11
-92.533821500000002
21
-104.49749
31
0
0
LINE
5
242
100
AcDbEntity
8
0
100
AcDbLine
10
-92.533821500000002
20
-104.49749
30
0
11
-93.115466499999997
21
-103.758695
31
0
0
LINE
5
243
100
AcDbEntity
8
0
100
AcDbLine
10
-93.115466499999997
20
-103.758695
30
0
11
-93.665670500000004
21
-102.98846300000001
31
0
0
LINE
5
244
100
AcDbEntity
8
0
100
AcDbLine
10
-93.665670500000004
20
-102.98846300000001
30
0
11
-94.179193500000025
21
-102.19203200000003
31
0
0
LINE
5
245
100
AcDbEntity
8
0
100
AcDbLine
10
-94.179193500000025
20
-102.19203200000003
30
0
11
-94.65079750000001
21
-101.37464199999999
31
0
0
LINE
5
246
100
AcDbEntity
8
0
100
AcDbLine
10
-94.65079750000001
20
-101.37464199999999
30
0
11
-95.085720500000008
21
-100.531054
31
0
0
LINE
5
247
100
AcDbEntity
8
0
100
AcDbLine
10
-95.085720500000008
20
-100.531054
30
0
11
-95.478723500000001
21
-99.661267999999993
31
0
0
LINE
5
248
100
AcDbEntity
8
0
100
AcDbLine
10
-95.478723500000001
20
-99.661267999999993
30
0
11
-95.829805500000006
21
-98.775763000000026
31
0
0
LINE
5
249
100
AcDbEntity
8
0
100
AcDbLine
10
-95.829805500000006
20
-98.775763000000026
30
0
11
-96.138967500000007
21
-97.869299000000012
31
0
0
LINE
5
250
100
AcDbEntity
8
0
100
AcDbLine
10
-96.138967500000007
20
-97.869299000000012
30
0
11
-96.406209500000003
21
-96.941875999999993
31
0
0
LINE
5
251
100
AcDbEntity
8
0
100
AcDbLine
10
-96.406209500000003
20
-96.941875999999993
30
0
11
-96.626291500000008
21
-95.998734000000042
31
0
0
LINE
5
252
100
AcDbEntity
8
0
100
AcDbLine
10
-96.626291500000008
20
-95.998734000000042
30
0
11
-96.79921250000001
21
-95.039873000000028
31
0
0
LINE
5
253
100
AcDbEntity
8
0
100
AcDbLine
10
-96.79921250000001
20
-95.039873000000028
30
0
11
-96.924973499999993
21
-94.065292999999997
31
0
0
LINE
5
254
100
AcDbEntity
8
0
100
AcDbLine
10
-96.924973499999993
20
-94.065292999999997
30
0
11
-96.988262358174353
21
-93.210946903048665
31
0
0
LINE
5
255
100
AcDbEntity
8
0
100
AcDbLine
10
-96.988262358174353
20
-93.210946903048665
30
0
11
-96.945933499999995
21
-93.211226000000011
31
0
0
LINE
5
256
100
AcDbEntity
8
0
100
AcDbLine
10
-96.945933499999995
20
-93.211226000000011
30
0
11
-73.329084500000008
21
-93.205987000000022
31
0
0
LINE
5
257
100
AcDbEntity
8
0
100
AcDbLine
10
-73.329084500000008
20
-93.205987000000022
30
0
11
-70.960587499999988
21
-83.119609000000011
31
0
0
LINE
5
258
100
AcDbEntity
8
0
100
AcDbLine
10
-70.960587499999988
20
-83.119609000000011
30
0
11
-66.204740172762001
21
-83.119609000000011
31
0
0
LINE
5
259
100
AcDbEntity
8
0
100
AcDbLine
10
-66.204740172762001
20
-83.119609000000011
30
0
11
-66.207873499999991
21
-83.114369000000011
31
0
0
LINE
5
260
100
AcDbEntity
8
0
100
AcDbLine
10
-66.207873499999991
20
-83.114369000000011
30
0
11
-66.186913500000003
21
-83.119609000000011
31
0
0
LINE
5
261
100
AcDbEntity
8
0
100
AcDbLine
10
-66.186913500000003
20
-83.119609000000011
30
0
11
-66.204740172762001
21
-83.119609000000011
31
0
0
LINE
5
262
100
AcDbEntity
8
0
100
AcDbLine
10
-66.204740172762001
20
-83.119609000000011
30
0
11
-60.176590499999996
21
-93.200747000000007
31
0
0
LINE
5
263
100
AcDbEntity
8
0
100
AcDbLine
10
-60.176590499999996
20
-93.200747000000007
30
0
11
-50.529681500000009
21
-93.200747000000007
31
0
0
LINE
5
264
100
AcDbEntity
8
0
100
AcDbLine
10
-50.529681500000009
20
-93.200747000000007
30
0
11
-52.599496499999994
21
-101.704742
31
0
0
SPLINE
5
265
100
AcDbEntity
8
0
100
AcDbSpline
70
0
71
3
72
8
73
4
74
0
42
0.000000001
43
0.0000000001
44
0.0000000001
40
-1
40
-1
40
-1
40
-1
40
0
40
0
40
0
40
0
10
-52.599496499999994
20
-101.704742
30
0
10
-52.609976500000002
20
-101.75189899999999
30
0
10
-46.751614499999988
20
-101.704742
30
0
10
-46.002289500000003
20
-101.704742
30
0
0
LINE
5
266
100
AcDbEntity
8
0
100
AcDbLine
10
-46.00228950000001
20
-101.704742
30
0
11
-43.963914499999994
21
-93.200747000000007
31
0
0
LINE
5
267
100
AcDbEntity
8
0
100
AcDbLine
10
-43.963914499999994
20
-93.200747000000007
30
0
11
-10.710636499999993
21
-93.200747000000007
31
0
0
LINE
5
268
100
AcDbEntity
8
0
100
AcDbLine
10
-10.710636499999993
20
-93.200747000000007
30
0
11
-10.710636499999993
21
-87.086044000000001
31
0
0
LINE
5
269
100
AcDbEntity
8
0
100
AcDbLine
10
-10.710636499999993
20
-87.086044000000001
30
0
11
-24.250893499999986
21
-87.086044000000001
31
0
0
LINE
5
270
100
AcDbEntity
8
0
100
AcDbLine
10
-24.250893499999986
20
-87.086044000000001
30
0
11
-23.0352055
21
-82.124071000000001
31
0
0
SPLINE
5
271
100
AcDbEntity
8
0
100
AcDbSpline
70
0
71
3
72
8
73
4
74
0
42
0.000000001
43
0.0000000001
44
0.0000000001
40
-1
40
-1
40
-1
40
-1
40
0
40
0
40
0
40
0
10
-23.0352055
20
-82.124071000000001
30
0
10
-22.647442499999997
20
-80.34258100000001
30
0
10
-23.019484499999994
20
-78.775916999999993
30
0
10
-24.167053499999991
20
-77.418841000000015
30
0
0
SPLINE
5
272
100
AcDbEntity
8
0
100
AcDbSpline
70
0
71
3
72
8
73
4
74
0
42
0.000000001
43
0.0000000001
44
0.0000000001
40
-1
40
-1
40
-1
40
-1
40
0
40
0
40
0
40
0
10
-24.167053499999991
20
-77.418841000000015
30
0
10
-25.298901499999999
20
-76.056525000000022
30
0
10
-26.792311499999997
20
-75.375367000000011
30
0
10
-28.636805499999998
20
-75.375367000000011
30
0
0
LINE
5
273
100
AcDbEntity
8
0
100
AcDbLine
10
-28.636805499999998
20
-75.375367000000011
30
0
11
-41.595417499999989
21
-75.375367000000011
31
0
0
SPLINE
5
274
100
AcDbEntity
8
0
100
AcDbSpline
70
0
71
3
72
8
73
4
74
0
42
0.000000001
43
0.0000000001
44
0.0000000001
40
-1
40
-1
40
-1
40
-1
40
0
40
0
40
0
40
0
10
-41.595417499999989
20
-75.375367000000011
30
0
10
-44.32023749999999
20
-75.375367000000011
30
0
10
-46.510572500000009
20
-76.732443000000004
30
0
10
-47.238938499999996
20
-79.724299000000002
30
0
0
LINE
5
275
100
AcDbEntity
8
0
100
AcDbLine
10
-47.238938499999996
20
-79.724298999999988
30
0
11
-49.025790499999999
21
-87.086044000000001
31
0
0
LINE
5
276
100
AcDbEntity
8
0
100
AcDbLine
10
-49.025790499999999
20
-87.086044000000001
30
0
11
-55.565357500000005
21
-87.086044000000001
31
0
0
LINE
5
277
100
AcDbEntity
8
0
100
AcDbLine
10
-55.565357500000005
20
-87.086044000000001
30
0
11
-57.923374499999987
21
-83.114369000000011
31
0
0
LINE
5
278
100
AcDbEntity
8
0
100
AcDbLine
10
-57.923374499999987
20
-83.114369000000011
30
0
11
-55.10947449999999
21
-83.114369000000011
31
0
0
SPLINE
5
279
100
AcDbEntity
8
0
100
AcDbSpline
70
0
71
3
72
8
73
4
74
0
42
0.000000001
43
0.0000000001
44
0.0000000001
40
-1
40
-1
40
-1
40
-1
40
0
40
0
40
0
40
0
10
-55.10947449999999
20
-83.114369000000011
30
0
10
-53.511262500000001
20
-83.114369000000011
30
0
10
-52.101692499999999
20
-82.63755900000001
30
0
10
-50.886004499999999
20
-81.683938000000012
30
0
0
SPLINE
5
280
100
AcDbEntity
8
0
100
AcDbSpline
70
0
71
3
72
8
73
4
74
0
42
0.000000001
43
0.0000000001
44
0.0000000001
40
-1
40
-1
40
-1
40
-1
40
0
40
0
40
0
40
0
10
-50.886004499999999
20
-81.683938000000012
30
0
10
-49.665075499999993
20
-80.714598000000009
30
0
10
-48.868589499999985
20
-79.488513000000012
30
0
10
-48.480827499999997
20
-77.989966000000024
30
0
0
LINE
5
281
100
AcDbEntity
8
0
100
AcDbLine
10
-48.480827499999997
20
-77.989966000000024
30
0
11
-46.568213499999999
21
-70.046616000000029
31
0
0
SPLINE
5
282
100
AcDbEntity
8
0
100
AcDbSpline
70
0
71
3
72
8
73
4
74
0
42
0.000000001
43
0.0000000001
44
0.0000000001
40
-1
40
-1
40
-1
40
-1
40
0
40
0
40
0
40
0
10
-46.568213499999999
20
-70.046616000000029
30
0
10
-46.117570499999999
20
-67.945506000000009
30
0
10
-46.557733499999983
20
-66.0959
30
0
10
-47.883462499999979
20
-64.487319000000014
30
0
0
SPLINE
5
283
100
AcDbEntity
8
0
100
AcDbSpline
70
0
71
3
72
8
73
4
74
0
42
0.000000001
43
0.0000000001
44
0.0000000001
40
-1
40
-1
40
-1
40
-1
40
0
40
0
40
0
40
0
10
-47.883462499999979
20
-64.487319000000014
30
0
10
-49.209192499999986
20
-62.868259000000002
30
0
10
-50.943644500000005
20
-62.066589000000008
30
0
10
-53.076339499999996
20
-62.066589000000008
30
0
0
LINE
5
284
100
AcDbEntity
8
0
100
AcDbLine
10
-53.076339499999996
20
-62.066589000000015
30
0
11
-68.172887500000002
21
-62.066589000000008
31
0
0
SPLINE
5
285
100
AcDbEntity
8
0
100
AcDbSpline
70
0
71
3
72
8
73
4
74
0
42
0.000000001
43
0.0000000001
44
0.0000000001
40
-1
40
-1
40
-1
40
-1
40
0
40
0
40
0
40
0
10
-68.172887500000002
20
-62.066589000000008
30
0
10
-71.343110500000009
20
-62.066589000000008
30
0
10
-73.90548849999999
20
-63.664690000000007
30
0
10
-74.754374499999997
20
-67.185753000000005
30
0
0
LINE
5
286
100
AcDbEntity
8
0
100
AcDbLine
10
-74.754374499999983
20
-67.185753000000005
30
0
11
-79.5804495
21
-87.154160000000019
31
0
0
LINE
5
287
100
AcDbEntity
8
0
100
AcDbLine
10
-79.5804495
20
-87.154160000000019
30
0
11
-97.024508516994231
21
-87.164686415183098
31
0
0
LWPOLYLINE
5
288
100
AcDbEntity
8
0
100
AcDbPolyline
90
15
70
1
43
0.0
10
23.590648500000011
20
7.2176549999999962
10
36.716942500000016
20
7.2176549999999962
10
36.716942500000016
20
-18.587752000000002
10
23.590648500000011
20
-18.587752000000002
10
23.590648500000011
20
-30.749042000000017
10
8.4783805000000001
20
-30.749042000000017
10
-8.6617824999999904
20
-37.812125999999999
10
-8.6617824999999904
20
-30.749042000000017
10
-23.590649499999987
20
-30.749042000000017
10
-23.590649499999987
20
-18.587752000000002
10
-36.716942500000002
20
-18.587752000000002
10
-36.716942500000002
20
7.2176549999999962
10
-23.590649499999987
20
7.2176549999999962
10
-23.590649499999987
20
37.812125999999999
10
23.590648500000011
20
37.812125999999999
0
LWPOLYLINE
5
289
100
AcDbEntity
8
0
100
AcDbPolyline
90
4
70
1
43
0.0
10
-8.6617824999999904
20
-58.110633000000007
10
-8.6617824999999904
20
-48.29147900000001
10
8.4783805000000001
20
-34.521609000000012
10
8.4783805000000001
20
-44.34076300000001
0
LWPOLYLINE
5
290
100
AcDbEntity
8
0
100
AcDbPolyline
90
4
70
1
43
0.0
10
-8.6617824999999904
20
-66.944728000000012
10
8.4783805000000001
20
-53.174858000000015
10
8.4783805000000001
20
-62.994011000000008
10
-8.6617824999999904
20
-76.763880999999998
0
LWPOLYLINE
5
291
100
AcDbEntity
8
0
100
AcDbPolyline
90
5
70
1
43
0.0
10
-1.2628494999999873
20
-93.043557000000007
10
-8.6670224999999768
20
-93.043557000000007
10
-8.6722624999999987
20
-87.725285000000014
10
8.4783805000000001
20
-73.850621000000004
10
8.4783805000000001
20
-85.220719000000003
0
LINE
5
292
100
AcDbEntity
8
0
100
AcDbLine
10
-97.024508516994231
20
-87.164686415183098
30
0
11
-97.029501582140682
21
30.570892999999998
31
0
0
ENDSEC
0
SECTION
2
OBJECTS
0
DICTIONARY
5
C
100
AcDbDictionary
3
ACAD_GROUP
350
D
3
ACAD_MLINESTYLE
350
17
0
DICTIONARY
5
D
100
AcDbDictionary
0
DICTIONARY
5
1A
330
C
100
AcDbDictionary
0
DICTIONARY
5
17
100
AcDbDictionary
0
ENDSEC
0
EOF
