  0
SECTION
  2
HEADER
  9
$ACADVER
  1
AC1014
  9
$HANDSEED
  5
FFFF
  9
$MEASUREMENT
 70
     1
  0
ENDSEC
  0
SECTION
  2
TABLES
  0
TABLE
  2
VPORT
  5
8
330
0
100
AcDbSymbolTable
 70
     4
  0
VPORT
  5
2E
330
8
100
AcDbSymbolTableRecord
100
AcDbViewportTableRecord
  2
*ACTIVE
 70
     0
 10
0.0
 20
0.0
 11
1.0
 21
1.0
 12
210.0
 22
148.5
 13
0.0
 23
0.0
 14
10.0
 24
10.0
 15
10.0
 25
10.0
 16
0.0
 26
0.0
 36
1.0
 17
0.0
 27
0.0
 37
0.0
 40
341.0
 41
1.24
 42
50.0
 43
0.0
 44
0.0
 50
0.0
 51
0.0
 71
     0
 72
   100
 73
     1
 74
     3
 75
     0
 76
     0
 77
     0
 78
     0
  0
ENDTAB
  0
TABLE
  2
LTYPE
  5
5
330
0
100
AcDbSymbolTable
 70
     1
  0
LTYPE
  5
14
330
5
100
AcDbSymbolTableRecord
100
AcDbLinetypeTableRecord
  2
BYBLOCK
 70
     0
  3

 72
    65
 73
     0
 40
0.0
  0
LTYPE
  5
15
330
5
100
AcDbSymbolTableRecord
100
AcDbLinetypeTableRecord
  2
BYLAYER
 70
     0
  3

 72
    65
 73
     0
 40
0.0
  0
LTYPE
  5
16
330
5
100
AcDbSymbolTableRecord
100
AcDbLinetypeTableRecord
  2
CONTINUOUS
 70
     0
  3
Solid line
 72
    65
 73
     0
 40
0.0
  0
ENDTAB
  0
TABLE
  2
LAYER
  5
2
100
AcDbSymbolTable
 70
1
  0
LAYER
  5
50
100
AcDbSymbolTableRecord
100
AcDbLayerTableRecord
  2
0
 70
0
  6
CONTINUOUS
  0
ENDTAB
  0
TABLE
  2
STYLE
  5
3
330
0
100
AcDbSymbolTable
 70
     1
  0
STYLE
  5
11
330
3
100
AcDbSymbolTableRecord
100
AcDbTextStyleTableRecord
  2
STANDARD
 70
     0
 40
0.0
 41
1.0
 50
0.0
 71
     0
 42
2.5
  3
txt
  4

  0
ENDTAB
  0
TABLE
  2
VIEW
  5
6
330
0
100
AcDbSymbolTable
 70
     0
  0
ENDTAB
  0
TABLE
  2
UCS
  5
7
330
0
100
AcDbSymbolTable
 70
     0
  0
ENDTAB
  0
TABLE
  2
APPID
  5
9
330
0
100
AcDbSymbolTable
 70
     2
  0
APPID
  5
12
330
9
100
AcDbSymbolTableRecord
100
AcDbRegAppTableRecord
  2
ACAD
 70
     0
  0
ENDTAB
  0
TABLE
  2
DIMSTYLE
  5
A
330
0
100
AcDbSymbolTable
 70
     1
  0
DIMSTYLE
105
27
330
A
100
AcDbSymbolTableRecord
100
AcDbDimStyleTableRecord
  2
ISO-25
 70
     0
  3

  4

  5

  6

  7

 40
1.0
 41
2.5
 42
0.625
 43
3.75
 44
1.25
 45
0.0
 46
0.0
 47
0.0
 48
0.0
140
2.5
141
2.5
142
0.0
143
0.03937007874016
144
1.0
145
0.0
146
1.0
147
0.625
 71
     0
 72
     0
 73
     0
 74
     0
 75
     0
 76
     0
 77
     1
 78
     8
170
     0
171
     3
172
     1
173
     0
174
     0
175
     0
176
     0
177
     0
178
     0
270
     2
271
     2
272
     2
273
     2
274
     3
340
11
275
     0
280
     0
281
     0
282
     0
283
     0
284
     8
285
     0
286
     0
287
     3
288
     0
  0
ENDTAB
  0
TABLE
  2
BLOCK_RECORD
  5
1
330
0
100
AcDbSymbolTable
 70
     1
  0
BLOCK_RECORD
  5
1F
330
1
100
AcDbSymbolTableRecord
100
AcDbBlockTableRecord
  2
*MODEL_SPACE
  0
BLOCK_RECORD
  5
1B
330
1
100
AcDbSymbolTableRecord
100
AcDbBlockTableRecord
  2
*PAPER_SPACE
  0
ENDTAB
  0
ENDSEC
  0
SECTION
  2
BLOCKS
  0
BLOCK
  5
20
330
1F
100
AcDbEntity
  8
0
100
AcDbBlockBegin
  2
*MODEL_SPACE
 70
     0
 10
0.0
 20
0.0
 30
0.0
  3
*MODEL_SPACE
  1

  0
ENDBLK
  5
21
330
1F
100
AcDbEntity
  8
0
100
AcDbBlockEnd
  0
BLOCK
  5
1C
330
1B
100
AcDbEntity
 67
     1
  8
0
100
AcDbBlockBegin
  2
*PAPER_SPACE
  1

  0
ENDBLK
  5
1D
330
1B
100
AcDbEntity
 67
     1
  8
0
100
AcDbBlockEnd
  0
ENDSEC
  0
SECTION
  2
ENTITIES
  0
SPLINE
  5
100
100
AcDbEntity
  8
0
 62
7
100
AcDbSpline
 70
8
 71
3
 72
8
 73
4
 74
0
 40
0
 40
0
 40
0
 40
0
 40
1
 40
1
 40
1
 40
1
 10
61.506873
 20
82.778325
 30
0.0
 10
57.458711
 20
82.778325
 30
0.0
 10
55.341451
 20
82.748639
 30
0.0
 10
55.231803
 20
82.689957
 30
0.0
  0
SPLINE
  5
101
100
AcDbEntity
  8
0
 62
7
100
AcDbSpline
 70
8
 71
3
 72
8
 73
4
 74
0
 40
0
 40
0
 40
0
 40
0
 40
1
 40
1
 40
1
 40
1
 10
55.231803
 20
82.689957
 30
0.0
 10
55.110634
 20
82.625110
 30
0.0
 10
55.065922
 20
82.509926
 30
0.0
 10
55.065922
 20
82.260009
 30
0.0
  0
SPLINE
  5
102
100
AcDbEntity
  8
0
 62
7
100
AcDbSpline
 70
8
 71
3
 72
8
 73
4
 74
0
 40
0
 40
0
 40
0
 40
0
 40
1
 40
1
 40
1
 40
1
 10
55.065922
 20
82.260009
 30
0.0
 10
55.065922
 20
81.979878
 30
0.0
 10
55.029830
 20
81.904528
 30
0.0
 10
54.863868
 20
81.841430
 30
0.0
  0
SPLINE
  5
103
100
AcDbEntity
  8
0
 62
7
100
AcDbSpline
 70
8
 71
3
 72
8
 73
4
 74
0
 40
0
 40
0
 40
0
 40
0
 40
1
 40
1
 40
1
 40
1
 10
54.863868
 20
81.841430
 30
0.0
 10
54.752640
 20
81.799139
 30
0.0
 10
54.636982
 20
81.700881
 30
0.0
 10
54.607034
 20
81.622839
 30
0.0
  0
SPLINE
  5
104
100
AcDbEntity
  8
0
 62
7
100
AcDbSpline
 70
8
 71
3
 72
8
 73
4
 74
0
 40
0
 40
0
 40
0
 40
0
 40
1
 40
1
 40
1
 40
1
 10
54.607034
 20
81.622839
 30
0.0
 10
54.515618
 20
81.384603
 30
0.0
 10
54.546145
 20
81.007754
 30
0.0
 10
54.664912
 20
80.909186
 30
0.0
  0
SPLINE
  5
105
100
AcDbEntity
  8
0
 62
7
100
AcDbSpline
 70
8
 71
3
 72
8
 73
4
 74
0
 40
0
 40
0
 40
0
 40
0
 40
1
 40
1
 40
1
 40
1
 10
54.664912
 20
80.909186
 30
0.0
 10
54.728840
 20
80.856130
 30
0.0
 10
55.236314
 20
80.805613
 30
0.0
 10
55.841585
 20
80.791881
 30
0.0
  0
LWPOLYLINE
  5
106
100
AcDbEntity
  8
0
 62
7
100
AcDbPolyline
 90
3
 70
0
 10
61.508460
 20
82.779912
 30
0.0
 10
61.507931
 20
82.778854
 30
0.0
 10
61.506873
 20
82.778325
 30
0.0
  0
SPLINE
  5
107
100
AcDbEntity
  8
0
 62
7
100
AcDbSpline
 70
8
 71
3
 72
8
 73
4
 74
0
 40
0
 40
0
 40
0
 40
0
 40
1
 40
1
 40
1
 40
1
 10
56.415191
 20
78.506746
 30
0.0
 10
55.329172
 20
77.368924
 30
0.0
 10
55.055582
 20
77.099134
 30
0.0
 10
54.795650
 20
76.907361
 30
0.0
  0
LWPOLYLINE
  5
108
100
AcDbEntity
  8
0
 62
7
100
AcDbPolyline
 90
5
 70
0
 10
55.841585
 20
80.791881
 30
0.0
 10
56.905602
 20
80.767592
 30
0.0
 10
56.885440
 20
79.873073
 30
0.0
 10
56.865808
 20
78.979070
 30
0.0
 10
56.415191
 20
78.506746
 30
0.0
  0
SPLINE
  5
109
100
AcDbEntity
  8
0
 62
7
100
AcDbSpline
 70
8
 71
3
 72
8
 73
4
 74
0
 40
0
 40
0
 40
0
 40
0
 40
1
 40
1
 40
1
 40
1
 10
51.645973
 20
76.703240
 30
0.0
 10
49.126537
 20
76.703240
 30
0.0
 10
48.746378
 20
76.720835
 30
0.0
 10
48.560889
 20
76.843800
 30
0.0
  0
SPLINE
  5
10a
100
AcDbEntity
  8
0
 62
7
100
AcDbSpline
 70
8
 71
3
 72
8
 73
4
 74
0
 40
0
 40
0
 40
0
 40
0
 40
1
 40
1
 40
1
 40
1
 10
48.560889
 20
76.843800
 30
0.0
 10
48.444536
 20
76.920931
 30
0.0
 10
47.897367
 20
77.430389
 30
0.0
 10
47.344425
 20
77.976029
 30
0.0
  0
LWPOLYLINE
  5
10b
100
AcDbEntity
  8
0
 62
7
100
AcDbPolyline
 90
3
 70
0
 10
54.795650
 20
76.907361
 30
0.0
 10
54.519700
 20
76.703240
 30
0.0
 10
51.645973
 20
76.703240
 30
0.0
  0
SPLINE
  5
10c
100
AcDbEntity
  8
0
 62
7
100
AcDbSpline
 70
8
 71
3
 72
8
 73
4
 74
0
 40
0
 40
0
 40
0
 40
0
 40
1
 40
1
 40
1
 40
1
 10
47.397654
 20
80.810484
 30
0.0
 10
48.595015
 20
80.810484
 30
0.0
 10
48.677182
 20
80.848319
 30
0.0
 10
48.633237
 20
81.382023
 30
0.0
  0
SPLINE
  5
10d
100
AcDbEntity
  8
0
 62
7
100
AcDbSpline
 70
8
 71
3
 72
8
 73
4
 74
0
 40
0
 40
0
 40
0
 40
0
 40
1
 40
1
 40
1
 40
1
 10
48.633237
 20
81.382023
 30
0.0
 10
48.613129
 20
81.626070
 30
0.0
 10
48.556415
 20
81.730511
 30
0.0
 10
48.409995
 20
81.794403
 30
0.0
  0
SPLINE
  5
10e
100
AcDbEntity
  8
0
 62
7
100
AcDbSpline
 70
8
 71
3
 72
8
 73
4
 74
0
 40
0
 40
0
 40
0
 40
0
 40
1
 40
1
 40
1
 40
1
 10
48.409995
 20
81.794403
 30
0.0
 10
48.206009
 20
81.883414
 30
0.0
 10
48.083626
 20
82.176919
 30
0.0
 10
48.163499
 20
82.385064
 30
0.0
  0
SPLINE
  5
10f
100
AcDbEntity
  8
0
 62
7
100
AcDbSpline
 70
8
 71
3
 72
8
 73
4
 74
0
 40
0
 40
0
 40
0
 40
0
 40
1
 40
1
 40
1
 40
1
 10
48.163499
 20
82.385064
 30
0.0
 10
48.188925
 20
82.451337
 30
0.0
 10
48.138628
 20
82.569587
 30
0.0
 10
48.051876
 20
82.648097
 30
0.0
  0
SPLINE
  5
110
100
AcDbEntity
  8
0
 62
7
100
AcDbSpline
 70
8
 71
3
 72
8
 73
4
 74
0
 40
0
 40
0
 40
0
 40
0
 40
1
 40
1
 40
1
 40
1
 10
48.051876
 20
82.648097
 30
0.0
 10
47.911274
 20
82.775340
 30
0.0
 10
47.649511
 20
82.788075
 30
0.0
 10
45.640654
 20
82.763336
 30
0.0
  0
SPLINE
  5
111
100
AcDbEntity
  8
0
 62
7
100
AcDbSpline
 70
8
 71
3
 72
8
 73
4
 74
0
 40
0
 40
0
 40
0
 40
0
 40
1
 40
1
 40
1
 40
1
 10
45.640654
 20
82.763336
 30
0.0
 10
43.075521
 20
82.731737
 30
0.0
 10
42.897187
 20
82.692108
 30
0.0
 10
42.269802
 20
82.014026
 30
0.0
  0
SPLINE
  5
112
100
AcDbEntity
  8
0
 62
7
100
AcDbSpline
 70
8
 71
3
 72
8
 73
4
 74
0
 40
0
 40
0
 40
0
 40
0
 40
1
 40
1
 40
1
 40
1
 10
42.269802
 20
82.014026
 30
0.0
 10
41.772284
 20
81.476305
 30
0.0
 10
41.661588
 20
81.116972
 30
0.0
 10
41.703427
 20
80.172795
 30
0.0
  0
SPLINE
  5
113
100
AcDbEntity
  8
0
 62
7
100
AcDbSpline
 70
8
 71
3
 72
8
 73
4
 74
0
 40
0
 40
0
 40
0
 40
0
 40
1
 40
1
 40
1
 40
1
 10
41.703427
 20
80.172795
 30
0.0
 10
41.725784
 20
79.668431
 30
0.0
 10
41.875342
 20
79.904389
 30
0.0
 10
41.917885
 20
80.511277
 30
0.0
  0
SPLINE
  5
114
100
AcDbEntity
  8
0
 62
7
100
AcDbSpline
 70
8
 71
3
 72
8
 73
4
 74
0
 40
0
 40
0
 40
0
 40
0
 40
1
 40
1
 40
1
 40
1
 10
41.917885
 20
80.511277
 30
0.0
 10
41.963308
 20
81.159289
 30
0.0
 10
42.109520
 20
81.700423
 30
0.0
 10
42.277551
 20
81.839877
 30
0.0
  0
SPLINE
  5
115
100
AcDbEntity
  8
0
 62
7
100
AcDbSpline
 70
8
 71
3
 72
8
 73
4
 74
0
 40
0
 40
0
 40
0
 40
0
 40
1
 40
1
 40
1
 40
1
 10
42.277551
 20
81.839877
 30
0.0
 10
42.289272
 20
81.849587
 30
0.0
 10
42.300385
 20
81.855487
 30
0.0
 10
42.311659
 20
81.861573
 30
0.0
  0
SPLINE
  5
116
100
AcDbEntity
  8
0
 62
7
100
AcDbSpline
 70
8
 71
3
 72
8
 73
4
 74
0
 40
0
 40
0
 40
0
 40
0
 40
1
 40
1
 40
1
 40
1
 10
42.311659
 20
81.861573
 30
0.0
 10
42.313775
 20
81.864721
 30
0.0
 10
42.315257
 20
81.868214
 30
0.0
 10
42.317850
 20
81.870886
 30
0.0
  0
SPLINE
  5
117
100
AcDbEntity
  8
0
 62
7
100
AcDbSpline
 70
8
 71
3
 72
8
 73
4
 74
0
 40
0
 40
0
 40
0
 40
0
 40
1
 40
1
 40
1
 40
1
 10
42.317850
 20
81.870886
 30
0.0
 10
42.321316
 20
81.874431
 30
0.0
 10
42.326343
 20
81.874855
 30
0.0
 10
42.330762
 20
81.877077
 30
0.0
  0
SPLINE
  5
118
100
AcDbEntity
  8
0
 62
7
100
AcDbSpline
 70
8
 71
3
 72
8
 73
4
 74
0
 40
0
 40
0
 40
0
 40
0
 40
1
 40
1
 40
1
 40
1
 10
42.330762
 20
81.877077
 30
0.0
 10
42.337852
 20
81.878400
 30
0.0
 10
42.340763
 20
81.878136
 30
0.0
 10
42.343673
 20
81.878665
 30
0.0
  0
SPLINE
  5
119
100
AcDbEntity
  8
0
 62
7
100
AcDbSpline
 70
8
 71
3
 72
8
 73
4
 74
0
 40
0
 40
0
 40
0
 40
0
 40
1
 40
1
 40
1
 40
1
 10
42.343673
 20
81.878665
 30
0.0
 10
42.344732
 20
81.881311
 30
0.0
 10
42.344202
 20
81.882051
 30
0.0
 10
42.345790
 20
81.885385
 30
0.0
  0
SPLINE
  5
11a
100
AcDbEntity
  8
0
 62
7
100
AcDbSpline
 70
8
 71
3
 72
8
 73
4
 74
0
 40
0
 40
0
 40
0
 40
0
 40
1
 40
1
 40
1
 40
1
 10
42.345790
 20
81.885385
 30
0.0
 10
42.349653
 20
81.899408
 30
0.0
 10
42.351849
 20
81.911994
 30
0.0
 10
42.371613
 20
81.921556
 30
0.0
  0
SPLINE
  5
11b
100
AcDbEntity
  8
0
 62
7
100
AcDbSpline
 70
8
 71
3
 72
8
 73
4
 74
0
 40
0
 40
0
 40
0
 40
0
 40
1
 40
1
 40
1
 40
1
 10
42.371613
 20
81.921556
 30
0.0
 10
42.372672
 20
81.922086
 30
0.0
 10
42.373730
 20
81.921292
 30
0.0
 10
42.374709
 20
81.921556
 30
0.0
  0
SPLINE
  5
11c
100
AcDbEntity
  8
0
 62
7
100
AcDbSpline
 70
8
 71
3
 72
8
 73
4
 74
0
 40
0
 40
0
 40
0
 40
0
 40
1
 40
1
 40
1
 40
1
 10
42.374709
 20
81.921556
 30
0.0
 10
42.388123
 20
81.954576
 30
0.0
 10
42.376032
 20
81.937855
 30
0.0
 10
42.402099
 20
81.955664
 30
0.0
  0
SPLINE
  5
11d
100
AcDbEntity
  8
0
 62
7
100
AcDbSpline
 70
8
 71
3
 72
8
 73
4
 74
0
 40
0
 40
0
 40
0
 40
0
 40
1
 40
1
 40
1
 40
1
 10
42.402099
 20
81.955664
 30
0.0
 10
42.404744
 20
81.957516
 30
0.0
 10
42.396093
 20
81.953547
 30
0.0
 10
42.393314
 20
81.952039
 30
0.0
  0
SPLINE
  5
11e
100
AcDbEntity
  8
0
 62
7
100
AcDbSpline
 70
8
 71
3
 72
8
 73
4
 74
0
 40
0
 40
0
 40
0
 40
0
 40
1
 40
1
 40
1
 40
1
 10
42.393314
 20
81.952039
 30
0.0
 10
42.391991
 20
81.951245
 30
0.0
 10
42.390298
 20
81.949208
 30
0.0
 10
42.390219
 20
81.949393
 30
0.0
  0
SPLINE
  5
11f
100
AcDbEntity
  8
0
 62
7
100
AcDbSpline
 70
8
 71
3
 72
8
 73
4
 74
0
 40
0
 40
0
 40
0
 40
0
 40
1
 40
1
 40
1
 40
1
 10
42.390219
 20
81.949393
 30
0.0
 10
42.389954
 20
81.954658
 30
0.0
 10
42.392865
 20
81.959183
 30
0.0
 10
42.393844
 20
81.964369
 30
0.0
  0
SPLINE
  5
120
100
AcDbEntity
  8
0
 62
7
100
AcDbSpline
 70
8
 71
3
 72
8
 73
4
 74
0
 40
0
 40
0
 40
0
 40
0
 40
1
 40
1
 40
1
 40
1
 10
42.393844
 20
81.964369
 30
0.0
 10
42.403130
 20
81.986699
 30
0.0
 10
42.399638
 20
81.978577
 30
0.0
 10
42.417603
 20
81.997960
 30
0.0
  0
SPLINE
  5
121
100
AcDbEntity
  8
0
 62
7
100
AcDbSpline
 70
8
 71
3
 72
8
 73
4
 74
0
 40
0
 40
0
 40
0
 40
0
 40
1
 40
1
 40
1
 40
1
 10
42.417603
 20
81.997960
 30
0.0
 10
42.418397
 20
81.999018
 30
0.0
 10
42.414904
 20
81.996902
 30
0.0
 10
42.413978
 20
81.995843
 30
0.0
  0
SPLINE
  5
122
100
AcDbEntity
  8
0
 62
7
100
AcDbSpline
 70
8
 71
3
 72
8
 73
4
 74
0
 40
0
 40
0
 40
0
 40
0
 40
1
 40
1
 40
1
 40
1
 10
42.413978
 20
81.995843
 30
0.0
 10
42.411174
 20
81.992192
 30
0.0
 10
42.411253
 20
81.982958
 30
0.0
 10
42.406755
 20
81.983964
 30
0.0
  0
SPLINE
  5
123
100
AcDbEntity
  8
0
 62
7
100
AcDbSpline
 70
8
 71
3
 72
8
 73
4
 74
0
 40
0
 40
0
 40
0
 40
0
 40
1
 40
1
 40
1
 40
1
 10
42.406755
 20
81.983964
 30
0.0
 10
42.402495
 20
81.985022
 30
0.0
 10
42.409533
 20
81.992219
 30
0.0
 10
42.410883
 20
81.996373
 30
0.0
  0
SPLINE
  5
124
100
AcDbEntity
  8
0
 62
7
100
AcDbSpline
 70
8
 71
3
 72
8
 73
4
 74
0
 40
0
 40
0
 40
0
 40
0
 40
1
 40
1
 40
1
 40
1
 10
42.410883
 20
81.996373
 30
0.0
 10
42.440148
 20
82.033139
 30
0.0
 10
42.425514
 20
82.010872
 30
0.0
 10
42.419667
 20
82.006189
 30
0.0
  0
SPLINE
  5
125
100
AcDbEntity
  8
0
 62
7
100
AcDbSpline
 70
8
 71
3
 72
8
 73
4
 74
0
 40
0
 40
0
 40
0
 40
0
 40
1
 40
1
 40
1
 40
1
 10
42.419667
 20
82.006189
 30
0.0
 10
42.415751
 20
82.003067
 30
0.0
 10
42.422948
 20
82.031271
 30
0.0
 10
42.423794
 20
82.034094
 30
0.0
  0
SPLINE
  5
126
100
AcDbEntity
  8
0
 62
7
100
AcDbSpline
 70
8
 71
3
 72
8
 73
4
 74
0
 40
0
 40
0
 40
0
 40
0
 40
1
 40
1
 40
1
 40
1
 10
42.423794
 20
82.034094
 30
0.0
 10
42.425911
 20
82.048752
 30
0.0
 10
42.435304
 20
82.054890
 30
0.0
 10
42.445490
 20
82.060447
 30
0.0
  0
SPLINE
  5
127
100
AcDbEntity
  8
0
 62
7
100
AcDbSpline
 70
8
 71
3
 72
8
 73
4
 74
0
 40
0
 40
0
 40
0
 40
0
 40
1
 40
1
 40
1
 40
1
 10
42.445490
 20
82.060447
 30
0.0
 10
42.444696
 20
82.060256
 30
0.0
 10
42.443638
 20
82.058595
 30
0.0
 10
42.443374
 20
82.059388
 30
0.0
  0
SPLINE
  5
128
100
AcDbEntity
  8
0
 62
7
100
AcDbSpline
 70
8
 71
3
 72
8
 73
4
 74
0
 40
0
 40
0
 40
0
 40
0
 40
1
 40
1
 40
1
 40
1
 10
42.443374
 20
82.059388
 30
0.0
 10
42.443202
 20
82.060711
 30
0.0
 10
42.445490
 20
82.061240
 30
0.0
 10
42.446469
 20
82.062034
 30
0.0
  0
SPLINE
  5
129
100
AcDbEntity
  8
0
 62
7
100
AcDbSpline
 70
8
 71
3
 72
8
 73
4
 74
0
 40
0
 40
0
 40
0
 40
0
 40
1
 40
1
 40
1
 40
1
 10
42.446469
 20
82.062034
 30
0.0
 10
42.446255
 20
82.061770
 30
0.0
 10
42.446437
 20
82.061505
 30
0.0
 10
42.445940
 20
82.060976
 30
0.0
  0
LWPOLYLINE
  5
12a
100
AcDbEntity
  8
0
 62
7
100
AcDbPolyline
 90
5
 70
0
 10
47.344425
 20
77.976029
 30
0.0
 10
46.338802
 20
78.968216
 30
0.0
 10
46.338802
 20
79.889091
 30
0.0
 10
46.338802
 20
80.810484
 30
0.0
 10
47.397654
 20
80.810484
 30
0.0
  0
SPLINE
  5
12b
100
AcDbEntity
  8
0
 62
7
100
AcDbSpline
 70
8
 71
3
 72
8
 73
4
 74
0
 40
0
 40
0
 40
0
 40
0
 40
1
 40
1
 40
1
 40
1
 10
42.445411
 20
82.060447
 30
0.0
 10
42.443823
 20
82.057457
 30
0.0
 10
42.442765
 20
82.052324
 30
0.0
 10
42.442765
 20
82.054255
 30
0.0
  0
SPLINE
  5
12c
100
AcDbEntity
  8
0
 62
7
100
AcDbSpline
 70
8
 71
3
 72
8
 73
4
 74
0
 40
0
 40
0
 40
0
 40
0
 40
1
 40
1
 40
1
 40
1
 10
42.442765
 20
82.054255
 30
0.0
 10
42.446152
 20
82.061796
 30
0.0
 10
42.449512
 20
82.061637
 30
0.0
 10
42.450517
 20
82.063569
 30
0.0
  0
LWPOLYLINE
  5
12d
100
AcDbEntity
  8
0
 62
7
100
AcDbPolyline
 90
2
 70
0
 10
42.445940
 20
82.060976
 30
0.0
 10
42.445411
 20
82.060447
 30
0.0
  0
SPLINE
  5
12e
100
AcDbEntity
  8
0
 62
7
100
AcDbSpline
 70
8
 71
3
 72
8
 73
4
 74
0
 40
0
 40
0
 40
0
 40
0
 40
1
 40
1
 40
1
 40
1
 10
42.451046
 20
82.063569
 30
0.0
 10
42.453163
 20
82.067299
 30
0.0
 10
42.451840
 20
82.068940
 30
0.0
 10
42.467080
 20
82.082169
 30
0.0
  0
SPLINE
  5
12f
100
AcDbEntity
  8
0
 62
7
100
AcDbSpline
 70
8
 71
3
 72
8
 73
4
 74
0
 40
0
 40
0
 40
0
 40
0
 40
1
 40
1
 40
1
 40
1
 10
42.467080
 20
82.082169
 30
0.0
 10
42.468139
 20
82.082963
 30
0.0
 10
42.464699
 20
82.081375
 30
0.0
 10
42.463985
 20
82.080582
 30
0.0
  0
SPLINE
  5
130
100
AcDbEntity
  8
0
 62
7
100
AcDbSpline
 70
8
 71
3
 72
8
 73
4
 74
0
 40
0
 40
0
 40
0
 40
0
 40
1
 40
1
 40
1
 40
1
 10
42.463985
 20
82.080582
 30
0.0
 10
42.461101
 20
82.077750
 30
0.0
 10
42.458746
 20
82.074443
 30
0.0
 10
42.456232
 20
82.071268
 30
0.0
  0
SPLINE
  5
131
100
AcDbEntity
  8
0
 62
7
100
AcDbSpline
 70
8
 71
3
 72
8
 73
4
 74
0
 40
0
 40
0
 40
0
 40
0
 40
1
 40
1
 40
1
 40
1
 10
42.456232
 20
82.071268
 30
0.0
 10
42.465360
 20
82.092408
 30
0.0
 10
42.470467
 20
82.092250
 30
0.0
 10
42.488271
 20
82.101240
 30
0.0
  0
LWPOLYLINE
  5
132
100
AcDbEntity
  8
0
 62
7
100
AcDbPolyline
 90
2
 70
0
 10
42.450517
 20
82.063569
 30
0.0
 10
42.451046
 20
82.063569
 30
0.0
  0
SPLINE
  5
133
100
AcDbEntity
  8
0
 62
7
100
AcDbSpline
 70
8
 71
3
 72
8
 73
4
 74
0
 40
0
 40
0
 40
0
 40
0
 40
1
 40
1
 40
1
 40
1
 10
42.488800
 20
82.101769
 30
0.0
 10
42.487477
 20
82.101240
 30
0.0
 10
42.484302
 20
82.099917
 30
0.0
 10
42.485175
 20
82.100711
 30
0.0
  0
SPLINE
  5
134
100
AcDbEntity
  8
0
 62
7
100
AcDbSpline
 70
8
 71
3
 72
8
 73
4
 74
0
 40
0
 40
0
 40
0
 40
0
 40
1
 40
1
 40
1
 40
1
 10
42.485175
 20
82.100711
 30
0.0
 10
42.487292
 20
82.102828
 30
0.0
 10
42.494515
 20
82.107934
 30
0.0
 10
42.492927
 20
82.105368
 30
0.0
  0
SPLINE
  5
135
100
AcDbEntity
  8
0
 62
7
100
AcDbSpline
 70
8
 71
3
 72
8
 73
4
 74
0
 40
0
 40
0
 40
0
 40
0
 40
1
 40
1
 40
1
 40
1
 10
42.492927
 20
82.105368
 30
0.0
 10
42.492134
 20
82.104045
 30
0.0
 10
42.490811
 20
82.103251
 30
0.0
 10
42.489832
 20
82.102272
 30
0.0
  0
SPLINE
  5
136
100
AcDbEntity
  8
0
 62
7
100
AcDbSpline
 70
8
 71
3
 72
8
 73
4
 74
0
 40
0
 40
0
 40
0
 40
0
 40
1
 40
1
 40
1
 40
1
 10
42.489832
 20
82.102272
 30
0.0
 10
42.496235
 20
82.108728
 30
0.0
 10
42.501579
 20
82.113094
 30
0.0
 10
42.512559
 20
82.118809
 30
0.0
  0
SPLINE
  5
137
100
AcDbEntity
  8
0
 62
7
100
AcDbSpline
 70
8
 71
3
 72
8
 73
4
 74
0
 40
0
 40
0
 40
0
 40
0
 40
1
 40
1
 40
1
 40
1
 10
42.512559
 20
82.118809
 30
0.0
 10
42.515205
 20
82.120396
 30
0.0
 10
42.517163
 20
82.121454
 30
0.0
 10
42.520312
 20
82.122433
 30
0.0
  0
SPLINE
  5
138
100
AcDbEntity
  8
0
 62
7
100
AcDbSpline
 70
8
 71
3
 72
8
 73
4
 74
0
 40
0
 40
0
 40
0
 40
0
 40
1
 40
1
 40
1
 40
1
 10
42.520312
 20
82.122433
 30
0.0
 10
42.524783
 20
82.133784
 30
0.0
 10
42.535419
 20
82.142356
 30
0.0
 10
42.546664
 20
82.146193
 30
0.0
  0
SPLINE
  5
139
100
AcDbEntity
  8
0
 62
7
100
AcDbSpline
 70
8
 71
3
 72
8
 73
4
 74
0
 40
0
 40
0
 40
0
 40
0
 40
1
 40
1
 40
1
 40
1
 10
42.546664
 20
82.146193
 30
0.0
 10
42.547193
 20
82.146987
 30
0.0
 10
42.547193
 20
82.147251
 30
0.0
 10
42.547723
 20
82.147780
 30
0.0
  0
SPLINE
  5
13a
100
AcDbEntity
  8
0
 62
7
100
AcDbSpline
 70
8
 71
3
 72
8
 73
4
 74
0
 40
0
 40
0
 40
0
 40
0
 40
1
 40
1
 40
1
 40
1
 10
42.547723
 20
82.147780
 30
0.0
 10
42.552406
 20
82.152569
 30
0.0
 10
42.557327
 20
82.157200
 30
0.0
 10
42.562698
 20
82.161221
 30
0.0
  0
SPLINE
  5
13b
100
AcDbEntity
  8
0
 62
7
100
AcDbSpline
 70
8
 71
3
 72
8
 73
4
 74
0
 40
0
 40
0
 40
0
 40
0
 40
1
 40
1
 40
1
 40
1
 10
42.562698
 20
82.161221
 30
0.0
 10
42.571800
 20
82.165693
 30
0.0
 10
42.568730
 20
82.162809
 30
0.0
 10
42.573546
 20
82.166910
 30
0.0
  0
SPLINE
  5
13c
100
AcDbEntity
  8
0
 62
7
100
AcDbSpline
 70
8
 71
3
 72
8
 73
4
 74
0
 40
0
 40
0
 40
0
 40
0
 40
1
 40
1
 40
1
 40
1
 10
42.573546
 20
82.166910
 30
0.0
 10
42.568598
 20
82.163814
 30
0.0
 10
42.573017
 20
82.168233
 30
0.0
 10
42.574604
 20
82.170005
 30
0.0
  0
SPLINE
  5
13d
100
AcDbEntity
  8
0
 62
7
100
AcDbSpline
 70
8
 71
3
 72
8
 73
4
 74
0
 40
0
 40
0
 40
0
 40
0
 40
1
 40
1
 40
1
 40
1
 10
42.574604
 20
82.170005
 30
0.0
 10
42.573281
 20
82.168418
 30
0.0
 10
42.572752
 20
82.169212
 30
0.0
 10
42.570979
 20
82.167360
 30
0.0
  0
SPLINE
  5
13e
100
AcDbEntity
  8
0
 62
7
100
AcDbSpline
 70
8
 71
3
 72
8
 73
4
 74
0
 40
0
 40
0
 40
0
 40
0
 40
1
 40
1
 40
1
 40
1
 10
42.570979
 20
82.167360
 30
0.0
 10
42.569657
 20
82.166037
 30
0.0
 10
42.576430
 20
82.173604
 30
0.0
 10
42.575107
 20
82.172016
 30
0.0
  0
SPLINE
  5
13f
100
AcDbEntity
  8
0
 62
7
100
AcDbSpline
 70
8
 71
3
 72
8
 73
4
 74
0
 40
0
 40
0
 40
0
 40
0
 40
1
 40
1
 40
1
 40
1
 10
42.575107
 20
82.172016
 30
0.0
 10
42.571985
 20
82.168100
 30
0.0
 10
42.575636
 20
82.171222
 30
0.0
 10
42.574578
 20
82.169900
 30
0.0
  0
SPLINE
  5
140
100
AcDbEntity
  8
0
 62
7
100
AcDbSpline
 70
8
 71
3
 72
8
 73
4
 74
0
 40
0
 40
0
 40
0
 40
0
 40
1
 40
1
 40
1
 40
1
 10
42.574578
 20
82.169900
 30
0.0
 10
42.584976
 20
82.181118
 30
0.0
 10
42.588495
 20
82.184399
 30
0.0
 10
42.601967
 20
82.189532
 30
0.0
  0
SPLINE
  5
141
100
AcDbEntity
  8
0
 62
7
100
AcDbSpline
 70
8
 71
3
 72
8
 73
4
 74
0
 40
0
 40
0
 40
0
 40
0
 40
1
 40
1
 40
1
 40
1
 10
42.601967
 20
82.189532
 30
0.0
 10
42.602761
 20
82.191119
 30
0.0
 10
42.602497
 20
82.191913
 30
0.0
 10
42.603026
 20
82.193156
 30
0.0
  0
SPLINE
  5
142
100
AcDbEntity
  8
0
 62
7
100
AcDbSpline
 70
8
 71
3
 72
8
 73
4
 74
0
 40
0
 40
0
 40
0
 40
0
 40
1
 40
1
 40
1
 40
1
 10
42.603026
 20
82.193156
 30
0.0
 10
42.605142
 20
82.198422
 30
0.0
 10
42.608741
 20
82.203078
 30
0.0
 10
42.611281
 20
82.208132
 30
0.0
  0
SPLINE
  5
143
100
AcDbEntity
  8
0
 62
7
100
AcDbSpline
 70
8
 71
3
 72
8
 73
4
 74
0
 40
0
 40
0
 40
0
 40
0
 40
1
 40
1
 40
1
 40
1
 10
42.611281
 20
82.208132
 30
0.0
 10
42.595115
 20
82.198924
 30
0.0
 10
42.651246
 20
82.240252
 30
0.0
 10
42.645904
 20
82.229828
 30
0.0
  0
SPLINE
  5
144
100
AcDbEntity
  8
0
 62
7
100
AcDbSpline
 70
8
 71
3
 72
8
 73
4
 74
0
 40
0
 40
0
 40
0
 40
0
 40
1
 40
1
 40
1
 40
1
 10
42.645904
 20
82.229828
 30
0.0
 10
42.642941
 20
82.224166
 30
0.0
 10
42.635215
 20
82.220514
 30
0.0
 10
42.628865
 20
82.220012
 30
0.0
  0
SPLINE
  5
145
100
AcDbEntity
  8
0
 62
7
100
AcDbSpline
 70
8
 71
3
 72
8
 73
4
 74
0
 40
0
 40
0
 40
0
 40
0
 40
1
 40
1
 40
1
 40
1
 10
42.628865
 20
82.220012
 30
0.0
 10
42.624473
 20
82.219747
 30
0.0
 10
42.634792
 20
82.227208
 30
0.0
 10
42.638681
 20
82.229325
 30
0.0
  0
SPLINE
  5
146
100
AcDbEntity
  8
0
 62
7
100
AcDbSpline
 70
8
 71
3
 72
8
 73
4
 74
0
 40
0
 40
0
 40
0
 40
0
 40
1
 40
1
 40
1
 40
1
 10
42.638681
 20
82.229325
 30
0.0
 10
42.644131
 20
82.232288
 30
0.0
 10
42.650402
 20
82.233003
 30
0.0
 10
42.656249
 20
82.235014
 30
0.0
  0
SPLINE
  5
147
100
AcDbEntity
  8
0
 62
7
100
AcDbSpline
 70
8
 71
3
 72
8
 73
4
 74
0
 40
0
 40
0
 40
0
 40
0
 40
1
 40
1
 40
1
 40
1
 10
42.656249
 20
82.235014
 30
0.0
 10
42.649926
 20
82.233691
 30
0.0
 10
42.659477
 20
82.233955
 30
0.0
 10
42.667626
 20
82.234484
 30
0.0
  0
SPLINE
  5
148
100
AcDbEntity
  8
0
 62
7
100
AcDbSpline
 70
8
 71
3
 72
8
 73
4
 74
0
 40
0
 40
0
 40
0
 40
0
 40
1
 40
1
 40
1
 40
1
 10
42.667626
 20
82.234484
 30
0.0
 10
42.674664
 20
82.238374
 30
0.0
 10
42.675511
 20
82.239723
 30
0.0
 10
42.687788
 20
82.241707
 30
0.0
  0
SPLINE
  5
149
100
AcDbEntity
  8
0
 62
7
100
AcDbSpline
 70
8
 71
3
 72
8
 73
4
 74
0
 40
0
 40
0
 40
0
 40
0
 40
1
 40
1
 40
1
 40
1
 10
42.687788
 20
82.241707
 30
0.0
 10
42.698980
 20
82.243560
 30
0.0
 10
42.703425
 20
82.241750
 30
0.0
 10
42.704827
 20
82.238083
 30
0.0
  0
SPLINE
  5
14a
100
AcDbEntity
  8
0
 62
7
100
AcDbSpline
 70
8
 71
3
 72
8
 73
4
 74
0
 40
0
 40
0
 40
0
 40
0
 40
1
 40
1
 40
1
 40
1
 10
42.704827
 20
82.238083
 30
0.0
 10
42.998909
 20
82.431512
 30
0.0
 10
43.921966
 20
82.515395
 30
0.0
 10
45.799211
 20
82.518168
 30
0.0
  0
LWPOLYLINE
  5
14b
100
AcDbEntity
  8
0
 62
7
100
AcDbPolyline
 90
2
 70
0
 10
42.488271
 20
82.101240
 30
0.0
 10
42.488800
 20
82.101769
 30
0.0
  0
SPLINE
  5
14c
100
AcDbEntity
  8
0
 62
7
100
AcDbSpline
 70
8
 71
3
 72
8
 73
4
 74
0
 40
0
 40
0
 40
0
 40
0
 40
1
 40
1
 40
1
 40
1
 10
47.895206
 20
82.166764
 30
0.0
 10
47.913621
 20
81.918254
 30
0.0
 10
47.972792
 20
81.783190
 30
0.0
 10
48.092609
 20
81.717179
 30
0.0
  0
SPLINE
  5
14d
100
AcDbEntity
  8
0
 62
7
100
AcDbSpline
 70
8
 71
3
 72
8
 73
4
 74
0
 40
0
 40
0
 40
0
 40
0
 40
1
 40
1
 40
1
 40
1
 10
48.092609
 20
81.717179
 30
0.0
 10
48.186726
 20
81.665329
 30
0.0
 10
48.278486
 20
81.614910
 30
0.0
 10
48.296214
 20
81.605041
 30
0.0
  0
SPLINE
  5
14e
100
AcDbEntity
  8
0
 62
7
100
AcDbSpline
 70
8
 71
3
 72
8
 73
4
 74
0
 40
0
 40
0
 40
0
 40
0
 40
1
 40
1
 40
1
 40
1
 10
48.296214
 20
81.605041
 30
0.0
 10
48.313941
 20
81.595172
 30
0.0
 10
48.341717
 20
81.471315
 30
0.0
 10
48.358227
 20
81.329607
 30
0.0
  0
LWPOLYLINE
  5
14f
100
AcDbEntity
  8
0
 62
7
100
AcDbPolyline
 90
3
 70
0
 10
45.799211
 20
82.518168
 30
0.0
 10
47.868853
 20
82.521264
 30
0.0
 10
47.895206
 20
82.166764
 30
0.0
  0
SPLINE
  5
150
100
AcDbEntity
  8
0
 62
7
100
AcDbSpline
 70
8
 71
3
 72
8
 73
4
 74
0
 40
0
 40
0
 40
0
 40
0
 40
1
 40
1
 40
1
 40
1
 10
50.095081
 20
76.531962
 30
0.0
 10
50.989156
 20
76.509155
 30
0.0
 10
51.673895
 20
76.461541
 30
0.0
 10
51.661909
 20
76.423959
 30
0.0
  0
SPLINE
  5
151
100
AcDbEntity
  8
0
 62
7
100
AcDbSpline
 70
8
 71
3
 72
8
 73
4
 74
0
 40
0
 40
0
 40
0
 40
0
 40
1
 40
1
 40
1
 40
1
 10
51.661909
 20
76.423959
 30
0.0
 10
51.665190
 20
76.423430
 30
0.0
 10
51.678022
 20
76.419461
 30
0.0
 10
51.683102
 20
76.416736
 30
0.0
  0
SPLINE
  5
152
100
AcDbEntity
  8
0
 62
7
100
AcDbSpline
 70
8
 71
3
 72
8
 73
4
 74
0
 40
0
 40
0
 40
0
 40
0
 40
1
 40
1
 40
1
 40
1
 10
51.683102
 20
76.416736
 30
0.0
 10
51.686013
 20
76.415149
 30
0.0
 10
51.688368
 20
76.413032
 30
0.0
 10
51.691357
 20
76.411577
 30
0.0
  0
SPLINE
  5
153
100
AcDbEntity
  8
0
 62
7
100
AcDbSpline
 70
8
 71
3
 72
8
 73
4
 74
0
 40
0
 40
0
 40
0
 40
0
 40
1
 40
1
 40
1
 40
1
 10
51.691357
 20
76.411577
 30
0.0
 10
51.692416
 20
76.411048
 30
0.0
 10
51.693474
 20
76.412106
 30
0.0
 10
51.694003
 20
76.412635
 30
0.0
  0
SPLINE
  5
154
100
AcDbEntity
  8
0
 62
7
100
AcDbSpline
 70
8
 71
3
 72
8
 73
4
 74
0
 40
0
 40
0
 40
0
 40
0
 40
1
 40
1
 40
1
 40
1
 10
51.694003
 20
76.412635
 30
0.0
 10
51.700644
 20
76.416445
 30
0.0
 10
51.710831
 20
76.414487
 30
0.0
 10
51.718292
 20
76.414223
 30
0.0
  0
SPLINE
  5
155
100
AcDbEntity
  8
0
 62
7
100
AcDbSpline
 70
8
 71
3
 72
8
 73
4
 74
0
 40
0
 40
0
 40
0
 40
0
 40
1
 40
1
 40
1
 40
1
 10
51.718292
 20
76.414223
 30
0.0
 10
51.721970
 20
76.414752
 30
0.0
 10
51.726573
 20
76.413164
 30
0.0
 10
51.730172
 20
76.414223
 30
0.0
  0
SPLINE
  5
156
100
AcDbEntity
  8
0
 62
7
100
AcDbSpline
 70
8
 71
3
 72
8
 73
4
 74
0
 40
0
 40
0
 40
0
 40
0
 40
1
 40
1
 40
1
 40
1
 10
51.730172
 20
76.414223
 30
0.0
 10
51.730436
 20
76.414326
 30
0.0
 10
51.729378
 20
76.415016
 30
0.0
 10
51.729643
 20
76.415281
 30
0.0
  0
SPLINE
  5
157
100
AcDbEntity
  8
0
 62
7
100
AcDbSpline
 70
8
 71
3
 72
8
 73
4
 74
0
 40
0
 40
0
 40
0
 40
0
 40
1
 40
1
 40
1
 40
1
 10
51.729643
 20
76.415281
 30
0.0
 10
51.733056
 20
76.417133
 30
0.0
 10
51.740676
 20
76.418641
 30
0.0
 10
51.744115
 20
76.419408
 30
0.0
  0
SPLINE
  5
158
100
AcDbEntity
  8
0
 62
7
100
AcDbSpline
 70
8
 71
3
 72
8
 73
4
 74
0
 40
0
 40
0
 40
0
 40
0
 40
1
 40
1
 40
1
 40
1
 10
51.744115
 20
76.419408
 30
0.0
 10
51.757239
 20
76.420467
 30
0.0
 10
51.770256
 20
76.418085
 30
0.0
 10
51.783390
 20
76.418350
 30
0.0
  0
SPLINE
  5
159
100
AcDbEntity
  8
0
 62
7
100
AcDbSpline
 70
8
 71
3
 72
8
 73
4
 74
0
 40
0
 40
0
 40
0
 40
0
 40
1
 40
1
 40
1
 40
1
 10
51.783390
 20
76.418350
 30
0.0
 10
51.787597
 20
76.418451
 30
0.0
 10
51.789952
 20
76.418879
 30
0.0
 10
51.793735
 20
76.418879
 30
0.0
  0
SPLINE
  5
15a
100
AcDbEntity
  8
0
 62
7
100
AcDbSpline
 70
8
 71
3
 72
8
 73
4
 74
0
 40
0
 40
0
 40
0
 40
0
 40
1
 40
1
 40
1
 40
1
 10
51.793735
 20
76.418879
 30
0.0
 10
51.793876
 20
76.419673
 30
0.0
 10
51.795587
 20
76.420731
 30
0.0
 10
51.796831
 20
76.421525
 30
0.0
  0
SPLINE
  5
15b
100
AcDbEntity
  8
0
 62
7
100
AcDbSpline
 70
8
 71
3
 72
8
 73
4
 74
0
 40
0
 40
0
 40
0
 40
0
 40
1
 40
1
 40
1
 40
1
 10
51.796831
 20
76.421525
 30
0.0
 10
51.799636
 20
76.423113
 30
0.0
 10
51.802731
 20
76.424621
 30
0.0
 10
51.805615
 20
76.426182
 30
0.0
  0
SPLINE
  5
15c
100
AcDbEntity
  8
0
 62
7
100
AcDbSpline
 70
8
 71
3
 72
8
 73
4
 74
0
 40
0
 40
0
 40
0
 40
0
 40
1
 40
1
 40
1
 40
1
 10
51.805615
 20
76.426182
 30
0.0
 10
51.817971
 20
76.429621
 30
0.0
 10
51.815458
 20
76.429330
 30
0.0
 10
51.828872
 20
76.428828
 30
0.0
  0
SPLINE
  5
15d
100
AcDbEntity
  8
0
 62
7
100
AcDbSpline
 70
8
 71
3
 72
8
 73
4
 74
0
 40
0
 40
0
 40
0
 40
0
 40
1
 40
1
 40
1
 40
1
 10
51.828872
 20
76.428828
 30
0.0
 10
51.834296
 20
76.428563
 30
0.0
 10
51.839455
 20
76.426182
 30
0.0
 10
51.844879
 20
76.426711
 30
0.0
  0
SPLINE
  5
15e
100
AcDbEntity
  8
0
 62
7
100
AcDbSpline
 70
8
 71
3
 72
8
 73
4
 74
0
 40
0
 40
0
 40
0
 40
0
 40
1
 40
1
 40
1
 40
1
 10
51.844879
 20
76.426711
 30
0.0
 10
51.855092
 20
76.427505
 30
0.0
 10
51.865173
 20
76.427505
 30
0.0
 10
51.875367
 20
76.427240
 30
0.0
  0
SPLINE
  5
15f
100
AcDbEntity
  8
0
 62
7
100
AcDbSpline
 70
8
 71
3
 72
8
 73
4
 74
0
 40
0
 40
0
 40
0
 40
0
 40
1
 40
1
 40
1
 40
1
 10
51.875367
 20
76.427240
 30
0.0
 10
51.875103
 20
76.427505
 30
0.0
 10
51.873780
 20
76.428034
 30
0.0
 10
51.874309
 20
76.428298
 30
0.0
  0
SPLINE
  5
160
100
AcDbEntity
  8
0
 62
7
100
AcDbSpline
 70
8
 71
3
 72
8
 73
4
 74
0
 40
0
 40
0
 40
0
 40
0
 40
1
 40
1
 40
1
 40
1
 10
51.874309
 20
76.428298
 30
0.0
 10
51.876161
 20
76.429357
 30
0.0
 10
51.878807
 20
76.429886
 30
0.0
 10
51.881029
 20
76.430415
 30
0.0
  0
SPLINE
  5
161
100
AcDbEntity
  8
0
 62
7
100
AcDbSpline
 70
8
 71
3
 72
8
 73
4
 74
0
 40
0
 40
0
 40
0
 40
0
 40
1
 40
1
 40
1
 40
1
 10
51.881029
 20
76.430415
 30
0.0
 10
51.890448
 20
76.433061
 30
0.0
 10
51.899497
 20
76.432267
 30
0.0
 10
51.908935
 20
76.431473
 30
0.0
  0
SPLINE
  5
162
100
AcDbEntity
  8
0
 62
7
100
AcDbSpline
 70
8
 71
3
 72
8
 73
4
 74
0
 40
0
 40
0
 40
0
 40
0
 40
1
 40
1
 40
1
 40
1
 10
51.908935
 20
76.431473
 30
0.0
 10
51.907877
 20
76.431738
 30
0.0
 10
51.910522
 20
76.432796
 30
0.0
 10
51.911581
 20
76.433061
 30
0.0
  0
SPLINE
  5
163
100
AcDbEntity
  8
0
 62
7
100
AcDbSpline
 70
8
 71
3
 72
8
 73
4
 74
0
 40
0
 40
0
 40
0
 40
0
 40
1
 40
1
 40
1
 40
1
 10
51.911581
 20
76.433061
 30
0.0
 10
51.915708
 20
76.434384
 30
0.0
 10
51.920180
 20
76.435892
 30
0.0
 10
51.924492
 20
76.436686
 30
0.0
  0
SPLINE
  5
164
100
AcDbEntity
  8
0
 62
7
100
AcDbSpline
 70
8
 71
3
 72
8
 73
4
 74
0
 40
0
 40
0
 40
0
 40
0
 40
1
 40
1
 40
1
 40
1
 10
51.924492
 20
76.436686
 30
0.0
 10
51.930393
 20
76.437744
 30
0.0
 10
51.937669
 20
76.436950
 30
0.0
 10
51.943622
 20
76.436686
 30
0.0
  0
SPLINE
  5
165
100
AcDbEntity
  8
0
 62
7
100
AcDbSpline
 70
8
 71
3
 72
8
 73
4
 74
0
 40
0
 40
0
 40
0
 40
0
 40
1
 40
1
 40
1
 40
1
 10
51.943622
 20
76.436686
 30
0.0
 10
51.951771
 20
76.435363
 30
0.0
 10
51.960211
 20
76.436156
 30
0.0
 10
51.968413
 20
76.436156
 30
0.0
  0
SPLINE
  5
166
100
AcDbEntity
  8
0
 62
7
100
AcDbSpline
 70
8
 71
3
 72
8
 73
4
 74
0
 40
0
 40
0
 40
0
 40
0
 40
1
 40
1
 40
1
 40
1
 10
51.968413
 20
76.436156
 30
0.0
 10
51.977727
 20
76.436180
 30
0.0
 10
51.986987
 20
76.435627
 30
0.0
 10
51.996319
 20
76.435627
 30
0.0
  0
SPLINE
  5
167
100
AcDbEntity
  8
0
 62
7
100
AcDbSpline
 70
8
 71
3
 72
8
 73
4
 74
0
 40
0
 40
0
 40
0
 40
0
 40
1
 40
1
 40
1
 40
1
 10
51.996319
 20
76.435627
 30
0.0
 10
51.999309
 20
76.437479
 30
0.0
 10
52.002378
 20
76.439781
 30
0.0
 10
52.004071
 20
76.440284
 30
0.0
  0
SPLINE
  5
168
100
AcDbEntity
  8
0
 62
7
100
AcDbSpline
 70
8
 71
3
 72
8
 73
4
 74
0
 40
0
 40
0
 40
0
 40
0
 40
1
 40
1
 40
1
 40
1
 10
52.004071
 20
76.440284
 30
0.0
 10
52.010209
 20
76.442136
 30
0.0
 10
52.016110
 20
76.440813
 30
0.0
 10
52.022169
 20
76.440284
 30
0.0
  0
SPLINE
  5
169
100
AcDbEntity
  8
0
 62
7
100
AcDbSpline
 70
8
 71
3
 72
8
 73
4
 74
0
 40
0
 40
0
 40
0
 40
0
 40
1
 40
1
 40
1
 40
1
 10
52.022169
 20
76.440284
 30
0.0
 10
52.029021
 20
76.439226
 30
0.0
 10
52.035927
 20
76.440019
 30
0.0
 10
52.042833
 20
76.440284
 30
0.0
  0
SPLINE
  5
16a
100
AcDbEntity
  8
0
 62
7
100
AcDbSpline
 70
8
 71
3
 72
8
 73
4
 74
0
 40
0
 40
0
 40
0
 40
0
 40
1
 40
1
 40
1
 40
1
 10
52.042833
 20
76.440284
 30
0.0
 10
52.036271
 20
76.529319
 30
0.0
 10
52.225395
 20
76.532266
 30
0.0
 10
53.135271
 20
76.532266
 30
0.0
  0
SPLINE
  5
16b
100
AcDbEntity
  8
0
 62
7
100
AcDbSpline
 70
8
 71
3
 72
8
 73
4
 74
0
 40
0
 40
0
 40
0
 40
0
 40
1
 40
1
 40
1
 40
1
 10
53.135271
 20
76.532266
 30
0.0
 10
54.127146
 20
76.532266
 30
0.0
 10
54.283941
 20
76.514301
 30
0.0
 10
54.241663
 20
76.404110
 30
0.0
  0
SPLINE
  5
16c
100
AcDbEntity
  8
0
 62
7
100
AcDbSpline
 70
8
 71
3
 72
8
 73
4
 74
0
 40
0
 40
0
 40
0
 40
0
 40
1
 40
1
 40
1
 40
1
 10
54.241663
 20
76.404110
 30
0.0
 10
54.137340
 20
76.132253
 30
0.0
 10
54.496608
 20
76.287236
 30
0.0
 10
54.841627
 20
76.663008
 30
0.0
  0
LWPOLYLINE
  5
16d
100
AcDbEntity
  8
0
 62
7
100
AcDbPolyline
 90
9
 70
0
 10
48.358227
 20
81.329607
 30
0.0
 10
48.388199
 20
81.071741
 30
0.0
 10
47.256483
 20
81.047955
 30
0.0
 10
46.124770
 20
81.024196
 30
0.0
 10
46.101011
 20
79.966897
 30
0.0
 10
46.076722
 20
78.909595
 30
0.0
 10
47.247194
 20
77.742224
 30
0.0
 10
48.417665
 20
76.574854
 30
0.0
 10
50.095081
 20
76.531962
 30
0.0
  0
SPLINE
  5
16e
100
AcDbEntity
  8
0
 62
7
100
AcDbSpline
 70
8
 71
3
 72
8
 73
4
 74
0
 40
0
 40
0
 40
0
 40
0
 40
1
 40
1
 40
1
 40
1
 10
55.198219
 20
77.049524
 30
0.0
 10
55.201182
 20
77.052355
 30
0.0
 10
55.203537
 20
77.056006
 30
0.0
 10
55.208035
 20
77.057276
 30
0.0
  0
SPLINE
  5
16f
100
AcDbEntity
  8
0
 62
7
100
AcDbSpline
 70
8
 71
3
 72
8
 73
4
 74
0
 40
0
 40
0
 40
0
 40
0
 40
1
 40
1
 40
1
 40
1
 10
55.208035
 20
77.057276
 30
0.0
 10
55.208564
 20
77.058864
 30
0.0
 10
55.208829
 20
77.060531
 30
0.0
 10
55.209623
 20
77.061933
 30
0.0
  0
SPLINE
  5
170
100
AcDbEntity
  8
0
 62
7
100
AcDbSpline
 70
8
 71
3
 72
8
 73
4
 74
0
 40
0
 40
0
 40
0
 40
0
 40
1
 40
1
 40
1
 40
1
 10
55.209623
 20
77.061933
 30
0.0
 10
55.211739
 20
77.065320
 30
0.0
 10
55.215417
 20
77.067780
 30
0.0
 10
55.218936
 20
77.069685
 30
0.0
  0
SPLINE
  5
171
100
AcDbEntity
  8
0
 62
7
100
AcDbSpline
 70
8
 71
3
 72
8
 73
4
 74
0
 40
0
 40
0
 40
0
 40
0
 40
1
 40
1
 40
1
 40
1
 10
55.218936
 20
77.069685
 30
0.0
 10
55.219730
 20
77.070215
 30
0.0
 10
55.220523
 20
77.069648
 30
0.0
 10
55.221582
 20
77.070215
 30
0.0
  0
LWPOLYLINE
  5
172
100
AcDbEntity
  8
0
 62
7
100
AcDbPolyline
 90
4
 70
0
 10
54.841627
 20
76.663008
 30
0.0
 10
55.168223
 20
77.018541
 30
0.0
 10
55.197161
 20
77.050582
 30
0.0
 10
55.198219
 20
77.049524
 30
0.0
  0
SPLINE
  5
173
100
AcDbEntity
  8
0
 62
7
100
AcDbSpline
 70
8
 71
3
 72
8
 73
4
 74
0
 40
0
 40
0
 40
0
 40
0
 40
1
 40
1
 40
1
 40
1
 10
55.222111
 20
77.070744
 30
0.0
 10
55.222905
 20
77.071802
 30
0.0
 10
55.224228
 20
77.072596
 30
0.0
 10
55.225207
 20
77.073390
 30
0.0
  0
SPLINE
  5
174
100
AcDbEntity
  8
0
 62
7
100
AcDbSpline
 70
8
 71
3
 72
8
 73
4
 74
0
 40
0
 40
0
 40
0
 40
0
 40
1
 40
1
 40
1
 40
1
 10
55.225207
 20
77.073390
 30
0.0
 10
55.234017
 20
77.083602
 30
0.0
 10
55.227932
 20
77.077755
 30
0.0
 10
55.235552
 20
77.084237
 30
0.0
  0
SPLINE
  5
175
100
AcDbEntity
  8
0
 62
7
100
AcDbSpline
 70
8
 71
3
 72
8
 73
4
 74
0
 40
0
 40
0
 40
0
 40
0
 40
1
 40
1
 40
1
 40
1
 10
55.235552
 20
77.084237
 30
0.0
 10
55.236610
 20
77.085031
 30
0.0
 10
55.237139
 20
77.086883
 30
0.0
 10
55.238647
 20
77.086883
 30
0.0
  0
SPLINE
  5
176
100
AcDbEntity
  8
0
 62
7
100
AcDbSpline
 70
8
 71
3
 72
8
 73
4
 74
0
 40
0
 40
0
 40
0
 40
0
 40
1
 40
1
 40
1
 40
1
 10
55.238647
 20
77.086883
 30
0.0
 10
55.239441
 20
77.086910
 30
0.0
 10
55.237589
 20
77.083894
 30
0.0
 10
55.238118
 20
77.084237
 30
0.0
  0
SPLINE
  5
177
100
AcDbEntity
  8
0
 62
7
100
AcDbSpline
 70
8
 71
3
 72
8
 73
4
 74
0
 40
0
 40
0
 40
0
 40
0
 40
1
 40
1
 40
1
 40
1
 10
55.238118
 20
77.084237
 30
0.0
 10
55.242378
 20
77.089026
 30
0.0
 10
55.244944
 20
77.094133
 30
0.0
 10
55.251030
 20
77.096646
 30
0.0
  0
SPLINE
  5
178
100
AcDbEntity
  8
0
 62
7
100
AcDbSpline
 70
8
 71
3
 72
8
 73
4
 74
0
 40
0
 40
0
 40
0
 40
0
 40
1
 40
1
 40
1
 40
1
 10
55.251030
 20
77.096646
 30
0.0
 10
55.251202
 20
77.097440
 30
0.0
 10
55.251070
 20
77.098499
 30
0.0
 10
55.251559
 20
77.099292
 30
0.0
  0
SPLINE
  5
179
100
AcDbEntity
  8
0
 62
7
100
AcDbSpline
 70
8
 71
3
 72
8
 73
4
 74
0
 40
0
 40
0
 40
0
 40
0
 40
1
 40
1
 40
1
 40
1
 10
55.251559
 20
77.099292
 30
0.0
 10
55.258121
 20
77.110775
 30
0.0
 10
55.261269
 20
77.114532
 30
0.0
 10
55.274287
 20
77.114797
 30
0.0
  0
SPLINE
  5
17a
100
AcDbEntity
  8
0
 62
7
100
AcDbSpline
 70
8
 71
3
 72
8
 73
4
 74
0
 40
0
 40
0
 40
0
 40
0
 40
1
 40
1
 40
1
 40
1
 10
55.274287
 20
77.114797
 30
0.0
 10
55.270979
 20
77.112680
 30
0.0
 10
55.267699
 20
77.110802
 30
0.0
 10
55.264471
 20
77.108606
 30
0.0
  0
SPLINE
  5
17b
100
AcDbEntity
  8
0
 62
7
100
AcDbSpline
 70
8
 71
3
 72
8
 73
4
 74
0
 40
0
 40
0
 40
0
 40
0
 40
1
 40
1
 40
1
 40
1
 10
55.264471
 20
77.108606
 30
0.0
 10
55.265794
 20
77.111251
 30
0.0
 10
55.267117
 20
77.113818
 30
0.0
 10
55.268598
 20
77.116358
 30
0.0
  0
SPLINE
  5
17c
100
AcDbEntity
  8
0
 62
7
100
AcDbSpline
 70
8
 71
3
 72
8
 73
4
 74
0
 40
0
 40
0
 40
0
 40
0
 40
1
 40
1
 40
1
 40
1
 10
55.268598
 20
77.116358
 30
0.0
 10
55.272990
 20
77.123396
 30
0.0
 10
55.277806
 20
77.127259
 30
0.0
 10
55.284605
 20
77.131862
 30
0.0
  0
SPLINE
  5
17d
100
AcDbEntity
  8
0
 62
7
100
AcDbSpline
 70
8
 71
3
 72
8
 73
4
 74
0
 40
0
 40
0
 40
0
 40
0
 40
1
 40
1
 40
1
 40
1
 10
55.284605
 20
77.131862
 30
0.0
 10
55.286193
 20
77.132392
 30
0.0
 10
55.290294
 20
77.134244
 30
0.0
 10
55.292358
 20
77.134958
 30
0.0
  0
LWPOLYLINE
  5
17e
100
AcDbEntity
  8
0
 62
7
100
AcDbPolyline
 90
2
 70
0
 10
55.221582
 20
77.070215
 30
0.0
 10
55.222111
 20
77.070744
 30
0.0
  0
SPLINE
  5
17f
100
AcDbEntity
  8
0
 62
7
100
AcDbSpline
 70
8
 71
3
 72
8
 73
4
 74
0
 40
0
 40
0
 40
0
 40
0
 40
1
 40
1
 40
1
 40
1
 10
55.293945
 20
77.136546
 30
0.0
 10
55.293152
 20
77.135487
 30
0.0
 10
55.297385
 20
77.140435
 30
0.0
 10
55.296591
 20
77.139641
 30
0.0
  0
LWPOLYLINE
  5
180
100
AcDbEntity
  8
0
 62
7
100
AcDbPolyline
 90
2
 70
0
 10
55.292358
 20
77.134958
 30
0.0
 10
55.293945
 20
77.136546
 30
0.0
  0
SPLINE
  5
181
100
AcDbEntity
  8
0
 62
7
100
AcDbSpline
 70
8
 71
3
 72
8
 73
4
 74
0
 40
0
 40
0
 40
0
 40
0
 40
1
 40
1
 40
1
 40
1
 10
55.298179
 20
77.142287
 30
0.0
 10
55.297385
 20
77.141493
 30
0.0
 10
55.299766
 20
77.144404
 30
0.0
 10
55.299237
 20
77.143875
 30
0.0
  0
SPLINE
  5
182
100
AcDbEntity
  8
0
 62
7
100
AcDbSpline
 70
8
 71
3
 72
8
 73
4
 74
0
 40
0
 40
0
 40
0
 40
0
 40
1
 40
1
 40
1
 40
1
 10
55.299237
 20
77.143875
 30
0.0
 10
55.303814
 20
77.148531
 30
0.0
 10
55.306619
 20
77.151283
 30
0.0
 10
55.312149
 20
77.154722
 30
0.0
  0
SPLINE
  5
183
100
AcDbEntity
  8
0
 62
7
100
AcDbSpline
 70
8
 71
3
 72
8
 73
4
 74
0
 40
0
 40
0
 40
0
 40
0
 40
1
 40
1
 40
1
 40
1
 10
55.312149
 20
77.154722
 30
0.0
 10
55.314001
 20
77.155781
 30
0.0
 10
55.315959
 20
77.157104
 30
0.0
 10
55.317837
 20
77.157818
 30
0.0
  0
SPLINE
  5
184
100
AcDbEntity
  8
0
 62
7
100
AcDbSpline
 70
8
 71
3
 72
8
 73
4
 74
0
 40
0
 40
0
 40
0
 40
0
 40
1
 40
1
 40
1
 40
1
 10
55.317837
 20
77.157818
 30
0.0
 10
55.317837
 20
77.157678
 30
0.0
 10
55.317710
 20
77.156760
 30
0.0
 10
55.317837
 20
77.156760
 30
0.0
  0
SPLINE
  5
185
100
AcDbEntity
  8
0
 62
7
100
AcDbSpline
 70
8
 71
3
 72
8
 73
4
 74
0
 40
0
 40
0
 40
0
 40
0
 40
1
 40
1
 40
1
 40
1
 10
55.317837
 20
77.156760
 30
0.0
 10
55.318895
 20
77.157289
 30
0.0
 10
55.319954
 20
77.158347
 30
0.0
 10
55.320933
 20
77.158876
 30
0.0
  0
SPLINE
  5
186
100
AcDbEntity
  8
0
 62
7
100
AcDbSpline
 70
8
 71
3
 72
8
 73
4
 74
0
 40
0
 40
0
 40
0
 40
0
 40
1
 40
1
 40
1
 40
1
 10
55.320933
 20
77.158876
 30
0.0
 10
55.315271
 20
77.152606
 30
0.0
 10
55.323579
 20
77.160729
 30
0.0
 10
55.324028
 20
77.160993
 30
0.0
  0
SPLINE
  5
187
100
AcDbEntity
  8
0
 62
7
100
AcDbSpline
 70
8
 71
3
 72
8
 73
4
 74
0
 40
0
 40
0
 40
0
 40
0
 40
1
 40
1
 40
1
 40
1
 10
55.324028
 20
77.160993
 30
0.0
 10
55.324822
 20
77.161522
 30
0.0
 10
55.321912
 20
77.157845
 30
0.0
 10
55.322441
 20
77.158347
 30
0.0
  0
SPLINE
  5
188
100
AcDbEntity
  8
0
 62
7
100
AcDbSpline
 70
8
 71
3
 72
8
 73
4
 74
0
 40
0
 40
0
 40
0
 40
0
 40
1
 40
1
 40
1
 40
1
 10
55.322441
 20
77.158347
 30
0.0
 10
55.327230
 20
77.165359
 30
0.0
 10
55.324293
 20
77.163269
 30
0.0
 10
55.330193
 20
77.167634
 30
0.0
  0
SPLINE
  5
189
100
AcDbEntity
  8
0
 62
7
100
AcDbSpline
 70
8
 71
3
 72
8
 73
4
 74
0
 40
0
 40
0
 40
0
 40
0
 40
1
 40
1
 40
1
 40
1
 10
55.330193
 20
77.167634
 30
0.0
 10
55.330458
 20
77.167867
 30
0.0
 10
55.331781
 20
77.167732
 30
0.0
 10
55.332310
 20
77.168163
 30
0.0
  0
SPLINE
  5
18a
100
AcDbEntity
  8
0
 62
7
100
AcDbSpline
 70
8
 71
3
 72
8
 73
4
 74
0
 40
0
 40
0
 40
0
 40
0
 40
1
 40
1
 40
1
 40
1
 10
55.332310
 20
77.168163
 30
0.0
 10
55.333104
 20
77.168957
 30
0.0
 10
55.333104
 20
77.168097
 30
0.0
 10
55.334427
 20
77.169222
 30
0.0
  0
SPLINE
  5
18b
100
AcDbEntity
  8
0
 62
7
100
AcDbSpline
 70
8
 71
3
 72
8
 73
4
 74
0
 40
0
 40
0
 40
0
 40
0
 40
1
 40
1
 40
1
 40
1
 10
55.334427
 20
77.169222
 30
0.0
 10
55.334956
 20
77.169486
 30
0.0
 10
55.335749
 20
77.170280
 30
0.0
 10
55.336014
 20
77.169751
 30
0.0
  0
SPLINE
  5
18c
100
AcDbEntity
  8
0
 62
7
100
AcDbSpline
 70
8
 71
3
 72
8
 73
4
 74
0
 40
0
 40
0
 40
0
 40
0
 40
1
 40
1
 40
1
 40
1
 10
55.336014
 20
77.169751
 30
0.0
 10
55.336543
 20
77.170809
 30
0.0
 10
55.337337
 20
77.171867
 30
0.0
 10
55.338131
 20
77.172846
 30
0.0
  0
SPLINE
  5
18d
100
AcDbEntity
  8
0
 62
7
100
AcDbSpline
 70
8
 71
3
 72
8
 73
4
 74
0
 40
0
 40
0
 40
0
 40
0
 40
1
 40
1
 40
1
 40
1
 10
55.338131
 20
77.172846
 30
0.0
 10
55.341120
 20
77.176630
 30
0.0
 10
55.345222
 20
77.179249
 30
0.0
 10
55.348979
 20
77.182133
 30
0.0
  0
SPLINE
  5
18e
100
AcDbEntity
  8
0
 62
7
100
AcDbSpline
 70
8
 71
3
 72
8
 73
4
 74
0
 40
0
 40
0
 40
0
 40
0
 40
1
 40
1
 40
1
 40
1
 10
55.348979
 20
77.182133
 30
0.0
 10
55.347127
 20
77.179752
 30
0.0
 10
55.350566
 20
77.183192
 30
0.0
 10
55.351095
 20
77.183721
 30
0.0
  0
SPLINE
  5
18f
100
AcDbEntity
  8
0
 62
7
100
AcDbSpline
 70
8
 71
3
 72
8
 73
4
 74
0
 40
0
 40
0
 40
0
 40
0
 40
1
 40
1
 40
1
 40
1
 10
55.351095
 20
77.183721
 30
0.0
 10
55.351889
 20
77.184250
 30
0.0
 10
55.352418
 20
77.184779
 30
0.0
 10
55.353212
 20
77.185308
 30
0.0
  0
LWPOLYLINE
  5
190
100
AcDbEntity
  8
0
 62
7
100
AcDbPolyline
 90
2
 70
0
 10
55.296591
 20
77.139641
 30
0.0
 10
55.298179
 20
77.142287
 30
0.0
  0
SPLINE
  5
191
100
AcDbEntity
  8
0
 62
7
100
AcDbSpline
 70
8
 71
3
 72
8
 73
4
 74
0
 40
0
 40
0
 40
0
 40
0
 40
1
 40
1
 40
1
 40
1
 10
55.353741
 20
77.185837
 30
0.0
 10
55.353212
 20
77.186367
 30
0.0
 10
55.355858
 20
77.188219
 30
0.0
 10
55.356837
 20
77.189462
 30
0.0
  0
SPLINE
  5
192
100
AcDbEntity
  8
0
 62
7
100
AcDbSpline
 70
8
 71
3
 72
8
 73
4
 74
0
 40
0
 40
0
 40
0
 40
0
 40
1
 40
1
 40
1
 40
1
 10
55.356837
 20
77.189462
 30
0.0
 10
55.351360
 20
77.178773
 30
0.0
 10
55.365991
 20
77.206713
 30
0.0
 10
55.366150
 20
77.201871
 30
0.0
  0
SPLINE
  5
193
100
AcDbEntity
  8
0
 62
7
100
AcDbSpline
 70
8
 71
3
 72
8
 73
4
 74
0
 40
0
 40
0
 40
0
 40
0
 40
1
 40
1
 40
1
 40
1
 10
55.366150
 20
77.201871
 30
0.0
 10
55.367738
 20
77.203723
 30
0.0
 10
55.369166
 20
77.205734
 30
0.0
 10
55.370807
 20
77.207560
 30
0.0
  0
SPLINE
  5
194
100
AcDbEntity
  8
0
 62
7
100
AcDbSpline
 70
8
 71
3
 72
8
 73
4
 74
0
 40
0
 40
0
 40
0
 40
0
 40
1
 40
1
 40
1
 40
1
 10
55.370807
 20
77.207560
 30
0.0
 10
55.371071
 20
77.207576
 30
0.0
 10
55.371600
 20
77.207372
 30
0.0
 10
55.371865
 20
77.207560
 30
0.0
  0
SPLINE
  5
195
100
AcDbEntity
  8
0
 62
7
100
AcDbSpline
 70
8
 71
3
 72
8
 73
4
 74
0
 40
0
 40
0
 40
0
 40
0
 40
1
 40
1
 40
1
 40
1
 10
55.371865
 20
77.207560
 30
0.0
 10
55.375543
 20
77.210973
 30
0.0
 10
55.376919
 20
77.212507
 30
0.0
 10
55.380120
 20
77.214280
 30
0.0
  0
SPLINE
  5
196
100
AcDbEntity
  8
0
 62
7
100
AcDbSpline
 70
8
 71
3
 72
8
 73
4
 74
0
 40
0
 40
0
 40
0
 40
0
 40
1
 40
1
 40
1
 40
1
 10
55.380120
 20
77.214280
 30
0.0
 10
55.380223
 20
77.214809
 30
0.0
 10
55.380649
 20
77.215603
 30
0.0
 10
55.380649
 20
77.216397
 30
0.0
  0
LWPOLYLINE
  5
197
100
AcDbEntity
  8
0
 62
7
100
AcDbPolyline
 90
2
 70
0
 10
55.353212
 20
77.185308
 30
0.0
 10
55.353741
 20
77.185837
 30
0.0
  0
SPLINE
  5
198
100
AcDbEntity
  8
0
 62
7
100
AcDbSpline
 70
8
 71
3
 72
8
 73
4
 74
0
 40
0
 40
0
 40
0
 40
0
 40
1
 40
1
 40
1
 40
1
 10
55.667447
 20
77.518691
 30
0.0
 10
55.806287
 20
77.661937
 30
0.0
 10
55.910366
 20
77.745405
 30
0.0
 10
55.982158
 20
77.783275
 30
0.0
  0
SPLINE
  5
199
100
AcDbEntity
  8
0
 62
7
100
AcDbSpline
 70
8
 71
3
 72
8
 73
4
 74
0
 40
0
 40
0
 40
0
 40
0
 40
1
 40
1
 40
1
 40
1
 10
55.982158
 20
77.783275
 30
0.0
 10
55.982687
 20
77.787931
 30
0.0
 10
55.984804
 20
77.791291
 30
0.0
 10
55.988879
 20
77.794123
 30
0.0
  0
SPLINE
  5
19a
100
AcDbEntity
  8
0
 62
7
100
AcDbSpline
 70
8
 71
3
 72
8
 73
4
 74
0
 40
0
 40
0
 40
0
 40
0
 40
1
 40
1
 40
1
 40
1
 10
55.988879
 20
77.794123
 30
0.0
 10
55.989119
 20
77.797774
 30
0.0
 10
55.989408
 20
77.801504
 30
0.0
 10
55.990466
 20
77.804970
 30
0.0
  0
SPLINE
  5
19b
100
AcDbEntity
  8
0
 62
7
100
AcDbSpline
 70
8
 71
3
 72
8
 73
4
 74
0
 40
0
 40
0
 40
0
 40
0
 40
1
 40
1
 40
1
 40
1
 10
55.990466
 20
77.804970
 30
0.0
 10
55.990995
 20
77.806823
 30
0.0
 10
55.992318
 20
77.808093
 30
0.0
 10
55.993562
 20
77.809627
 30
0.0
  0
SPLINE
  5
19c
100
AcDbEntity
  8
0
 62
7
100
AcDbSpline
 70
8
 71
3
 72
8
 73
4
 74
0
 40
0
 40
0
 40
0
 40
0
 40
1
 40
1
 40
1
 40
1
 10
55.993562
 20
77.809627
 30
0.0
 10
55.994356
 20
77.810156
 30
0.0
 10
55.995149
 20
77.810685
 30
0.0
 10
55.996208
 20
77.811215
 30
0.0
  0
SPLINE
  5
19d
100
AcDbEntity
  8
0
 62
7
100
AcDbSpline
 70
8
 71
3
 72
8
 73
4
 74
0
 40
0
 40
0
 40
0
 40
0
 40
1
 40
1
 40
1
 40
1
 10
55.996208
 20
77.811215
 30
0.0
 10
55.994885
 20
77.811082
 30
0.0
 10
55.997001
 20
77.813331
 30
0.0
 10
55.997795
 20
77.814310
 30
0.0
  0
SPLINE
  5
19e
100
AcDbEntity
  8
0
 62
7
100
AcDbSpline
 70
8
 71
3
 72
8
 73
4
 74
0
 40
0
 40
0
 40
0
 40
0
 40
1
 40
1
 40
1
 40
1
 10
55.997795
 20
77.814310
 30
0.0
 10
55.999912
 20
77.817168
 30
0.0
 10
56.001949
 20
77.819761
 30
0.0
 10
56.003986
 20
77.822565
 30
0.0
  0
SPLINE
  5
19f
100
AcDbEntity
  8
0
 62
7
100
AcDbSpline
 70
8
 71
3
 72
8
 73
4
 74
0
 40
0
 40
0
 40
0
 40
0
 40
1
 40
1
 40
1
 40
1
 10
56.003986
 20
77.822565
 30
0.0
 10
56.004235
 20
77.823094
 30
0.0
 10
56.004780
 20
77.823359
 30
0.0
 10
56.005045
 20
77.824153
 30
0.0
  0
SPLINE
  5
1a0
100
AcDbEntity
  8
0
 62
7
100
AcDbSpline
 70
8
 71
3
 72
8
 73
4
 74
0
 40
0
 40
0
 40
0
 40
0
 40
1
 40
1
 40
1
 40
1
 10
56.005045
 20
77.824153
 30
0.0
 10
56.006103
 20
77.828201
 30
0.0
 10
56.006103
 20
77.833916
 30
0.0
 10
56.009701
 20
77.835001
 30
0.0
  0
SPLINE
  5
1a1
100
AcDbEntity
  8
0
 62
7
100
AcDbSpline
 70
8
 71
3
 72
8
 73
4
 74
0
 40
0
 40
0
 40
0
 40
0
 40
1
 40
1
 40
1
 40
1
 10
56.009701
 20
77.835001
 30
0.0
 10
56.010231
 20
77.835188
 30
0.0
 10
56.010231
 20
77.834823
 30
0.0
 10
56.010760
 20
77.835001
 30
0.0
  0
SPLINE
  5
1a2
100
AcDbEntity
  8
0
 62
7
100
AcDbSpline
 70
8
 71
3
 72
8
 73
4
 74
0
 40
0
 40
0
 40
0
 40
0
 40
1
 40
1
 40
1
 40
1
 10
56.010760
 20
77.835001
 30
0.0
 10
56.010969
 20
77.835530
 30
0.0
 10
56.011024
 20
77.836059
 30
0.0
 10
56.011289
 20
77.836588
 30
0.0
  0
SPLINE
  5
1a3
100
AcDbEntity
  8
0
 62
7
100
AcDbSpline
 70
8
 71
3
 72
8
 73
4
 74
0
 40
0
 40
0
 40
0
 40
0
 40
1
 40
1
 40
1
 40
1
 10
56.011289
 20
77.836588
 30
0.0
 10
56.011252
 20
77.844235
 30
0.0
 10
56.014887
 20
77.847171
 30
0.0
 10
56.025232
 20
77.837646
 30
0.0
  0
SPLINE
  5
1a4
100
AcDbEntity
  8
0
 62
7
100
AcDbSpline
 70
8
 71
3
 72
8
 73
4
 74
0
 40
0
 40
0
 40
0
 40
0
 40
1
 40
1
 40
1
 40
1
 10
56.025232
 20
77.837646
 30
0.0
 10
56.026026
 20
77.837763
 30
0.0
 10
56.027085
 20
77.837586
 30
0.0
 10
56.027878
 20
77.837646
 30
0.0
  0
SPLINE
  5
1a5
100
AcDbEntity
  8
0
 62
7
100
AcDbSpline
 70
8
 71
3
 72
8
 73
4
 74
0
 40
0
 40
0
 40
0
 40
0
 40
1
 40
1
 40
1
 40
1
 10
56.027878
 20
77.837646
 30
0.0
 10
56.030260
 20
77.839763
 30
0.0
 10
56.031662
 20
77.842462
 30
0.0
 10
56.034070
 20
77.844367
 30
0.0
  0
SPLINE
  5
1a6
100
AcDbEntity
  8
0
 62
7
100
AcDbSpline
 70
8
 71
3
 72
8
 73
4
 74
0
 40
0
 40
0
 40
0
 40
0
 40
1
 40
1
 40
1
 40
1
 10
56.034070
 20
77.844367
 30
0.0
 10
56.037668
 20
77.847171
 30
0.0
 10
56.041319
 20
77.849764
 30
0.0
 10
56.044415
 20
77.853151
 30
0.0
  0
SPLINE
  5
1a7
100
AcDbEntity
  8
0
 62
7
100
AcDbSpline
 70
8
 71
3
 72
8
 73
4
 74
0
 40
0
 40
0
 40
0
 40
0
 40
1
 40
1
 40
1
 40
1
 10
56.044415
 20
77.853151
 30
0.0
 10
56.053516
 20
77.858205
 30
0.0
 10
56.060766
 20
77.866089
 30
0.0
 10
56.067672
 20
77.873815
 30
0.0
  0
SPLINE
  5
1a8
100
AcDbEntity
  8
0
 62
7
100
AcDbSpline
 70
8
 71
3
 72
8
 73
4
 74
0
 40
0
 40
0
 40
0
 40
0
 40
1
 40
1
 40
1
 40
1
 10
56.067672
 20
77.873815
 30
0.0
 10
56.091378
 20
77.888526
 30
0.0
 10
56.062697
 20
77.872228
 30
0.0
 10
56.081112
 20
77.880535
 30
0.0
  0
SPLINE
  5
1a9
100
AcDbEntity
  8
0
 62
7
100
AcDbSpline
 70
8
 71
3
 72
8
 73
4
 74
0
 40
0
 40
0
 40
0
 40
0
 40
1
 40
1
 40
1
 40
1
 10
56.081112
 20
77.880535
 30
0.0
 10
56.081906
 20
77.880800
 30
0.0
 10
56.082435
 20
77.881594
 30
0.0
 10
56.083229
 20
77.882123
 30
0.0
  0
SPLINE
  5
1aa
100
AcDbEntity
  8
0
 62
7
100
AcDbSpline
 70
8
 71
3
 72
8
 73
4
 74
0
 40
0
 40
0
 40
0
 40
0
 40
1
 40
1
 40
1
 40
1
 10
56.083229
 20
77.882123
 30
0.0
 10
56.084287
 20
77.883181
 30
0.0
 10
56.085610
 20
77.884504
 30
0.0
 10
56.086854
 20
77.885748
 30
0.0
  0
SPLINE
  5
1ab
100
AcDbEntity
  8
0
 62
7
100
AcDbSpline
 70
8
 71
3
 72
8
 73
4
 74
0
 40
0
 40
0
 40
0
 40
0
 40
1
 40
1
 40
1
 40
1
 10
56.086854
 20
77.885748
 30
0.0
 10
56.093072
 20
77.890934
 30
0.0
 10
56.092331
 20
77.887335
 30
0.0
 10
56.093045
 20
77.890907
 30
0.0
  0
SPLINE
  5
1ac
100
AcDbEntity
  8
0
 62
7
100
AcDbSpline
 70
8
 71
3
 72
8
 73
4
 74
0
 40
0
 40
0
 40
0
 40
0
 40
1
 40
1
 40
1
 40
1
 10
56.093045
 20
77.890907
 30
0.0
 10
56.096855
 20
77.895088
 30
0.0
 10
56.100427
 20
77.898765
 30
0.0
 10
56.104422
 20
77.902787
 30
0.0
  0
LWPOLYLINE
  5
1ad
100
AcDbEntity
  8
0
 62
7
100
AcDbPolyline
 90
4
 70
0
 10
55.380649
 20
77.216397
 30
0.0
 10
55.377554
 20
77.219492
 30
0.0
 10
55.383745
 20
77.225684
 30
0.0
 10
55.667447
 20
77.518691
 30
0.0
  0
SPLINE
  5
1ae
100
AcDbEntity
  8
0
 62
7
100
AcDbSpline
 70
8
 71
3
 72
8
 73
4
 74
0
 40
0
 40
0
 40
0
 40
0
 40
1
 40
1
 40
1
 40
1
 10
56.103364
 20
77.902787
 30
0.0
 10
56.103893
 20
77.904639
 30
0.0
 10
56.104687
 20
77.906147
 30
0.0
 10
56.104951
 20
77.907946
 30
0.0
  0
SPLINE
  5
1af
100
AcDbEntity
  8
0
 62
7
100
AcDbSpline
 70
8
 71
3
 72
8
 73
4
 74
0
 40
0
 40
0
 40
0
 40
0
 40
1
 40
1
 40
1
 40
1
 10
56.104951
 20
77.907946
 30
0.0
 10
56.106010
 20
77.911941
 30
0.0
 10
56.105481
 20
77.914958
 30
0.0
 10
56.108576
 20
77.918794
 30
0.0
  0
SPLINE
  5
1b0
100
AcDbEntity
  8
0
 62
7
100
AcDbSpline
 70
8
 71
3
 72
8
 73
4
 74
0
 40
0
 40
0
 40
0
 40
0
 40
1
 40
1
 40
1
 40
1
 10
56.108576
 20
77.918794
 30
0.0
 10
56.111222
 20
77.922181
 30
0.0
 10
56.114767
 20
77.924694
 30
0.0
 10
56.117890
 20
77.927578
 30
0.0
  0
SPLINE
  5
1b1
100
AcDbEntity
  8
0
 62
7
100
AcDbSpline
 70
8
 71
3
 72
8
 73
4
 74
0
 40
0
 40
0
 40
0
 40
0
 40
1
 40
1
 40
1
 40
1
 10
56.117890
 20
77.927578
 30
0.0
 10
56.120006
 20
77.929430
 30
0.0
 10
56.119477
 20
77.929430
 30
0.0
 10
56.120006
 20
77.929695
 30
0.0
  0
SPLINE
  5
1b2
100
AcDbEntity
  8
0
 62
7
100
AcDbSpline
 70
8
 71
3
 72
8
 73
4
 74
0
 40
0
 40
0
 40
0
 40
0
 40
1
 40
1
 40
1
 40
1
 10
56.120006
 20
77.929695
 30
0.0
 10
56.120083
 20
77.930489
 30
0.0
 10
56.120112
 20
77.931547
 30
0.0
 10
56.120535
 20
77.932341
 30
0.0
  0
SPLINE
  5
1b3
100
AcDbEntity
  8
0
 62
7
100
AcDbSpline
 70
8
 71
3
 72
8
 73
4
 74
0
 40
0
 40
0
 40
0
 40
0
 40
1
 40
1
 40
1
 40
1
 10
56.120535
 20
77.932341
 30
0.0
 10
56.122917
 20
77.936442
 30
0.0
 10
56.124345
 20
77.941125
 30
0.0
 10
56.128288
 20
77.943718
 30
0.0
  0
SPLINE
  5
1b4
100
AcDbEntity
  8
0
 62
7
100
AcDbSpline
 70
8
 71
3
 72
8
 73
4
 74
0
 40
0
 40
0
 40
0
 40
0
 40
1
 40
1
 40
1
 40
1
 10
56.128288
 20
77.943718
 30
0.0
 10
56.131939
 20
77.946099
 30
0.0
 10
56.136913
 20
77.945305
 30
0.0
 10
56.141199
 20
77.946364
 30
0.0
  0
LWPOLYLINE
  5
1b5
100
AcDbEntity
  8
0
 62
7
100
AcDbPolyline
 90
3
 70
0
 10
56.104422
 20
77.902787
 30
0.0
 10
56.103893
 20
77.902787
 30
0.0
 10
56.103364
 20
77.902787
 30
0.0
  0
SPLINE
  5
1b6
100
AcDbEntity
  8
0
 62
7
100
AcDbSpline
 70
8
 71
3
 72
8
 73
4
 74
0
 40
0
 40
0
 40
0
 40
0
 40
1
 40
1
 40
1
 40
1
 10
56.141199
 20
77.946893
 30
0.0
 10
56.142258
 20
77.947110
 30
0.0
 10
56.143316
 20
77.947422
 30
0.0
 10
56.144295
 20
77.947422
 30
0.0
  0
SPLINE
  5
1b7
100
AcDbEntity
  8
0
 62
7
100
AcDbSpline
 70
8
 71
3
 72
8
 73
4
 74
0
 40
0
 40
0
 40
0
 40
0
 40
1
 40
1
 40
1
 40
1
 10
56.144295
 20
77.947422
 30
0.0
 10
56.145089
 20
77.947374
 30
0.0
 10
56.144824
 20
77.947433
 30
0.0
 10
56.145353
 20
77.947422
 30
0.0
  0
LWPOLYLINE
  5
1b8
100
AcDbEntity
  8
0
 62
7
100
AcDbPolyline
 90
2
 70
0
 10
56.141199
 20
77.946364
 30
0.0
 10
56.141199
 20
77.946893
 30
0.0
  0
SPLINE
  5
1b9
100
AcDbEntity
  8
0
 62
7
100
AcDbSpline
 70
8
 71
3
 72
8
 73
4
 74
0
 40
0
 40
0
 40
0
 40
0
 40
1
 40
1
 40
1
 40
1
 10
56.145882
 20
77.947951
 30
0.0
 10
56.146412
 20
77.948480
 30
0.0
 10
56.146941
 20
77.949010
 30
0.0
 10
56.147470
 20
77.949539
 30
0.0
  0
SPLINE
  5
1ba
100
AcDbEntity
  8
0
 62
7
100
AcDbSpline
 70
8
 71
3
 72
8
 73
4
 74
0
 40
0
 40
0
 40
0
 40
0
 40
1
 40
1
 40
1
 40
1
 10
56.147470
 20
77.949539
 30
0.0
 10
56.150460
 20
77.952502
 30
0.0
 10
56.153714
 20
77.954910
 30
0.0
 10
56.156783
 20
77.957794
 30
0.0
  0
SPLINE
  5
1bb
100
AcDbEntity
  8
0
 62
7
100
AcDbSpline
 70
8
 71
3
 72
8
 73
4
 74
0
 40
0
 40
0
 40
0
 40
0
 40
1
 40
1
 40
1
 40
1
 10
56.156783
 20
77.957794
 30
0.0
 10
56.160223
 20
77.957730
 30
0.0
 10
56.163662
 20
77.957860
 30
0.0
 10
56.167128
 20
77.957794
 30
0.0
  0
SPLINE
  5
1bc
100
AcDbEntity
  8
0
 62
7
100
AcDbSpline
 70
8
 71
3
 72
8
 73
4
 74
0
 40
0
 40
0
 40
0
 40
0
 40
1
 40
1
 40
1
 40
1
 10
56.167128
 20
77.957794
 30
0.0
 10
56.166599
 20
77.958011
 30
0.0
 10
56.165806
 20
77.958045
 30
0.0
 10
56.166070
 20
77.958323
 30
0.0
  0
SPLINE
  5
1bd
100
AcDbEntity
  8
0
 62
7
100
AcDbSpline
 70
8
 71
3
 72
8
 73
4
 74
0
 40
0
 40
0
 40
0
 40
0
 40
1
 40
1
 40
1
 40
1
 10
56.166070
 20
77.958323
 30
0.0
 10
56.166599
 20
77.958852
 30
0.0
 10
56.167393
 20
77.958461
 30
0.0
 10
56.168187
 20
77.958852
 30
0.0
  0
SPLINE
  5
1be
100
AcDbEntity
  8
0
 62
7
100
AcDbSpline
 70
8
 71
3
 72
8
 73
4
 74
0
 40
0
 40
0
 40
0
 40
0
 40
1
 40
1
 40
1
 40
1
 10
56.168187
 20
77.958852
 30
0.0
 10
56.169510
 20
77.959646
 30
0.0
 10
56.165462
 20
77.958323
 30
0.0
 10
56.167128
 20
77.959910
 30
0.0
  0
SPLINE
  5
1bf
100
AcDbEntity
  8
0
 62
7
100
AcDbSpline
 70
8
 71
3
 72
8
 73
4
 74
0
 40
0
 40
0
 40
0
 40
0
 40
1
 40
1
 40
1
 40
1
 10
56.167128
 20
77.959910
 30
0.0
 10
56.168716
 20
77.961233
 30
0.0
 10
56.170171
 20
77.962292
 30
0.0
 10
56.171785
 20
77.963535
 30
0.0
  0
SPLINE
  5
1c0
100
AcDbEntity
  8
0
 62
7
100
AcDbSpline
 70
8
 71
3
 72
8
 73
4
 74
0
 40
0
 40
0
 40
0
 40
0
 40
1
 40
1
 40
1
 40
1
 10
56.171785
 20
77.963535
 30
0.0
 10
56.176945
 20
77.966208
 30
0.0
 10
56.179802
 20
77.968324
 30
0.0
 10
56.185226
 20
77.970256
 30
0.0
  0
SPLINE
  5
1c1
100
AcDbEntity
  8
0
 62
7
100
AcDbSpline
 70
8
 71
3
 72
8
 73
4
 74
0
 40
0
 40
0
 40
0
 40
0
 40
1
 40
1
 40
1
 40
1
 10
56.185226
 20
77.970256
 30
0.0
 10
56.187607
 20
77.971049
 30
0.0
 10
56.190200
 20
77.971314
 30
0.0
 10
56.192449
 20
77.972372
 30
0.0
  0
SPLINE
  5
1c2
100
AcDbEntity
  8
0
 62
7
100
AcDbSpline
 70
8
 71
3
 72
8
 73
4
 74
0
 40
0
 40
0
 40
0
 40
0
 40
1
 40
1
 40
1
 40
1
 10
56.192449
 20
77.972372
 30
0.0
 10
56.194301
 20
77.973166
 30
0.0
 10
56.195412
 20
77.974489
 30
0.0
 10
56.197106
 20
77.975468
 30
0.0
  0
SPLINE
  5
1c3
100
AcDbEntity
  8
0
 62
7
100
AcDbSpline
 70
8
 71
3
 72
8
 73
4
 74
0
 40
0
 40
0
 40
0
 40
0
 40
1
 40
1
 40
1
 40
1
 10
56.197106
 20
77.975468
 30
0.0
 10
56.201154
 20
77.977849
 30
0.0
 10
56.206816
 20
77.980469
 30
0.0
 10
56.211049
 20
77.982691
 30
0.0
  0
SPLINE
  5
1c4
100
AcDbEntity
  8
0
 62
7
100
AcDbSpline
 70
8
 71
3
 72
8
 73
4
 74
0
 40
0
 40
0
 40
0
 40
0
 40
1
 40
1
 40
1
 40
1
 10
56.211049
 20
77.982691
 30
0.0
 10
56.213880
 20
77.985443
 30
0.0
 10
56.217611
 20
77.986369
 30
0.0
 10
56.220865
 20
77.987850
 30
0.0
  0
SPLINE
  5
1c5
100
AcDbEntity
  8
0
 62
7
100
AcDbSpline
 70
8
 71
3
 72
8
 73
4
 74
0
 40
0
 40
0
 40
0
 40
0
 40
1
 40
1
 40
1
 40
1
 10
56.220865
 20
77.987850
 30
0.0
 10
56.221659
 20
77.990232
 30
0.0
 10
56.221659
 20
77.991951
 30
0.0
 10
56.222982
 20
77.994571
 30
0.0
  0
SPLINE
  5
1c6
100
AcDbEntity
  8
0
 62
7
100
AcDbSpline
 70
8
 71
3
 72
8
 73
4
 74
0
 40
0
 40
0
 40
0
 40
0
 40
1
 40
1
 40
1
 40
1
 10
56.222982
 20
77.994571
 30
0.0
 10
56.239386
 20
78.021257
 30
0.0
 10
56.214383
 20
77.981077
 30
0.0
 10
56.231766
 20
78.006980
 30
0.0
  0
SPLINE
  5
1c7
100
AcDbEntity
  8
0
 62
7
100
AcDbSpline
 70
8
 71
3
 72
8
 73
4
 74
0
 40
0
 40
0
 40
0
 40
0
 40
1
 40
1
 40
1
 40
1
 10
56.231766
 20
78.006980
 30
0.0
 10
56.232560
 20
78.008038
 30
0.0
 10
56.233089
 20
78.009096
 30
0.0
 10
56.233883
 20
78.010605
 30
0.0
  0
SPLINE
  5
1c8
100
AcDbEntity
  8
0
 62
7
100
AcDbSpline
 70
8
 71
3
 72
8
 73
4
 74
0
 40
0
 40
0
 40
0
 40
0
 40
1
 40
1
 40
1
 40
1
 10
56.233883
 20
78.010605
 30
0.0
 10
56.235735
 20
78.013303
 30
0.0
 10
56.237164
 20
78.015764
 30
0.0
 10
56.239042
 20
78.018357
 30
0.0
  0
SPLINE
  5
1c9
100
AcDbEntity
  8
0
 62
7
100
AcDbSpline
 70
8
 71
3
 72
8
 73
4
 74
0
 40
0
 40
0
 40
0
 40
0
 40
1
 40
1
 40
1
 40
1
 10
56.239042
 20
78.018357
 30
0.0
 10
56.241767
 20
78.022140
 30
0.0
 10
56.244572
 20
78.025977
 30
0.0
 10
56.247297
 20
78.029734
 30
0.0
  0
SPLINE
  5
1ca
100
AcDbEntity
  8
0
 62
7
100
AcDbSpline
 70
8
 71
3
 72
8
 73
4
 74
0
 40
0
 40
0
 40
0
 40
0
 40
1
 40
1
 40
1
 40
1
 10
56.247297
 20
78.029734
 30
0.0
 10
56.251425
 20
78.036005
 30
0.0
 10
56.257801
 20
78.040317
 30
0.0
 10
56.262802
 20
78.045741
 30
0.0
  0
SPLINE
  5
1cb
100
AcDbEntity
  8
0
 62
7
100
AcDbSpline
 70
8
 71
3
 72
8
 73
4
 74
0
 40
0
 40
0
 40
0
 40
0
 40
1
 40
1
 40
1
 40
1
 10
56.262802
 20
78.045741
 30
0.0
 10
56.263331
 20
78.046270
 30
0.0
 10
56.268067
 20
78.053467
 30
0.0
 10
56.268490
 20
78.053996
 30
0.0
  0
SPLINE
  5
1cc
100
AcDbEntity
  8
0
 62
7
100
AcDbSpline
 70
8
 71
3
 72
8
 73
4
 74
0
 40
0
 40
0
 40
0
 40
0
 40
1
 40
1
 40
1
 40
1
 10
56.268490
 20
78.053996
 30
0.0
 10
56.270078
 20
78.056113
 30
0.0
 10
56.271983
 20
78.057700
 30
0.0
 10
56.273650
 20
78.059685
 30
0.0
  0
SPLINE
  5
1cd
100
AcDbEntity
  8
0
 62
7
100
AcDbSpline
 70
8
 71
3
 72
8
 73
4
 74
0
 40
0
 40
0
 40
0
 40
0
 40
1
 40
1
 40
1
 40
1
 10
56.273650
 20
78.059685
 30
0.0
 10
56.283545
 20
78.066326
 30
0.0
 10
56.284180
 20
78.066352
 30
0.0
 10
56.292250
 20
78.073628
 30
0.0
  0
SPLINE
  5
1ce
100
AcDbEntity
  8
0
 62
7
100
AcDbSpline
 70
8
 71
3
 72
8
 73
4
 74
0
 40
0
 40
0
 40
0
 40
0
 40
1
 40
1
 40
1
 40
1
 10
56.292250
 20
78.073628
 30
0.0
 10
56.294367
 20
78.075745
 30
0.0
 10
56.296086
 20
78.077915
 30
0.0
 10
56.298441
 20
78.079820
 30
0.0
  0
SPLINE
  5
1cf
100
AcDbEntity
  8
0
 62
7
100
AcDbSpline
 70
8
 71
3
 72
8
 73
4
 74
0
 40
0
 40
0
 40
0
 40
0
 40
1
 40
1
 40
1
 40
1
 10
56.298441
 20
78.079820
 30
0.0
 10
56.301378
 20
78.082201
 30
0.0
 10
56.304553
 20
78.084503
 30
0.0
 10
56.307728
 20
78.086540
 30
0.0
  0
SPLINE
  5
1d0
100
AcDbEntity
  8
0
 62
7
100
AcDbSpline
 70
8
 71
3
 72
8
 73
4
 74
0
 40
0
 40
0
 40
0
 40
0
 40
1
 40
1
 40
1
 40
1
 10
56.307728
 20
78.086540
 30
0.0
 10
56.313364
 20
78.090138
 30
0.0
 10
56.316645
 20
78.089636
 30
0.0
 10
56.312887
 20
78.089636
 30
0.0
  0
SPLINE
  5
1d1
100
AcDbEntity
  8
0
 62
7
100
AcDbSpline
 70
8
 71
3
 72
8
 73
4
 74
0
 40
0
 40
0
 40
0
 40
0
 40
1
 40
1
 40
1
 40
1
 10
56.312887
 20
78.089636
 30
0.0
 10
56.317809
 20
78.095509
 30
0.0
 10
56.323815
 20
78.099954
 30
0.0
 10
56.328921
 20
78.105643
 30
0.0
  0
SPLINE
  5
1d2
100
AcDbEntity
  8
0
 62
7
100
AcDbSpline
 70
8
 71
3
 72
8
 73
4
 74
0
 40
0
 40
0
 40
0
 40
0
 40
1
 40
1
 40
1
 40
1
 10
56.328921
 20
78.105643
 30
0.0
 10
56.333551
 20
78.110829
 30
0.0
 10
56.330509
 20
78.110061
 30
0.0
 10
56.336673
 20
78.114956
 30
0.0
  0
SPLINE
  5
1d3
100
AcDbEntity
  8
0
 62
7
100
AcDbSpline
 70
8
 71
3
 72
8
 73
4
 74
0
 40
0
 40
0
 40
0
 40
0
 40
1
 40
1
 40
1
 40
1
 10
56.336673
 20
78.114956
 30
0.0
 10
56.339319
 20
78.117073
 30
0.0
 10
56.342124
 20
78.118793
 30
0.0
 10
56.344928
 20
78.120645
 30
0.0
  0
SPLINE
  5
1d4
100
AcDbEntity
  8
0
 62
7
100
AcDbSpline
 70
8
 71
3
 72
8
 73
4
 74
0
 40
0
 40
0
 40
0
 40
0
 40
1
 40
1
 40
1
 40
1
 10
56.344928
 20
78.120645
 30
0.0
 10
56.344939
 20
78.121174
 30
0.0
 10
56.344688
 20
78.121439
 30
0.0
 10
56.344928
 20
78.121703
 30
0.0
  0
SPLINE
  5
1d5
100
AcDbEntity
  8
0
 62
7
100
AcDbSpline
 70
8
 71
3
 72
8
 73
4
 74
0
 40
0
 40
0
 40
0
 40
0
 40
1
 40
1
 40
1
 40
1
 10
56.344928
 20
78.121703
 30
0.0
 10
56.345722
 20
78.123026
 30
0.0
 10
56.347310
 20
78.124084
 30
0.0
 10
56.348024
 20
78.125328
 30
0.0
  0
SPLINE
  5
1d6
100
AcDbEntity
  8
0
 62
7
100
AcDbSpline
 70
8
 71
3
 72
8
 73
4
 74
0
 40
0
 40
0
 40
0
 40
0
 40
1
 40
1
 40
1
 40
1
 10
56.348024
 20
78.125328
 30
0.0
 10
56.348289
 20
78.125857
 30
0.0
 10
56.348275
 20
78.126386
 30
0.0
 10
56.348553
 20
78.126915
 30
0.0
  0
SPLINE
  5
1d7
100
AcDbEntity
  8
0
 62
7
100
AcDbSpline
 70
8
 71
3
 72
8
 73
4
 74
0
 40
0
 40
0
 40
0
 40
0
 40
1
 40
1
 40
1
 40
1
 10
56.348553
 20
78.126915
 30
0.0
 10
56.365222
 20
78.147447
 30
0.0
 10
56.347230
 20
78.124164
 30
0.0
 10
56.354242
 20
78.134139
 30
0.0
  0
SPLINE
  5
1d8
100
AcDbEntity
  8
0
 62
7
100
AcDbSpline
 70
8
 71
3
 72
8
 73
4
 74
0
 40
0
 40
0
 40
0
 40
0
 40
1
 40
1
 40
1
 40
1
 10
56.354242
 20
78.134139
 30
0.0
 10
56.356888
 20
78.135991
 30
0.0
 10
56.359163
 20
78.137869
 30
0.0
 10
56.361491
 20
78.139827
 30
0.0
  0
LWPOLYLINE
  5
1d9
100
AcDbEntity
  8
0
 62
7
100
AcDbPolyline
 90
2
 70
0
 10
56.145353
 20
77.947422
 30
0.0
 10
56.145882
 20
77.947951
 30
0.0
  0
SPLINE
  5
1da
100
AcDbEntity
  8
0
 62
7
100
AcDbSpline
 70
8
 71
3
 72
8
 73
4
 74
0
 40
0
 40
0
 40
0
 40
0
 40
1
 40
1
 40
1
 40
1
 10
56.362021
 20
78.139827
 30
0.0
 10
56.362550
 20
78.140092
 30
0.0
 10
56.363079
 20
78.140031
 30
0.0
 10
56.363608
 20
78.140356
 30
0.0
  0
SPLINE
  5
1db
100
AcDbEntity
  8
0
 62
7
100
AcDbSpline
 70
8
 71
3
 72
8
 73
4
 74
0
 40
0
 40
0
 40
0
 40
0
 40
1
 40
1
 40
1
 40
1
 10
56.363608
 20
78.140356
 30
0.0
 10
56.366624
 20
78.145754
 30
0.0
 10
56.370805
 20
78.148241
 30
0.0
 10
56.372921
 20
78.153797
 30
0.0
  0
SPLINE
  5
1dc
100
AcDbEntity
  8
0
 62
7
100
AcDbSpline
 70
8
 71
3
 72
8
 73
4
 74
0
 40
0
 40
0
 40
0
 40
0
 40
1
 40
1
 40
1
 40
1
 10
56.372921
 20
78.153797
 30
0.0
 10
56.373078
 20
78.154326
 30
0.0
 10
56.372858
 20
78.154855
 30
0.0
 10
56.372921
 20
78.155385
 30
0.0
  0
SPLINE
  5
1dd
100
AcDbEntity
  8
0
 62
7
100
AcDbSpline
 70
8
 71
3
 72
8
 73
4
 74
0
 40
0
 40
0
 40
0
 40
0
 40
1
 40
1
 40
1
 40
1
 10
56.372921
 20
78.155385
 30
0.0
 10
56.373152
 20
78.156708
 30
0.0
 10
56.373715
 20
78.157766
 30
0.0
 10
56.373980
 20
78.159009
 30
0.0
  0
SPLINE
  5
1de
100
AcDbEntity
  8
0
 62
7
100
AcDbSpline
 70
8
 71
3
 72
8
 73
4
 74
0
 40
0
 40
0
 40
0
 40
0
 40
1
 40
1
 40
1
 40
1
 10
56.373980
 20
78.159009
 30
0.0
 10
56.376996
 20
78.162449
 30
0.0
 10
56.379880
 20
78.166312
 30
0.0
 10
56.383293
 20
78.169355
 30
0.0
  0
SPLINE
  5
1df
100
AcDbEntity
  8
0
 62
7
100
AcDbSpline
 70
8
 71
3
 72
8
 73
4
 74
0
 40
0
 40
0
 40
0
 40
0
 40
1
 40
1
 40
1
 40
1
 10
56.383293
 20
78.169355
 30
0.0
 10
56.385674
 20
78.171471
 30
0.0
 10
56.388373
 20
78.172450
 30
0.0
 10
56.391045
 20
78.174011
 30
0.0
  0
SPLINE
  5
1e0
100
AcDbEntity
  8
0
 62
7
100
AcDbSpline
 70
8
 71
3
 72
8
 73
4
 74
0
 40
0
 40
0
 40
0
 40
0
 40
1
 40
1
 40
1
 40
1
 10
56.391045
 20
78.174011
 30
0.0
 10
56.380700
 20
78.182557
 30
0.0
 10
56.383663
 20
78.191818
 30
0.0
 10
56.391575
 20
78.199835
 30
0.0
  0
SPLINE
  5
1e1
100
AcDbEntity
  8
0
 62
7
100
AcDbSpline
 70
8
 71
3
 72
8
 73
4
 74
0
 40
0
 40
0
 40
0
 40
0
 40
1
 40
1
 40
1
 40
1
 10
56.391575
 20
78.199835
 30
0.0
 10
56.397819
 20
78.206238
 30
0.0
 10
56.403798
 20
78.212746
 30
0.0
 10
56.410704
 20
78.218435
 30
0.0
  0
SPLINE
  5
1e2
100
AcDbEntity
  8
0
 62
7
100
AcDbSpline
 70
8
 71
3
 72
8
 73
4
 74
0
 40
0
 40
0
 40
0
 40
0
 40
1
 40
1
 40
1
 40
1
 10
56.410704
 20
78.218435
 30
0.0
 10
56.411498
 20
78.219229
 30
0.0
 10
56.412556
 20
78.221292
 30
0.0
 10
56.413350
 20
78.220551
 30
0.0
  0
SPLINE
  5
1e3
100
AcDbEntity
  8
0
 62
7
100
AcDbSpline
 70
8
 71
3
 72
8
 73
4
 74
0
 40
0
 40
0
 40
0
 40
0
 40
1
 40
1
 40
1
 40
1
 10
56.413350
 20
78.220551
 30
0.0
 10
56.413614
 20
78.221345
 30
0.0
 10
56.413469
 20
78.222668
 30
0.0
 10
56.417477
 20
78.227775
 30
0.0
  0
SPLINE
  5
1e4
100
AcDbEntity
  8
0
 62
7
100
AcDbSpline
 70
8
 71
3
 72
8
 73
4
 74
0
 40
0
 40
0
 40
0
 40
0
 40
1
 40
1
 40
1
 40
1
 10
56.417477
 20
78.227775
 30
0.0
 10
56.418800
 20
78.229362
 30
0.0
 10
56.421181
 20
78.229627
 30
0.0
 10
56.423166
 20
78.230420
 30
0.0
  0
LWPOLYLINE
  5
1e5
100
AcDbEntity
  8
0
 62
7
100
AcDbPolyline
 90
2
 70
0
 10
56.361491
 20
78.139827
 30
0.0
 10
56.362021
 20
78.139827
 30
0.0
  0
SPLINE
  5
1e6
100
AcDbEntity
  8
0
 62
7
100
AcDbSpline
 70
8
 71
3
 72
8
 73
4
 74
0
 40
0
 40
0
 40
0
 40
0
 40
1
 40
1
 40
1
 40
1
 10
56.423166
 20
78.227775
 30
0.0
 10
56.427955
 20
78.237749
 30
0.0
 10
56.431288
 20
78.242671
 30
0.0
 10
56.442798
 20
78.244311
 30
0.0
  0
SPLINE
  5
1e7
100
AcDbEntity
  8
0
 62
7
100
AcDbSpline
 70
8
 71
3
 72
8
 73
4
 74
0
 40
0
 40
0
 40
0
 40
0
 40
1
 40
1
 40
1
 40
1
 10
56.442798
 20
78.244311
 30
0.0
 10
56.443592
 20
78.245899
 30
0.0
 10
56.443062
 20
78.245634
 30
0.0
 10
56.447957
 20
78.250000
 30
0.0
  0
SPLINE
  5
1e8
100
AcDbEntity
  8
0
 62
7
100
AcDbSpline
 70
8
 71
3
 72
8
 73
4
 74
0
 40
0
 40
0
 40
0
 40
0
 40
1
 40
1
 40
1
 40
1
 10
56.447957
 20
78.250000
 30
0.0
 10
56.448751
 20
78.250793
 30
0.0
 10
56.449809
 20
78.250793
 30
0.0
 10
56.451053
 20
78.251587
 30
0.0
  0
SPLINE
  5
1e9
100
AcDbEntity
  8
0
 62
7
100
AcDbSpline
 70
8
 71
3
 72
8
 73
4
 74
0
 40
0
 40
0
 40
0
 40
0
 40
1
 40
1
 40
1
 40
1
 10
56.451053
 20
78.251587
 30
0.0
 10
56.451847
 20
78.253968
 30
0.0
 10
56.452376
 20
78.256746
 30
0.0
 10
56.454148
 20
78.258837
 30
0.0
  0
SPLINE
  5
1ea
100
AcDbEntity
  8
0
 62
7
100
AcDbSpline
 70
8
 71
3
 72
8
 73
4
 74
0
 40
0
 40
0
 40
0
 40
0
 40
1
 40
1
 40
1
 40
1
 10
56.454148
 20
78.258837
 30
0.0
 10
56.456265
 20
78.261218
 30
0.0
 10
56.458858
 20
78.263044
 30
0.0
 10
56.461372
 20
78.265028
 30
0.0
  0
SPLINE
  5
1eb
100
AcDbEntity
  8
0
 62
7
100
AcDbSpline
 70
8
 71
3
 72
8
 73
4
 74
0
 40
0
 40
0
 40
0
 40
0
 40
1
 40
1
 40
1
 40
1
 10
56.461372
 20
78.265028
 30
0.0
 10
56.461636
 20
78.265168
 30
0.0
 10
56.461901
 20
78.265293
 30
0.0
 10
56.462430
 20
78.265557
 30
0.0
  0
SPLINE
  5
1ec
100
AcDbEntity
  8
0
 62
7
100
AcDbSpline
 70
8
 71
3
 72
8
 73
4
 74
0
 40
0
 40
0
 40
0
 40
0
 40
1
 40
1
 40
1
 40
1
 10
56.462430
 20
78.265557
 30
0.0
 10
56.464017
 20
78.267674
 30
0.0
 10
56.472616
 20
78.280427
 30
0.0
 10
56.472775
 20
78.280533
 30
0.0
  0
SPLINE
  5
1ed
100
AcDbEntity
  8
0
 62
7
100
AcDbSpline
 70
8
 71
3
 72
8
 73
4
 74
0
 40
0
 40
0
 40
0
 40
0
 40
1
 40
1
 40
1
 40
1
 10
56.472775
 20
78.280533
 30
0.0
 10
56.479866
 20
78.287068
 30
0.0
 10
56.478464
 20
78.286830
 30
0.0
 10
56.482591
 20
78.286221
 30
0.0
  0
SPLINE
  5
1ee
100
AcDbEntity
  8
0
 62
7
100
AcDbSpline
 70
8
 71
3
 72
8
 73
4
 74
0
 40
0
 40
0
 40
0
 40
0
 40
1
 40
1
 40
1
 40
1
 10
56.482591
 20
78.286221
 30
0.0
 10
56.483914
 20
78.286750
 30
0.0
 10
56.484972
 20
78.287544
 30
0.0
 10
56.486216
 20
78.287809
 30
0.0
  0
SPLINE
  5
1ef
100
AcDbEntity
  8
0
 62
7
100
AcDbSpline
 70
8
 71
3
 72
8
 73
4
 74
0
 40
0
 40
0
 40
0
 40
0
 40
1
 40
1
 40
1
 40
1
 10
56.486216
 20
78.287809
 30
0.0
 10
56.485687
 20
78.287279
 30
0.0
 10
56.484099
 20
78.286221
 30
0.0
 10
56.484628
 20
78.286221
 30
0.0
  0
SPLINE
  5
1f0
100
AcDbEntity
  8
0
 62
7
100
AcDbSpline
 70
8
 71
3
 72
8
 73
4
 74
0
 40
0
 40
0
 40
0
 40
0
 40
1
 40
1
 40
1
 40
1
 10
56.484628
 20
78.286221
 30
0.0
 10
56.486481
 20
78.286750
 30
0.0
 10
56.491481
 20
78.290507
 30
0.0
 10
56.496006
 20
78.293973
 30
0.0
  0
SPLINE
  5
1f1
100
AcDbEntity
  8
0
 62
7
100
AcDbSpline
 70
8
 71
3
 72
8
 73
4
 74
0
 40
0
 40
0
 40
0
 40
0
 40
1
 40
1
 40
1
 40
1
 10
56.496006
 20
78.293973
 30
0.0
 10
56.496799
 20
78.296090
 30
0.0
 10
56.497064
 20
78.298286
 30
0.0
 10
56.498122
 20
78.300165
 30
0.0
  0
SPLINE
  5
1f2
100
AcDbEntity
  8
0
 62
7
100
AcDbSpline
 70
8
 71
3
 72
8
 73
4
 74
0
 40
0
 40
0
 40
0
 40
0
 40
1
 40
1
 40
1
 40
1
 10
56.498122
 20
78.300165
 30
0.0
 10
56.499181
 20
78.302281
 30
0.0
 10
56.502567
 20
78.302017
 30
0.0
 10
56.504843
 20
78.302810
 30
0.0
  0
SPLINE
  5
1f3
100
AcDbEntity
  8
0
 62
7
100
AcDbSpline
 70
8
 71
3
 72
8
 73
4
 74
0
 40
0
 40
0
 40
0
 40
0
 40
1
 40
1
 40
1
 40
1
 10
56.504843
 20
78.302810
 30
0.0
 10
56.507912
 20
78.303604
 30
0.0
 10
56.511034
 20
78.304398
 30
0.0
 10
56.514156
 20
78.304927
 30
0.0
  0
SPLINE
  5
1f4
100
AcDbEntity
  8
0
 62
7
100
AcDbSpline
 70
8
 71
3
 72
8
 73
4
 74
0
 40
0
 40
0
 40
0
 40
0
 40
1
 40
1
 40
1
 40
1
 10
56.514156
 20
78.304927
 30
0.0
 10
56.518866
 20
78.306250
 30
0.0
 10
56.523919
 20
78.307652
 30
0.0
 10
56.528629
 20
78.309055
 30
0.0
  0
SPLINE
  5
1f5
100
AcDbEntity
  8
0
 62
7
100
AcDbSpline
 70
8
 71
3
 72
8
 73
4
 74
0
 40
0
 40
0
 40
0
 40
0
 40
1
 40
1
 40
1
 40
1
 10
56.528629
 20
78.309055
 30
0.0
 10
56.531275
 20
78.309848
 30
0.0
 10
56.531010
 20
78.307203
 30
0.0
 10
56.533285
 20
78.307467
 30
0.0
  0
SPLINE
  5
1f6
100
AcDbEntity
  8
0
 62
7
100
AcDbSpline
 70
8
 71
3
 72
8
 73
4
 74
0
 40
0
 40
0
 40
0
 40
0
 40
1
 40
1
 40
1
 40
1
 10
56.533285
 20
78.307467
 30
0.0
 10
56.582548
 20
78.408641
 30
0.0
 10
57.053427
 20
78.841611
 30
0.0
 10
57.122915
 20
78.843870
 30
0.0
  0
SPLINE
  5
1f7
100
AcDbEntity
  8
0
 62
7
100
AcDbSpline
 70
8
 71
3
 72
8
 73
4
 74
0
 40
0
 40
0
 40
0
 40
0
 40
1
 40
1
 40
1
 40
1
 10
57.122915
 20
78.843870
 30
0.0
 10
57.146436
 20
78.844664
 30
0.0
 10
57.161240
 20
79.336299
 30
0.0
 10
57.155472
 20
79.936308
 30
0.0
  0
LWPOLYLINE
  5
1f8
100
AcDbEntity
  8
0
 62
7
100
AcDbPolyline
 90
3
 70
0
 10
56.423166
 20
78.230420
 30
0.0
 10
56.423695
 20
78.230420
 30
0.0
 10
56.423166
 20
78.227775
 30
0.0
  0
SPLINE
  5
1f9
100
AcDbEntity
  8
0
 62
7
100
AcDbSpline
 70
8
 71
3
 72
8
 73
4
 74
0
 40
0
 40
0
 40
0
 40
0
 40
1
 40
1
 40
1
 40
1
 10
56.044433
 20
81.050455
 30
0.0
 10
55.439313
 20
81.063711
 30
0.0
 10
54.909887
 20
81.109100
 30
0.0
 10
54.867760
 20
81.151225
 30
0.0
  0
SPLINE
  5
1fa
100
AcDbEntity
  8
0
 62
7
100
AcDbSpline
 70
8
 71
3
 72
8
 73
4
 74
0
 40
0
 40
0
 40
0
 40
0
 40
1
 40
1
 40
1
 40
1
 10
54.867760
 20
81.151225
 30
0.0
 10
54.759442
 20
81.259542
 30
0.0
 10
54.877840
 20
81.668506
 30
0.0
 10
55.017622
 20
81.668506
 30
0.0
  0
SPLINE
  5
1fb
100
AcDbEntity
  8
0
 62
7
100
AcDbSpline
 70
8
 71
3
 72
8
 73
4
 74
0
 40
0
 40
0
 40
0
 40
0
 40
1
 40
1
 40
1
 40
1
 10
55.017622
 20
81.668506
 30
0.0
 10
55.200865
 20
81.668506
 30
0.0
 10
55.358138
 20
81.914185
 30
0.0
 10
55.363853
 20
82.210074
 30
0.0
  0
LWPOLYLINE
  5
1fc
100
AcDbEntity
  8
0
 62
7
100
AcDbPolyline
 90
3
 70
0
 10
57.155472
 20
79.936308
 30
0.0
 10
57.144624
 20
81.027199
 30
0.0
 10
56.044433
 20
81.050455
 30
0.0
  0
SPLINE
  5
1fd
100
AcDbEntity
  8
0
 62
7
100
AcDbSpline
 70
8
 71
3
 72
8
 73
4
 74
0
 40
0
 40
0
 40
0
 40
0
 40
1
 40
1
 40
1
 40
1
 10
67.608066
 20
82.267436
 30
0.0
 10
67.614628
 20
81.922834
 30
0.0
 10
67.725700
 20
81.689879
 30
0.0
 10
67.906239
 20
81.642667
 30
0.0
  0
SPLINE
  5
1fe
100
AcDbEntity
  8
0
 62
7
100
AcDbSpline
 70
8
 71
3
 72
8
 73
4
 74
0
 40
0
 40
0
 40
0
 40
0
 40
1
 40
1
 40
1
 40
1
 10
67.906239
 20
81.642667
 30
0.0
 10
68.027399
 20
81.610983
 30
0.0
 10
68.074185
 20
81.525523
 30
0.0
 10
68.074188
 20
81.336743
 30
0.0
  0
LWPOLYLINE
  5
1ff
100
AcDbEntity
  8
0
 62
7
100
AcDbPolyline
 90
5
 70
0
 10
55.363853
 20
82.210074
 30
0.0
 10
55.369013
 20
82.481375
 30
0.0
 10
61.486471
 20
82.481375
 30
0.0
 10
67.604442
 20
82.481375
 30
0.0
 10
67.608066
 20
82.267436
 30
0.0
  0
SPLINE
  5
200
100
AcDbEntity
  8
0
 62
7
100
AcDbSpline
 70
8
 71
3
 72
8
 73
4
 74
0
 40
0
 40
0
 40
0
 40
0
 40
1
 40
1
 40
1
 40
1
 10
71.193387
 20
76.553076
 30
0.0
 10
73.439647
 20
76.535164
 30
0.0
 10
74.328721
 20
76.555722
 30
0.0
 10
74.487760
 20
76.630075
 30
0.0
  0
SPLINE
  5
201
100
AcDbEntity
  8
0
 62
7
100
AcDbSpline
 70
8
 71
3
 72
8
 73
4
 74
0
 40
0
 40
0
 40
0
 40
0
 40
1
 40
1
 40
1
 40
1
 10
74.487760
 20
76.630075
 30
0.0
 10
74.607555
 20
76.686124
 30
0.0
 10
75.128699
 20
77.183065
 30
0.0
 10
75.646346
 20
77.734401
 30
0.0
  0
SPLINE
  5
202
100
AcDbEntity
  8
0
 62
7
100
AcDbSpline
 70
8
 71
3
 72
8
 73
4
 74
0
 40
0
 40
0
 40
0
 40
0
 40
1
 40
1
 40
1
 40
1
 10
75.646346
 20
77.734401
 30
0.0
 10
76.163996
 20
78.285737
 30
0.0
 10
76.645460
 20
78.761087
 30
0.0
 10
76.716046
 20
78.790149
 30
0.0
  0
SPLINE
  5
203
100
AcDbEntity
  8
0
 62
7
100
AcDbSpline
 70
8
 71
3
 72
8
 73
4
 74
0
 40
0
 40
0
 40
0
 40
0
 40
1
 40
1
 40
1
 40
1
 10
76.716046
 20
78.790149
 30
0.0
 10
76.821475
 20
78.833554
 30
0.0
 10
76.842496
 20
79.037799
 30
0.0
 10
76.833870
 20
79.934782
 30
0.0
  0
LWPOLYLINE
  5
204
100
AcDbEntity
  8
0
 62
7
100
AcDbPolyline
 90
9
 70
0
 10
68.074188
 20
81.336743
 30
0.0
 10
68.074188
 20
81.074226
 30
0.0
 10
66.940406
 20
81.050466
 30
0.0
 10
65.807143
 20
81.026706
 30
0.0
 10
65.782854
 20
79.995244
 30
0.0
 10
65.759095
 20
78.964298
 30
0.0
 10
66.938350
 20
77.771091
 30
0.0
 10
68.117088
 20
76.577365
 30
0.0
 10
71.193387
 20
76.553076
 30
0.0
  0
SPLINE
  5
205
100
AcDbEntity
  8
0
 62
7
100
AcDbSpline
 70
8
 71
3
 72
8
 73
4
 74
0
 40
0
 40
0
 40
0
 40
0
 40
1
 40
1
 40
1
 40
1
 10
75.723335
 20
81.050995
 30
0.0
 10
75.118214
 20
81.064251
 30
0.0
 10
74.589563
 20
81.108346
 30
0.0
 10
74.548730
 20
81.149182
 30
0.0
  0
SPLINE
  5
206
100
AcDbEntity
  8
0
 62
7
100
AcDbSpline
 70
8
 71
3
 72
8
 73
4
 74
0
 40
0
 40
0
 40
0
 40
0
 40
1
 40
1
 40
1
 40
1
 10
74.548730
 20
81.149182
 30
0.0
 10
74.420301
 20
81.277611
 30
0.0
 10
74.578610
 20
81.579127
 30
0.0
 10
74.847418
 20
81.718139
 30
0.0
  0
SPLINE
  5
207
100
AcDbEntity
  8
0
 62
7
100
AcDbSpline
 70
8
 71
3
 72
8
 73
4
 74
0
 40
0
 40
0
 40
0
 40
0
 40
1
 40
1
 40
1
 40
1
 10
74.847418
 20
81.718139
 30
0.0
 10
75.055590
 20
81.825777
 30
0.0
 10
75.095788
 20
81.891124
 30
0.0
 10
75.055159
 20
82.053001
 30
0.0
  0
SPLINE
  5
208
100
AcDbEntity
  8
0
 62
7
100
AcDbSpline
 70
8
 71
3
 72
8
 73
4
 74
0
 40
0
 40
0
 40
0
 40
0
 40
1
 40
1
 40
1
 40
1
 10
75.055159
 20
82.053001
 30
0.0
 10
74.935890
 20
82.528299
 30
0.0
 10
74.914257
 20
82.523584
 30
0.0
 10
77.388350
 20
82.529458
 30
0.0
  0
SPLINE
  5
209
100
AcDbEntity
  8
0
 62
7
100
AcDbSpline
 70
8
 71
3
 72
8
 73
4
 74
0
 40
0
 40
0
 40
0
 40
0
 40
1
 40
1
 40
1
 40
1
 10
77.388350
 20
82.529458
 30
0.0
 10
78.645020
 20
82.532448
 30
0.0
 10
79.591080
 20
82.566108
 30
0.0
 10
79.496748
 20
82.604390
 30
0.0
  0
SPLINE
  5
20a
100
AcDbEntity
  8
0
 62
7
100
AcDbSpline
 70
8
 71
3
 72
8
 73
4
 74
0
 40
0
 40
0
 40
0
 40
0
 40
1
 40
1
 40
1
 40
1
 10
79.496748
 20
82.604390
 30
0.0
 10
79.402630
 20
82.642588
 30
0.0
 10
78.361831
 20
82.702030
 30
0.0
 10
77.183710
 20
82.736682
 30
0.0
  0
SPLINE
  5
20b
100
AcDbEntity
  8
0
 62
7
100
AcDbSpline
 70
8
 71
3
 72
8
 73
4
 74
0
 40
0
 40
0
 40
0
 40
0
 40
1
 40
1
 40
1
 40
1
 10
77.183710
 20
82.736682
 30
0.0
 10
74.720307
 20
82.809138
 30
0.0
 10
74.846315
 20
82.847937
 30
0.0
 10
74.754920
 20
81.986856
 30
0.0
  0
SPLINE
  5
20c
100
AcDbEntity
  8
0
 62
7
100
AcDbSpline
 70
8
 71
3
 72
8
 73
4
 74
0
 40
0
 40
0
 40
0
 40
0
 40
1
 40
1
 40
1
 40
1
 10
74.754920
 20
81.986856
 30
0.0
 10
74.751057
 20
81.950396
 30
0.0
 10
74.654029
 20
81.884896
 30
0.0
 10
74.538911
 20
81.841128
 30
0.0
  0
SPLINE
  5
20d
100
AcDbEntity
  8
0
 62
7
100
AcDbSpline
 70
8
 71
3
 72
8
 73
4
 74
0
 40
0
 40
0
 40
0
 40
0
 40
1
 40
1
 40
1
 40
1
 10
74.538911
 20
81.841128
 30
0.0
 10
74.291309
 20
81.746992
 30
0.0
 10
74.165367
 20
81.273134
 30
0.0
 10
74.314119
 20
80.995187
 30
0.0
  0
SPLINE
  5
20e
100
AcDbEntity
  8
0
 62
7
100
AcDbSpline
 70
8
 71
3
 72
8
 73
4
 74
0
 40
0
 40
0
 40
0
 40
0
 40
1
 40
1
 40
1
 40
1
 10
74.314119
 20
80.995187
 30
0.0
 10
74.401542
 20
80.831838
 30
0.0
 10
74.496615
 20
80.815662
 30
0.0
 10
75.498542
 20
80.793648
 30
0.0
  0
LWPOLYLINE
  5
20f
100
AcDbEntity
  8
0
 62
7
100
AcDbPolyline
 90
3
 70
0
 10
76.833870
 20
79.934782
 30
0.0
 10
76.823525
 20
81.026706
 30
0.0
 10
75.723335
 20
81.050995
 30
0.0
  0
SPLINE
  5
210
100
AcDbEntity
  8
0
 62
7
100
AcDbSpline
 70
8
 71
3
 72
8
 73
4
 74
0
 40
0
 40
0
 40
0
 40
0
 40
1
 40
1
 40
1
 40
1
 10
71.404210
 20
76.724642
 30
0.0
 10
67.980359
 20
76.695681
 30
0.0
 10
68.422999
 20
76.568395
 30
0.0
 10
67.004996
 20
77.986580
 30
0.0
  0
LWPOLYLINE
  5
211
100
AcDbEntity
  8
0
 62
7
100
AcDbPolyline
 90
7
 70
0
 10
75.498542
 20
80.793648
 30
0.0
 10
76.587882
 20
80.770391
 30
0.0
 10
76.611139
 20
79.914628
 30
0.0
 10
76.634898
 20
79.059384
 30
0.0
 10
75.476314
 20
77.904414
 30
0.0
 10
74.318244
 20
76.748931
 30
0.0
 10
71.404210
 20
76.724642
 30
0.0
  0
SPLINE
  5
212
100
AcDbEntity
  8
0
 62
7
100
AcDbSpline
 70
8
 71
3
 72
8
 73
4
 74
0
 40
0
 40
0
 40
0
 40
0
 40
1
 40
1
 40
1
 40
1
 10
68.335665
 20
81.211706
 30
0.0
 10
68.383211
 20
81.567906
 30
0.0
 10
68.276407
 20
81.840091
 30
0.0
 10
68.089169
 20
81.840091
 30
0.0
  0
SPLINE
  5
213
100
AcDbEntity
  8
0
 62
7
100
AcDbSpline
 70
8
 71
3
 72
8
 73
4
 74
0
 40
0
 40
0
 40
0
 40
0
 40
1
 40
1
 40
1
 40
1
 10
68.089169
 20
81.840091
 30
0.0
 10
67.953287
 20
81.840091
 30
0.0
 10
67.795505
 20
82.171540
 30
0.0
 10
67.856108
 20
82.329467
 30
0.0
  0
SPLINE
  5
214
100
AcDbEntity
  8
0
 62
7
100
AcDbSpline
 70
8
 71
3
 72
8
 73
4
 74
0
 40
0
 40
0
 40
0
 40
0
 40
1
 40
1
 40
1
 40
1
 10
67.856108
 20
82.329467
 30
0.0
 10
67.884397
 20
82.403185
 30
0.0
 10
67.842614
 20
82.535162
 30
0.0
 10
67.763607
 20
82.622475
 30
0.0
  0
SPLINE
  5
215
100
AcDbEntity
  8
0
 62
7
100
AcDbSpline
 70
8
 71
3
 72
8
 73
4
 74
0
 40
0
 40
0
 40
0
 40
0
 40
1
 40
1
 40
1
 40
1
 10
67.763607
 20
82.622475
 30
0.0
 10
67.626230
 20
82.774266
 30
0.0
 10
67.352323
 20
82.781121
 30
0.0
 10
61.509725
 20
82.781121
 30
0.0
  0
LWPOLYLINE
  5
216
100
AcDbEntity
  8
0
 62
7
100
AcDbPolyline
 90
7
 70
0
 10
67.004996
 20
77.986580
 30
0.0
 10
66.063453
 20
78.928127
 30
0.0
 10
66.063453
 20
79.848998
 30
0.0
 10
66.063453
 20
80.770391
 30
0.0
 10
67.176044
 20
80.813283
 30
0.0
 10
68.288122
 20
80.856172
 30
0.0
 10
68.335665
 20
81.211706
 30
0.0
  0
SPLINE
  5
217
100
AcDbEntity
  8
0
 62
7
100
AcDbSpline
 70
8
 71
3
 72
8
 73
4
 74
0
 40
0
 40
0
 40
0
 40
0
 40
1
 40
1
 40
1
 40
1
 10
80.175021
 20
82.324125
 30
0.0
 10
80.150811
 20
82.321479
 30
0.0
 10
80.210459
 20
82.256514
 30
0.0
 10
80.363123
 20
82.099333
 30
0.0
  0
SPLINE
  5
218
100
AcDbEntity
  8
0
 62
7
100
AcDbSpline
 70
8
 71
3
 72
8
 73
4
 74
0
 40
0
 40
0
 40
0
 40
0
 40
1
 40
1
 40
1
 40
1
 10
80.363123
 20
82.099333
 30
0.0
 10
80.927638
 20
81.518130
 30
0.0
 10
80.979492
 20
81.239405
 30
0.0
 10
80.988408
 20
78.758452
 30
0.0
  0
LWPOLYLINE
  5
219
100
AcDbEntity
  8
0
 62
7
100
AcDbPolyline
 90
2
 70
0
 10
61.509725
 20
82.781121
 30
0.0
 10
61.508460
 20
82.779912
 30
0.0
  0
SPLINE
  5
21a
100
AcDbEntity
  8
0
 62
7
100
AcDbSpline
 70
8
 71
3
 72
8
 73
4
 74
0
 40
0
 40
0
 40
0
 40
0
 40
1
 40
1
 40
1
 40
1
 10
80.729495
 20
76.532229
 30
0.0
 10
80.425179
 20
76.532229
 30
0.0
 10
80.060739
 20
76.286442
 30
0.0
 10
80.116614
 20
76.118818
 30
0.0
  0
SPLINE
  5
21b
100
AcDbEntity
  8
0
 62
7
100
AcDbSpline
 70
8
 71
3
 72
8
 73
4
 74
0
 40
0
 40
0
 40
0
 40
0
 40
1
 40
1
 40
1
 40
1
 10
80.116614
 20
76.118818
 30
0.0
 10
80.143601
 20
76.037855
 30
0.0
 10
80.073786
 20
76.014741
 30
0.0
 10
79.866498
 20
76.034585
 30
0.0
  0
LWPOLYLINE
  5
21c
100
AcDbEntity
  8
0
 62
7
100
AcDbPolyline
 90
3
 70
0
 10
80.988408
 20
78.758452
 30
0.0
 10
80.996663
 20
76.532229
 30
0.0
 10
80.729495
 20
76.532229
 30
0.0
  0
SPLINE
  5
21d
100
AcDbEntity
  8
0
 62
7
100
AcDbSpline
 70
8
 71
3
 72
8
 73
4
 74
0
 40
0
 40
0
 40
0
 40
0
 40
1
 40
1
 40
1
 40
1
 10
75.018217
 20
73.075064
 30
0.0
 10
75.003745
 20
71.470602
 30
0.0
 10
75.016101
 20
70.029597
 30
0.0
 10
75.045088
 20
69.872675
 30
0.0
  0
SPLINE
  5
21e
100
AcDbEntity
  8
0
 62
7
100
AcDbSpline
 70
8
 71
3
 72
8
 73
4
 74
0
 40
0
 40
0
 40
0
 40
0
 40
1
 40
1
 40
1
 40
1
 10
75.045088
 20
69.872675
 30
0.0
 10
75.085840
 20
69.652983
 30
0.0
 10
75.362300
 20
69.322913
 30
0.0
 10
76.247599
 20
68.437104
 30
0.0
  0
LWPOLYLINE
  5
21f
100
AcDbEntity
  8
0
 62
7
100
AcDbPolyline
 90
9
 70
0
 10
79.866498
 20
76.034585
 30
0.0
 10
79.579695
 20
76.061975
 30
0.0
 10
79.579695
 20
77.195757
 30
0.0
 10
79.579695
 20
78.329536
 30
0.0
 10
78.495006
 20
78.329007
 30
0.0
 10
77.410318
 20
78.329007
 30
0.0
 10
76.227445
 20
77.160602
 30
0.0
 10
75.044570
 20
75.992715
 30
0.0
 10
75.018217
 20
73.075064
 30
0.0
  0
SPLINE
  5
220
100
AcDbEntity
  8
0
 62
7
100
AcDbSpline
 70
8
 71
3
 72
8
 73
4
 74
0
 40
0
 40
0
 40
0
 40
0
 40
1
 40
1
 40
1
 40
1
 10
79.857722
 20
69.585874
 30
0.0
 10
80.035770
 20
69.603046
 30
0.0
 10
80.135741
 20
69.574974
 30
0.0
 10
80.135741
 20
69.507325
 30
0.0
  0
SPLINE
  5
221
100
AcDbEntity
  8
0
 62
7
100
AcDbSpline
 70
8
 71
3
 72
8
 73
4
 74
0
 40
0
 40
0
 40
0
 40
0
 40
1
 40
1
 40
1
 40
1
 10
80.135741
 20
69.507325
 30
0.0
 10
80.135741
 20
69.297341
 30
0.0
 10
80.419564
 20
69.088746
 30
0.0
 10
80.705217
 20
69.088746
 30
0.0
  0
LWPOLYLINE
  5
222
100
AcDbEntity
  8
0
 62
7
100
AcDbPolyline
 90
7
 70
0
 10
76.247599
 20
68.437104
 30
0.0
 10
77.397398
 20
67.286785
 30
0.0
 10
78.478986
 20
67.310571
 30
0.0
 10
79.560573
 20
67.334331
 30
0.0
 10
79.569887
 20
68.446925
 30
0.0
 10
79.579703
 20
69.559001
 30
0.0
 10
79.857722
 20
69.585874
 30
0.0
  0
SPLINE
  5
223
100
AcDbEntity
  8
0
 62
7
100
AcDbSpline
 70
8
 71
3
 72
8
 73
4
 74
0
 40
0
 40
0
 40
0
 40
0
 40
1
 40
1
 40
1
 40
1
 10
80.991504
 20
67.516232
 30
0.0
 10
80.991504
 20
66.651526
 30
0.0
 10
81.018309
 20
65.814189
 30
0.0
 10
81.051448
 20
65.655365
 30
0.0
  0
LWPOLYLINE
  5
224
100
AcDbEntity
  8
0
 62
7
100
AcDbPolyline
 90
3
 70
0
 10
80.705217
 20
69.088746
 30
0.0
 10
80.991504
 20
69.088746
 30
0.0
 10
80.991504
 20
67.516232
 30
0.0
  0
SPLINE
  5
225
100
AcDbEntity
  8
0
 62
7
100
AcDbSpline
 70
8
 71
3
 72
8
 73
4
 74
0
 40
0
 40
0
 40
0
 40
0
 40
1
 40
1
 40
1
 40
1
 10
81.174955
 20
65.709107
 30
0.0
 10
81.284757
 20
66.304112
 30
0.0
 10
81.261265
 20
69.126973
 30
0.0
 10
81.145499
 20
69.242742
 30
0.0
  0
SPLINE
  5
226
100
AcDbEntity
  8
0
 62
7
100
AcDbSpline
 70
8
 71
3
 72
8
 73
4
 74
0
 40
0
 40
0
 40
0
 40
0
 40
1
 40
1
 40
1
 40
1
 10
81.145499
 20
69.242742
 30
0.0
 10
81.089029
 20
69.299212
 30
0.0
 10
80.914383
 20
69.345061
 30
0.0
 10
80.757924
 20
69.345061
 30
0.0
  0
SPLINE
  5
227
100
AcDbEntity
  8
0
 62
7
100
AcDbSpline
 70
8
 71
3
 72
8
 73
4
 74
0
 40
0
 40
0
 40
0
 40
0
 40
1
 40
1
 40
1
 40
1
 10
80.757924
 20
69.345061
 30
0.0
 10
80.537592
 20
69.345061
 30
0.0
 10
80.456262
 20
69.390998
 30
0.0
 10
80.396707
 20
69.547634
 30
0.0
  0
SPLINE
  5
228
100
AcDbEntity
  8
0
 62
7
100
AcDbSpline
 70
8
 71
3
 72
8
 73
4
 74
0
 40
0
 40
0
 40
0
 40
0
 40
1
 40
1
 40
1
 40
1
 10
80.396707
 20
69.547634
 30
0.0
 10
80.310093
 20
69.775451
 30
0.0
 10
80.148438
 20
69.858726
 30
0.0
 10
79.792610
 20
69.858726
 30
0.0
  0
SPLINE
  5
229
100
AcDbEntity
  8
0
 62
7
100
AcDbSpline
 70
8
 71
3
 72
8
 73
4
 74
0
 40
0
 40
0
 40
0
 40
0
 40
1
 40
1
 40
1
 40
1
 10
79.792610
 20
69.858726
 30
0.0
 10
79.344060
 20
69.858726
 30
0.0
 10
79.279980
 20
69.698187
 30
0.0
 10
79.279980
 20
68.570949
 30
0.0
  0
SPLINE
  5
22a
100
AcDbEntity
  8
0
 62
7
100
AcDbSpline
 70
8
 71
3
 72
8
 73
4
 74
0
 40
0
 40
0
 40
0
 40
0
 40
1
 40
1
 40
1
 40
1
 10
79.279980
 20
68.570949
 30
0.0
 10
79.279980
 20
67.375214
 30
0.0
 10
79.329463
 20
67.422940
 30
0.0
 10
78.162735
 20
67.475925
 30
0.0
  0
LWPOLYLINE
  5
22b
100
AcDbEntity
  8
0
 62
7
100
AcDbPolyline
 90
3
 70
0
 10
81.051448
 20
65.655365
 30
0.0
 10
81.111908
 20
65.366493
 30
0.0
 10
81.174955
 20
65.709107
 30
0.0
  0
SPLINE
  5
22c
100
AcDbEntity
  8
0
 62
7
100
AcDbSpline
 70
8
 71
3
 72
8
 73
4
 74
0
 40
0
 40
0
 40
0
 40
0
 40
1
 40
1
 40
1
 40
1
 10
76.349408
 20
76.965268
 30
0.0
 10
77.546896
 20
78.171524
 30
0.0
 10
77.398301
 20
78.098147
 30
0.0
 10
78.616971
 20
78.081479
 30
0.0
  0
LWPOLYLINE
  5
22d
100
AcDbEntity
  8
0
 62
7
100
AcDbPolyline
 90
7
 70
0
 10
78.162735
 20
67.475925
 30
0.0
 10
77.471304
 20
67.507448
 30
0.0
 10
76.364912
 20
68.630893
 30
0.0
 10
75.258520
 20
69.754856
 30
0.0
 10
75.258520
 20
72.810484
 30
0.0
 10
75.258520
 20
75.866112
 30
0.0
 10
76.349408
 20
76.965268
 30
0.0
  0
SPLINE
  5
22e
100
AcDbEntity
  8
0
 62
7
100
AcDbSpline
 70
8
 71
3
 72
8
 73
4
 74
0
 40
0
 40
0
 40
0
 40
0
 40
1
 40
1
 40
1
 40
1
 10
79.279980
 20
77.061904
 30
0.0
 10
79.279980
 20
75.845911
 30
0.0
 10
79.330449
 20
75.738429
 30
0.0
 10
79.881492
 20
75.777744
 30
0.0
  0
SPLINE
  5
22f
100
AcDbEntity
  8
0
 62
7
100
AcDbSpline
 70
8
 71
3
 72
8
 73
4
 74
0
 40
0
 40
0
 40
0
 40
0
 40
1
 40
1
 40
1
 40
1
 10
79.881492
 20
75.777744
 30
0.0
 10
80.200130
 20
75.800471
 30
0.0
 10
80.281190
 20
75.843627
 30
0.0
 10
80.375003
 20
76.040260
 30
0.0
  0
SPLINE
  5
230
100
AcDbEntity
  8
0
 62
7
100
AcDbSpline
 70
8
 71
3
 72
8
 73
4
 74
0
 40
0
 40
0
 40
0
 40
0
 40
1
 40
1
 40
1
 40
1
 10
80.375003
 20
76.040260
 30
0.0
 10
80.463406
 20
76.225551
 30
0.0
 10
80.546488
 20
76.275904
 30
0.0
 10
80.765161
 20
76.275904
 30
0.0
  0
SPLINE
  5
231
100
AcDbEntity
  8
0
 62
7
100
AcDbSpline
 70
8
 71
3
 72
8
 73
4
 74
0
 40
0
 40
0
 40
0
 40
0
 40
1
 40
1
 40
1
 40
1
 10
80.765161
 20
76.275904
 30
0.0
 10
80.917886
 20
76.275904
 30
0.0
 10
81.089029
 20
76.321753
 30
0.0
 10
81.145499
 20
76.378223
 30
0.0
  0
SPLINE
  5
232
100
AcDbEntity
  8
0
 62
7
100
AcDbSpline
 70
8
 71
3
 72
8
 73
4
 74
0
 40
0
 40
0
 40
0
 40
0
 40
1
 40
1
 40
1
 40
1
 10
81.145499
 20
76.378223
 30
0.0
 10
81.220043
 20
76.452767
 30
0.0
 10
81.247819
 20
77.085222
 30
0.0
 10
81.247819
 20
78.685578
 30
0.0
  0
SPLINE
  5
233
100
AcDbEntity
  8
0
 62
7
100
AcDbSpline
 70
8
 71
3
 72
8
 73
4
 74
0
 40
0
 40
0
 40
0
 40
0
 40
1
 40
1
 40
1
 40
1
 10
81.247819
 20
78.685578
 30
0.0
 10
81.247819
 20
80.684095
 30
0.0
 10
81.231679
 20
80.932708
 30
0.0
 10
81.075736
 20
81.349495
 30
0.0
  0
SPLINE
  5
234
100
AcDbEntity
  8
0
 62
7
100
AcDbSpline
 70
8
 71
3
 72
8
 73
4
 74
0
 40
0
 40
0
 40
0
 40
0
 40
1
 40
1
 40
1
 40
1
 10
81.075736
 20
81.349495
 30
0.0
 10
80.900220
 20
81.818604
 30
0.0
 10
80.687564
 20
82.072745
 30
0.0
 10
80.306791
 20
82.267787
 30
0.0
  0
SPLINE
  5
235
100
AcDbEntity
  8
0
 62
7
100
AcDbSpline
 70
8
 71
3
 72
8
 73
4
 74
0
 40
0
 40
0
 40
0
 40
0
 40
1
 40
1
 40
1
 40
1
 10
80.306791
 20
82.267787
 30
0.0
 10
80.234213
 20
82.304961
 30
0.0
 10
80.189544
 20
82.325673
 30
0.0
 10
80.175015
 20
82.324115
 30
0.0
  0
LWPOLYLINE
  5
236
100
AcDbEntity
  8
0
 62
7
100
AcDbPolyline
 90
3
 70
0
 10
78.616971
 20
78.081479
 30
0.0
 10
79.279980
 20
78.072694
 30
0.0
 10
79.279980
 20
77.061904
 30
0.0
  0
SPLINE
  5
237
100
AcDbEntity
  8
0
 62
7
100
AcDbSpline
 70
8
 71
3
 72
8
 73
4
 74
0
 40
0
 40
0
 40
0
 40
0
 40
1
 40
1
 40
1
 40
1
 10
61.467119
 20
81.066838
 30
0.0
 10
59.922915
 20
81.066838
 30
0.0
 10
58.655955
 20
81.037546
 30
0.0
 10
58.652304
 20
81.002240
 30
0.0
  0
SPLINE
  5
238
100
AcDbEntity
  8
0
 62
7
100
AcDbSpline
 70
8
 71
3
 72
8
 73
4
 74
0
 40
0
 40
0
 40
0
 40
0
 40
1
 40
1
 40
1
 40
1
 10
58.652304
 20
81.002240
 30
0.0
 10
58.648626
 20
80.966953
 30
0.0
 10
58.634127
 20
80.489383
 30
0.0
 10
58.619747
 20
79.940809
 30
0.0
  0
SPLINE
  5
239
100
AcDbEntity
  8
0
 62
7
100
AcDbSpline
 70
8
 71
3
 72
8
 73
4
 74
0
 40
0
 40
0
 40
0
 40
0
 40
1
 40
1
 40
1
 40
1
 10
58.619747
 20
79.940809
 30
0.0
 10
58.593553
 20
78.942203
 30
0.0
 10
58.547389
 20
78.709912
 30
0.0
 10
58.394439
 20
78.804442
 30
0.0
  0
SPLINE
  5
23a
100
AcDbEntity
  8
0
 62
7
100
AcDbSpline
 70
8
 71
3
 72
8
 73
4
 74
0
 40
0
 40
0
 40
0
 40
0
 40
1
 40
1
 40
1
 40
1
 10
58.394439
 20
78.804442
 30
0.0
 10
58.349473
 20
78.832228
 30
0.0
 10
58.321543
 20
78.823069
 30
0.0
 10
58.332426
 20
78.784281
 30
0.0
  0
SPLINE
  5
23b
100
AcDbEntity
  8
0
 62
7
100
AcDbSpline
 70
8
 71
3
 72
8
 73
4
 74
0
 40
0
 40
0
 40
0
 40
0
 40
1
 40
1
 40
1
 40
1
 10
58.332426
 20
78.784281
 30
0.0
 10
58.351370
 20
78.716778
 30
0.0
 10
57.522195
 20
77.831378
 30
0.0
 10
57.307684
 20
77.676338
 30
0.0
  0
SPLINE
  5
23c
100
AcDbEntity
  8
0
 62
7
100
AcDbSpline
 70
8
 71
3
 72
8
 73
4
 74
0
 40
0
 40
0
 40
0
 40
0
 40
1
 40
1
 40
1
 40
1
 10
57.307684
 20
77.676338
 30
0.0
 10
57.307155
 20
77.673957
 30
0.0
 10
57.307932
 20
77.670888
 30
0.0
 10
57.307684
 20
77.669115
 30
0.0
  0
SPLINE
  5
23d
100
AcDbEntity
  8
0
 62
7
100
AcDbSpline
 70
8
 71
3
 72
8
 73
4
 74
0
 40
0
 40
0
 40
0
 40
0
 40
1
 40
1
 40
1
 40
1
 10
57.307684
 20
77.669115
 30
0.0
 10
57.307604
 20
77.666998
 30
0.0
 10
57.308213
 20
77.664908
 30
0.0
 10
57.307684
 20
77.662924
 30
0.0
  0
SPLINE
  5
23e
100
AcDbEntity
  8
0
 62
7
100
AcDbSpline
 70
8
 71
3
 72
8
 73
4
 74
0
 40
0
 40
0
 40
0
 40
0
 40
1
 40
1
 40
1
 40
1
 10
57.307684
 20
77.662924
 30
0.0
 10
57.299005
 20
77.631756
 30
0.0
 10
57.302233
 20
77.642974
 30
0.0
 10
57.282363
 20
77.618482
 30
0.0
  0
SPLINE
  5
23f
100
AcDbEntity
  8
0
 62
7
100
AcDbSpline
 70
8
 71
3
 72
8
 73
4
 74
0
 40
0
 40
0
 40
0
 40
0
 40
1
 40
1
 40
1
 40
1
 10
57.282363
 20
77.618482
 30
0.0
 10
57.281569
 20
77.617688
 30
0.0
 10
57.280246
 20
77.614513
 30
0.0
 10
57.280776
 20
77.615386
 30
0.0
  0
SPLINE
  5
240
100
AcDbEntity
  8
0
 62
7
100
AcDbSpline
 70
8
 71
3
 72
8
 73
4
 74
0
 40
0
 40
0
 40
0
 40
0
 40
1
 40
1
 40
1
 40
1
 10
57.280776
 20
77.615386
 30
0.0
 10
57.282892
 20
77.617767
 30
0.0
 10
57.285591
 20
77.626234
 30
0.0
 10
57.285935
 20
77.623138
 30
0.0
  0
SPLINE
  5
241
100
AcDbEntity
  8
0
 62
7
100
AcDbSpline
 70
8
 71
3
 72
8
 73
4
 74
0
 40
0
 40
0
 40
0
 40
0
 40
1
 40
1
 40
1
 40
1
 10
57.285935
 20
77.623138
 30
0.0
 10
57.286464
 20
77.618349
 30
0.0
 10
57.282866
 20
77.613745
 30
0.0
 10
57.281278
 20
77.609195
 30
0.0
  0
SPLINE
  5
242
100
AcDbEntity
  8
0
 62
7
100
AcDbSpline
 70
8
 71
3
 72
8
 73
4
 74
0
 40
0
 40
0
 40
0
 40
0
 40
1
 40
1
 40
1
 40
1
 10
57.281278
 20
77.609195
 30
0.0
 10
57.261673
 20
77.586202
 30
0.0
 10
57.251785
 20
77.578297
 30
0.0
 10
57.228049
 20
77.574053
 30
0.0
  0
SPLINE
  5
243
100
AcDbEntity
  8
0
 62
7
100
AcDbSpline
 70
8
 71
3
 72
8
 73
4
 74
0
 40
0
 40
0
 40
0
 40
0
 40
1
 40
1
 40
1
 40
1
 10
57.228049
 20
77.574053
 30
0.0
 10
57.227520
 20
77.572994
 30
0.0
 10
57.228145
 20
77.572994
 30
0.0
 10
57.227520
 20
77.571936
 30
0.0
  0
SPLINE
  5
244
100
AcDbEntity
  8
0
 62
7
100
AcDbSpline
 70
8
 71
3
 72
8
 73
4
 74
0
 40
0
 40
0
 40
0
 40
0
 40
1
 40
1
 40
1
 40
1
 10
57.227520
 20
77.571936
 30
0.0
 10
57.231463
 20
77.572465
 30
0.0
 10
57.232812
 20
77.574317
 30
0.0
 10
57.234743
 20
77.572994
 30
0.0
  0
SPLINE
  5
245
100
AcDbEntity
  8
0
 62
7
100
AcDbSpline
 70
8
 71
3
 72
8
 73
4
 74
0
 40
0
 40
0
 40
0
 40
0
 40
1
 40
1
 40
1
 40
1
 10
57.234743
 20
77.572994
 30
0.0
 10
57.238236
 20
77.570613
 30
0.0
 10
57.227785
 20
77.567888
 30
0.0
 10
57.224398
 20
77.565242
 30
0.0
  0
SPLINE
  5
246
100
AcDbEntity
  8
0
 62
7
100
AcDbSpline
 70
8
 71
3
 72
8
 73
4
 74
0
 40
0
 40
0
 40
0
 40
0
 40
1
 40
1
 40
1
 40
1
 10
57.224398
 20
77.565242
 30
0.0
 10
57.223869
 20
77.564977
 30
0.0
 10
57.223340
 20
77.564448
 30
0.0
 10
57.222811
 20
77.564184
 30
0.0
  0
SPLINE
  5
247
100
AcDbEntity
  8
0
 62
7
100
AcDbSpline
 70
8
 71
3
 72
8
 73
4
 74
0
 40
0
 40
0
 40
0
 40
0
 40
1
 40
1
 40
1
 40
1
 10
57.222811
 20
77.564184
 30
0.0
 10
57.219027
 20
77.557913
 30
0.0
 10
57.214476
 20
77.551378
 30
0.0
 10
57.211963
 20
77.546615
 30
0.0
  0
SPLINE
  5
248
100
AcDbEntity
  8
0
 62
7
100
AcDbSpline
 70
8
 71
3
 72
8
 73
4
 74
0
 40
0
 40
0
 40
0
 40
0
 40
1
 40
1
 40
1
 40
1
 10
57.211963
 20
77.546615
 30
0.0
 10
57.210904
 20
77.544763
 30
0.0
 10
57.210640
 20
77.542514
 30
0.0
 10
57.209846
 20
77.540424
 30
0.0
  0
SPLINE
  5
249
100
AcDbEntity
  8
0
 62
7
100
AcDbSpline
 70
8
 71
3
 72
8
 73
4
 74
0
 40
0
 40
0
 40
0
 40
0
 40
1
 40
1
 40
1
 40
1
 10
57.209846
 20
77.540424
 30
0.0
 10
57.197067
 20
77.522406
 30
0.0
 10
57.184552
 20
77.512429
 30
0.0
 10
57.167473
 20
77.507351
 30
0.0
  0
SPLINE
  5
24a
100
AcDbEntity
  8
0
 62
7
100
AcDbSpline
 70
8
 71
3
 72
8
 73
4
 74
0
 40
0
 40
0
 40
0
 40
0
 40
1
 40
1
 40
1
 40
1
 10
57.167473
 20
77.507351
 30
0.0
 10
57.161943
 20
77.500128
 30
0.0
 10
57.151783
 20
77.487164
 30
0.0
 10
57.147312
 20
77.484624
 30
0.0
  0
SPLINE
  5
24b
100
AcDbEntity
  8
0
 62
7
100
AcDbSpline
 70
8
 71
3
 72
8
 73
4
 74
0
 40
0
 40
0
 40
0
 40
0
 40
1
 40
1
 40
1
 40
1
 10
57.147312
 20
77.484624
 30
0.0
 10
57.138977
 20
77.479887
 30
0.0
 10
57.135776
 20
77.481369
 30
0.0
 10
57.131305
 20
77.480999
 30
0.0
  0
SPLINE
  5
24c
100
AcDbEntity
  8
0
 62
7
100
AcDbSpline
 70
8
 71
3
 72
8
 73
4
 74
0
 40
0
 40
0
 40
0
 40
0
 40
1
 40
1
 40
1
 40
1
 10
57.131305
 20
77.480999
 30
0.0
 10
57.128923
 20
77.478141
 30
0.0
 10
57.126304
 20
77.474622
 30
0.0
 10
57.125616
 20
77.474278
 30
0.0
  0
SPLINE
  5
24d
100
AcDbEntity
  8
0
 62
7
100
AcDbSpline
 70
8
 71
3
 72
8
 73
4
 74
0
 40
0
 40
0
 40
0
 40
0
 40
1
 40
1
 40
1
 40
1
 10
57.125616
 20
77.474278
 30
0.0
 10
57.116620
 20
77.454831
 30
0.0
 10
57.096578
 20
77.463721
 30
0.0
 10
57.082724
 20
77.456710
 30
0.0
  0
SPLINE
  5
24e
100
AcDbEntity
  8
0
 62
7
100
AcDbSpline
 70
8
 71
3
 72
8
 73
4
 74
0
 40
0
 40
0
 40
0
 40
0
 40
1
 40
1
 40
1
 40
1
 10
57.082724
 20
77.456710
 30
0.0
 10
57.081137
 20
77.455916
 30
0.0
 10
57.081137
 20
77.453297
 30
0.0
 10
57.080608
 20
77.451551
 30
0.0
  0
SPLINE
  5
24f
100
AcDbEntity
  8
0
 62
7
100
AcDbSpline
 70
8
 71
3
 72
8
 73
4
 74
0
 40
0
 40
0
 40
0
 40
0
 40
1
 40
1
 40
1
 40
1
 10
57.080608
 20
77.451551
 30
0.0
 10
57.069866
 20
77.442396
 30
0.0
 10
57.072379
 20
77.444989
 30
0.0
 10
57.071321
 20
77.444327
 30
0.0
  0
SPLINE
  5
250
100
AcDbEntity
  8
0
 62
7
100
AcDbSpline
 70
8
 71
3
 72
8
 73
4
 74
0
 40
0
 40
0
 40
0
 40
0
 40
1
 40
1
 40
1
 40
1
 10
57.071321
 20
77.444327
 30
0.0
 10
57.068199
 20
77.440253
 30
0.0
 10
57.065500
 20
77.435676
 30
0.0
 10
57.060976
 20
77.433480
 30
0.0
  0
SPLINE
  5
251
100
AcDbEntity
  8
0
 62
7
100
AcDbSpline
 70
8
 71
3
 72
8
 73
4
 74
0
 40
0
 40
0
 40
0
 40
0
 40
1
 40
1
 40
1
 40
1
 10
57.060976
 20
77.433480
 30
0.0
 10
57.050948
 20
77.428585
 30
0.0
 10
57.039042
 20
77.428638
 30
0.0
 10
57.028421
 20
77.425225
 30
0.0
  0
SPLINE
  5
252
100
AcDbEntity
  8
0
 62
7
100
AcDbSpline
 70
8
 71
3
 72
8
 73
4
 74
0
 40
0
 40
0
 40
0
 40
0
 40
1
 40
1
 40
1
 40
1
 10
57.028421
 20
77.425225
 30
0.0
 10
57.022071
 20
77.423108
 30
0.0
 10
57.041412
 20
77.429934
 30
0.0
 10
57.048053
 20
77.429352
 30
0.0
  0
SPLINE
  5
253
100
AcDbEntity
  8
0
 62
7
100
AcDbSpline
 70
8
 71
3
 72
8
 73
4
 74
0
 40
0
 40
0
 40
0
 40
0
 40
1
 40
1
 40
1
 40
1
 10
57.048053
 20
77.429352
 30
0.0
 10
57.051361
 20
77.429087
 30
0.0
 10
57.042180
 20
77.426283
 30
0.0
 10
57.039269
 20
77.424695
 30
0.0
  0
SPLINE
  5
254
100
AcDbEntity
  8
0
 62
7
100
AcDbSpline
 70
8
 71
3
 72
8
 73
4
 74
0
 40
0
 40
0
 40
0
 40
0
 40
1
 40
1
 40
1
 40
1
 10
57.039269
 20
77.424695
 30
0.0
 10
57.037153
 20
77.424166
 30
0.0
 10
57.035062
 20
77.423902
 30
0.0
 10
57.033078
 20
77.423108
 30
0.0
  0
SPLINE
  5
255
100
AcDbEntity
  8
0
 62
7
100
AcDbSpline
 70
8
 71
3
 72
8
 73
4
 74
0
 40
0
 40
0
 40
0
 40
0
 40
1
 40
1
 40
1
 40
1
 10
57.033078
 20
77.423108
 30
0.0
 10
57.031755
 20
77.421256
 30
0.0
 10
57.028607
 20
77.418689
 30
0.0
 10
57.025828
 20
77.417419
 30
0.0
  0
SPLINE
  5
256
100
AcDbEntity
  8
0
 62
7
100
AcDbSpline
 70
8
 71
3
 72
8
 73
4
 74
0
 40
0
 40
0
 40
0
 40
0
 40
1
 40
1
 40
1
 40
1
 10
57.025828
 20
77.417419
 30
0.0
 10
56.989602
 20
77.400751
 30
0.0
 10
57.005270
 20
77.417949
 30
0.0
 10
57.003101
 20
77.406571
 30
0.0
  0
SPLINE
  5
257
100
AcDbEntity
  8
0
 62
7
100
AcDbSpline
 70
8
 71
3
 72
8
 73
4
 74
0
 40
0
 40
0
 40
0
 40
0
 40
1
 40
1
 40
1
 40
1
 10
57.003101
 20
77.406571
 30
0.0
 10
56.961273
 20
77.378134
 30
0.0
 10
56.997809
 20
77.404984
 30
0.0
 10
56.996380
 20
77.402947
 30
0.0
  0
SPLINE
  5
258
100
AcDbEntity
  8
0
 62
7
100
AcDbSpline
 70
8
 71
3
 72
8
 73
4
 74
0
 40
0
 40
0
 40
0
 40
0
 40
1
 40
1
 40
1
 40
1
 10
56.996380
 20
77.402947
 30
0.0
 10
56.994793
 20
77.400565
 30
0.0
 10
56.992200
 20
77.399534
 30
0.0
 10
56.989660
 20
77.396755
 30
0.0
  0
SPLINE
  5
259
100
AcDbEntity
  8
0
 62
7
100
AcDbSpline
 70
8
 71
3
 72
8
 73
4
 74
0
 40
0
 40
0
 40
0
 40
0
 40
1
 40
1
 40
1
 40
1
 10
56.989660
 20
77.396755
 30
0.0
 10
56.985347
 20
77.388104
 30
0.0
 10
56.982781
 20
77.379425
 30
0.0
 10
56.973653
 20
77.367818
 30
0.0
  0
SPLINE
  5
25a
100
AcDbEntity
  8
0
 62
7
100
AcDbSpline
 70
8
 71
3
 72
8
 73
4
 74
0
 40
0
 40
0
 40
0
 40
0
 40
1
 40
1
 40
1
 40
1
 10
56.973653
 20
77.367818
 30
0.0
 10
56.968043
 20
77.360701
 30
0.0
 10
56.966509
 20
77.363452
 30
0.0
 10
56.968996
 20
77.359563
 30
0.0
  0
SPLINE
  5
25b
100
AcDbEntity
  8
0
 62
7
100
AcDbSpline
 70
8
 71
3
 72
8
 73
4
 74
0
 40
0
 40
0
 40
0
 40
0
 40
1
 40
1
 40
1
 40
1
 10
56.968996
 20
77.359563
 30
0.0
 10
56.959524
 20
77.344535
 30
0.0
 10
56.957407
 20
77.327924
 30
0.0
 10
56.956084
 20
77.310469
 30
0.0
  0
SPLINE
  5
25c
100
AcDbEntity
  8
0
 62
7
100
AcDbSpline
 70
8
 71
3
 72
8
 73
4
 74
0
 40
0
 40
0
 40
0
 40
0
 40
1
 40
1
 40
1
 40
1
 10
56.956084
 20
77.310469
 30
0.0
 10
56.955290
 20
77.299622
 30
0.0
 10
56.957407
 20
77.281752
 30
0.0
 10
56.951957
 20
77.271713
 30
0.0
  0
SPLINE
  5
25d
100
AcDbEntity
  8
0
 62
7
100
AcDbSpline
 70
8
 71
3
 72
8
 73
4
 74
0
 40
0
 40
0
 40
0
 40
0
 40
1
 40
1
 40
1
 40
1
 10
56.951957
 20
77.271713
 30
0.0
 10
56.946506
 20
77.261765
 30
0.0
 10
56.938595
 20
77.253563
 30
0.0
 10
56.931293
 20
77.244840
 30
0.0
  0
SPLINE
  5
25e
100
AcDbEntity
  8
0
 62
7
100
AcDbSpline
 70
8
 71
3
 72
8
 73
4
 74
0
 40
0
 40
0
 40
0
 40
0
 40
1
 40
1
 40
1
 40
1
 10
56.931293
 20
77.244840
 30
0.0
 10
56.923884
 20
77.241400
 30
0.0
 10
56.918937
 20
77.240024
 30
0.0
 10
56.907533
 20
77.234494
 30
0.0
  0
SPLINE
  5
25f
100
AcDbEntity
  8
0
 62
7
100
AcDbSpline
 70
8
 71
3
 72
8
 73
4
 74
0
 40
0
 40
0
 40
0
 40
0
 40
1
 40
1
 40
1
 40
1
 10
56.907533
 20
77.234494
 30
0.0
 10
56.906210
 20
77.232113
 30
0.0
 10
56.906475
 20
77.231055
 30
0.0
 10
56.905946
 20
77.229335
 30
0.0
  0
SPLINE
  5
260
100
AcDbEntity
  8
0
 62
7
100
AcDbSpline
 70
8
 71
3
 72
8
 73
4
 74
0
 40
0
 40
0
 40
0
 40
0
 40
1
 40
1
 40
1
 40
1
 10
56.905946
 20
77.229335
 30
0.0
 10
56.902030
 20
77.207189
 30
0.0
 10
56.880837
 20
77.199752
 30
0.0
 10
56.867705
 20
77.184893
 30
0.0
  0
SPLINE
  5
261
100
AcDbEntity
  8
0
 62
7
100
AcDbSpline
 70
8
 71
3
 72
8
 73
4
 74
0
 40
0
 40
0
 40
0
 40
0
 40
1
 40
1
 40
1
 40
1
 10
56.867705
 20
77.184893
 30
0.0
 10
56.867504
 20
77.184099
 30
0.0
 10
56.867462
 20
77.184676
 30
0.0
 10
56.867176
 20
77.183835
 30
0.0
  0
SPLINE
  5
262
100
AcDbEntity
  8
0
 62
7
100
AcDbSpline
 70
8
 71
3
 72
8
 73
4
 74
0
 40
0
 40
0
 40
0
 40
0
 40
1
 40
1
 40
1
 40
1
 10
56.867176
 20
77.183835
 30
0.0
 10
56.865853
 20
77.182247
 30
0.0
 10
56.863631
 20
77.181453
 30
0.0
 10
56.862520
 20
77.179707
 30
0.0
  0
SPLINE
  5
263
100
AcDbEntity
  8
0
 62
7
100
AcDbSpline
 70
8
 71
3
 72
8
 73
4
 74
0
 40
0
 40
0
 40
0
 40
0
 40
1
 40
1
 40
1
 40
1
 10
56.862520
 20
77.179707
 30
0.0
 10
56.862255
 20
77.179178
 30
0.0
 10
56.864636
 20
77.179178
 30
0.0
 10
56.865165
 20
77.179707
 30
0.0
  0
SPLINE
  5
264
100
AcDbEntity
  8
0
 62
7
100
AcDbSpline
 70
8
 71
3
 72
8
 73
4
 74
0
 40
0
 40
0
 40
0
 40
0
 40
1
 40
1
 40
1
 40
1
 10
56.865165
 20
77.179707
 30
0.0
 10
56.861329
 20
77.164494
 30
0.0
 10
56.861382
 20
77.173675
 30
0.0
 10
56.814522
 20
77.142499
 30
0.0
  0
SPLINE
  5
265
100
AcDbEntity
  8
0
 62
7
100
AcDbSpline
 70
8
 71
3
 72
8
 73
4
 74
0
 40
0
 40
0
 40
0
 40
0
 40
1
 40
1
 40
1
 40
1
 10
56.814522
 20
77.142499
 30
0.0
 10
56.811320
 20
77.140382
 30
0.0
 10
56.822697
 20
77.141705
 30
0.0
 10
56.826401
 20
77.142499
 30
0.0
  0
SPLINE
  5
266
100
AcDbEntity
  8
0
 62
7
100
AcDbSpline
 70
8
 71
3
 72
8
 73
4
 74
0
 40
0
 40
0
 40
0
 40
0
 40
1
 40
1
 40
1
 40
1
 10
56.826401
 20
77.142499
 30
0.0
 10
56.832540
 20
77.144351
 30
0.0
 10
56.839366
 20
77.155675
 30
0.0
 10
56.843441
 20
77.150754
 30
0.0
  0
SPLINE
  5
267
100
AcDbEntity
  8
0
 62
7
100
AcDbSpline
 70
8
 71
3
 72
8
 73
4
 74
0
 40
0
 40
0
 40
0
 40
0
 40
1
 40
1
 40
1
 40
1
 10
56.843441
 20
77.150754
 30
0.0
 10
56.847462
 20
77.145912
 30
0.0
 10
56.836350
 20
77.139879
 30
0.0
 10
56.831561
 20
77.135778
 30
0.0
  0
SPLINE
  5
268
100
AcDbEntity
  8
0
 62
7
100
AcDbSpline
 70
8
 71
3
 72
8
 73
4
 74
0
 40
0
 40
0
 40
0
 40
0
 40
1
 40
1
 40
1
 40
1
 10
56.831561
 20
77.135778
 30
0.0
 10
56.824496
 20
77.129719
 30
0.0
 10
56.816056
 20
77.125407
 30
0.0
 10
56.808304
 20
77.120274
 30
0.0
  0
SPLINE
  5
269
100
AcDbEntity
  8
0
 62
7
100
AcDbSpline
 70
8
 71
3
 72
8
 73
4
 74
0
 40
0
 40
0
 40
0
 40
0
 40
1
 40
1
 40
1
 40
1
 10
56.808304
 20
77.120274
 30
0.0
 10
56.801478
 20
77.118157
 30
0.0
 10
56.794784
 20
77.116702
 30
0.0
 10
56.788143
 20
77.114083
 30
0.0
  0
SPLINE
  5
26a
100
AcDbEntity
  8
0
 62
7
100
AcDbSpline
 70
8
 71
3
 72
8
 73
4
 74
0
 40
0
 40
0
 40
0
 40
0
 40
1
 40
1
 40
1
 40
1
 10
56.788143
 20
77.114083
 30
0.0
 10
56.787349
 20
77.113818
 30
0.0
 10
56.789995
 20
77.113553
 30
0.0
 10
56.790788
 20
77.113553
 30
0.0
  0
SPLINE
  5
26b
100
AcDbEntity
  8
0
 62
7
100
AcDbSpline
 70
8
 71
3
 72
8
 73
4
 74
0
 40
0
 40
0
 40
0
 40
0
 40
1
 40
1
 40
1
 40
1
 10
56.790788
 20
77.113553
 30
0.0
 10
56.792111
 20
77.113643
 30
0.0
 10
56.795207
 20
77.115670
 30
0.0
 10
56.794413
 20
77.114612
 30
0.0
  0
SPLINE
  5
26c
100
AcDbEntity
  8
0
 62
7
100
AcDbSpline
 70
8
 71
3
 72
8
 73
4
 74
0
 40
0
 40
0
 40
0
 40
0
 40
1
 40
1
 40
1
 40
1
 10
56.794413
 20
77.114612
 30
0.0
 10
56.761197
 20
77.074025
 30
0.0
 10
56.801134
 20
77.130963
 30
0.0
 10
56.784068
 20
77.101700
 30
0.0
  0
SPLINE
  5
26d
100
AcDbEntity
  8
0
 62
7
100
AcDbSpline
 70
8
 71
3
 72
8
 73
4
 74
0
 40
0
 40
0
 40
0
 40
0
 40
1
 40
1
 40
1
 40
1
 10
56.784068
 20
77.101700
 30
0.0
 10
56.766209
 20
77.083285
 30
0.0
 10
56.756459
 20
77.079396
 30
0.0
 10
56.740142
 20
77.074310
 30
0.0
  0
SPLINE
  5
26e
100
AcDbEntity
  8
0
 62
7
100
AcDbSpline
 70
8
 71
3
 72
8
 73
4
 74
0
 40
0
 40
0
 40
0
 40
0
 40
1
 40
1
 40
1
 40
1
 10
56.740142
 20
77.074310
 30
0.0
 10
56.739613
 20
77.060949
 30
0.0
 10
56.736305
 20
77.050075
 30
0.0
 10
56.716382
 20
77.034004
 30
0.0
  0
SPLINE
  5
26f
100
AcDbEntity
  8
0
 62
7
100
AcDbSpline
 70
8
 71
3
 72
8
 73
4
 74
0
 40
0
 40
0
 40
0
 40
0
 40
1
 40
1
 40
1
 40
1
 10
56.716382
 20
77.034004
 30
0.0
 10
56.712202
 20
77.030617
 30
0.0
 10
56.706355
 20
77.030352
 30
0.0
 10
56.700878
 20
77.029347
 30
0.0
  0
SPLINE
  5
270
100
AcDbEntity
  8
0
 62
7
100
AcDbSpline
 70
8
 71
3
 72
8
 73
4
 74
0
 40
0
 40
0
 40
0
 40
0
 40
1
 40
1
 40
1
 40
1
 10
56.700878
 20
77.029347
 30
0.0
 10
56.664032
 20
76.985500
 30
0.0
 10
56.610033
 20
76.928615
 30
0.0
 10
56.516908
 20
76.835042
 30
0.0
  0
SPLINE
  5
271
100
AcDbEntity
  8
0
 62
7
100
AcDbSpline
 70
8
 71
3
 72
8
 73
4
 74
0
 40
0
 40
0
 40
0
 40
0
 40
1
 40
1
 40
1
 40
1
 10
56.516908
 20
76.835042
 30
0.0
 10
56.402039
 20
76.719631
 30
0.0
 10
56.284566
 20
76.622563
 30
0.0
 10
56.207882
 20
76.574594
 30
0.0
  0
SPLINE
  5
272
100
AcDbEntity
  8
0
 62
7
100
AcDbSpline
 70
8
 71
3
 72
8
 73
4
 74
0
 40
0
 40
0
 40
0
 40
0
 40
1
 40
1
 40
1
 40
1
 10
56.207882
 20
76.574594
 30
0.0
 10
56.207353
 20
76.573007
 30
0.0
 10
56.208411
 20
76.570864
 30
0.0
 10
56.207882
 20
76.569435
 30
0.0
  0
SPLINE
  5
273
100
AcDbEntity
  8
0
 62
7
100
AcDbSpline
 70
8
 71
3
 72
8
 73
4
 74
0
 40
0
 40
0
 40
0
 40
0
 40
1
 40
1
 40
1
 40
1
 10
56.207882
 20
76.569435
 30
0.0
 10
56.206824
 20
76.566551
 30
0.0
 10
56.203940
 20
76.564487
 30
0.0
 10
56.201691
 20
76.562212
 30
0.0
  0
SPLINE
  5
274
100
AcDbEntity
  8
0
 62
7
100
AcDbSpline
 70
8
 71
3
 72
8
 73
4
 74
0
 40
0
 40
0
 40
0
 40
0
 40
1
 40
1
 40
1
 40
1
 10
56.201691
 20
76.562212
 30
0.0
 10
56.200897
 20
76.561154
 30
0.0
 10
56.200103
 20
76.559831
 30
0.0
 10
56.199045
 20
76.558587
 30
0.0
  0
SPLINE
  5
275
100
AcDbEntity
  8
0
 62
7
100
AcDbSpline
 70
8
 71
3
 72
8
 73
4
 74
0
 40
0
 40
0
 40
0
 40
0
 40
1
 40
1
 40
1
 40
1
 10
56.199045
 20
76.558587
 30
0.0
 10
56.198516
 20
76.558058
 30
0.0
 10
56.198251
 20
76.558058
 30
0.0
 10
56.197987
 20
76.557529
 30
0.0
  0
SPLINE
  5
276
100
AcDbEntity
  8
0
 62
7
100
AcDbSpline
 70
8
 71
3
 72
8
 73
4
 74
0
 40
0
 40
0
 40
0
 40
0
 40
1
 40
1
 40
1
 40
1
 10
56.197987
 20
76.557529
 30
0.0
 10
56.196399
 20
76.555412
 30
0.0
 10
56.195023
 20
76.553322
 30
0.0
 10
56.193330
 20
76.551338
 30
0.0
  0
SPLINE
  5
277
100
AcDbEntity
  8
0
 62
7
100
AcDbSpline
 70
8
 71
3
 72
8
 73
4
 74
0
 40
0
 40
0
 40
0
 40
0
 40
1
 40
1
 40
1
 40
1
 10
56.193330
 20
76.551338
 30
0.0
 10
56.192536
 20
76.550279
 30
0.0
 10
56.187721
 20
76.547104
 30
0.0
 10
56.186610
 20
76.545649
 30
0.0
  0
SPLINE
  5
278
100
AcDbEntity
  8
0
 62
7
100
AcDbSpline
 70
8
 71
3
 72
8
 73
4
 74
0
 40
0
 40
0
 40
0
 40
0
 40
1
 40
1
 40
1
 40
1
 10
56.186610
 20
76.545649
 30
0.0
 10
56.185287
 20
76.543797
 30
0.0
 10
56.184229
 20
76.540595
 30
0.0
 10
56.182482
 20
76.536865
 30
0.0
  0
SPLINE
  5
279
100
AcDbEntity
  8
0
 62
7
100
AcDbSpline
 70
8
 71
3
 72
8
 73
4
 74
0
 40
0
 40
0
 40
0
 40
0
 40
1
 40
1
 40
1
 40
1
 10
56.182482
 20
76.536865
 30
0.0
 10
56.182747
 20
76.529774
 30
0.0
 10
56.180101
 20
76.524218
 30
0.0
 10
56.175762
 20
76.518767
 30
0.0
  0
SPLINE
  5
27a
100
AcDbEntity
  8
0
 62
7
100
AcDbSpline
 70
8
 71
3
 72
8
 73
4
 74
0
 40
0
 40
0
 40
0
 40
0
 40
1
 40
1
 40
1
 40
1
 10
56.175762
 20
76.518767
 30
0.0
 10
56.175233
 20
76.516651
 30
0.0
 10
56.174968
 20
76.513476
 30
0.0
 10
56.174174
 20
76.513079
 30
0.0
  0
SPLINE
  5
27b
100
AcDbEntity
  8
0
 62
7
100
AcDbSpline
 70
8
 71
3
 72
8
 73
4
 74
0
 40
0
 40
0
 40
0
 40
0
 40
1
 40
1
 40
1
 40
1
 10
56.174174
 20
76.513079
 30
0.0
 10
56.169491
 20
76.510168
 30
0.0
 10
56.172058
 20
76.512020
 30
0.0
 10
56.167454
 20
76.509983
 30
0.0
  0
SPLINE
  5
27c
100
AcDbEntity
  8
0
 62
7
100
AcDbSpline
 70
8
 71
3
 72
8
 73
4
 74
0
 40
0
 40
0
 40
0
 40
0
 40
1
 40
1
 40
1
 40
1
 10
56.167454
 20
76.509983
 30
0.0
 10
56.166925
 20
76.509719
 30
0.0
 10
56.165866
 20
76.508925
 30
0.0
 10
56.165337
 20
76.508396
 30
0.0
  0
LWPOLYLINE
  5
27d
100
AcDbEntity
  8
0
 62
7
100
AcDbPolyline
 90
1
 70
1
 10
80.175015
 20
82.324115
 30
0.0
  0
SPLINE
  5
27e
100
AcDbEntity
  8
0
 62
7
100
AcDbSpline
 70
8
 71
3
 72
8
 73
4
 74
0
 40
0
 40
0
 40
0
 40
0
 40
1
 40
1
 40
1
 40
1
 10
56.164808
 20
76.508925
 30
0.0
 10
56.159569
 20
76.506544
 30
0.0
 10
56.160998
 20
76.507073
 30
0.0
 10
56.157056
 20
76.505829
 30
0.0
  0
SPLINE
  5
27f
100
AcDbEntity
  8
0
 62
7
100
AcDbSpline
 70
8
 71
3
 72
8
 73
4
 74
0
 40
0
 40
0
 40
0
 40
0
 40
1
 40
1
 40
1
 40
1
 10
56.157056
 20
76.505829
 30
0.0
 10
56.155733
 20
76.505300
 30
0.0
 10
56.155468
 20
76.505035
 30
0.0
 10
56.154410
 20
76.504771
 30
0.0
  0
LWPOLYLINE
  5
280
100
AcDbEntity
  8
0
 62
7
100
AcDbPolyline
 90
2
 70
0
 10
56.165337
 20
76.508396
 30
0.0
 10
56.164808
 20
76.508925
 30
0.0
  0
SPLINE
  5
281
100
AcDbEntity
  8
0
 62
7
100
AcDbSpline
 70
8
 71
3
 72
8
 73
4
 74
0
 40
0
 40
0
 40
0
 40
0
 40
1
 40
1
 40
1
 40
1
 10
56.154410
 20
76.504242
 30
0.0
 10
56.158537
 20
76.504771
 30
0.0
 10
56.160522
 20
76.505300
 30
0.0
 10
56.163194
 20
76.506358
 30
0.0
  0
SPLINE
  5
282
100
AcDbEntity
  8
0
 62
7
100
AcDbSpline
 70
8
 71
3
 72
8
 73
4
 74
0
 40
0
 40
0
 40
0
 40
0
 40
1
 40
1
 40
1
 40
1
 10
56.163194
 20
76.506358
 30
0.0
 10
56.161871
 20
76.505565
 30
0.0
 10
56.161342
 20
76.504506
 30
0.0
 10
56.160099
 20
76.503713
 30
0.0
  0
SPLINE
  5
283
100
AcDbEntity
  8
0
 62
7
100
AcDbSpline
 70
8
 71
3
 72
8
 73
4
 74
0
 40
0
 40
0
 40
0
 40
0
 40
1
 40
1
 40
1
 40
1
 10
56.160099
 20
76.503713
 30
0.0
 10
56.157982
 20
76.502919
 30
0.0
 10
56.155601
 20
76.503514
 30
0.0
 10
56.153378
 20
76.503183
 30
0.0
  0
LWPOLYLINE
  5
284
100
AcDbEntity
  8
0
 62
7
100
AcDbPolyline
 90
2
 70
0
 10
56.154410
 20
76.504771
 30
0.0
 10
56.154410
 20
76.504242
 30
0.0
  0
SPLINE
  5
285
100
AcDbEntity
  8
0
 62
7
100
AcDbSpline
 70
8
 71
3
 72
8
 73
4
 74
0
 40
0
 40
0
 40
0
 40
0
 40
1
 40
1
 40
1
 40
1
 10
56.152849
 20
76.503183
 30
0.0
 10
56.151261
 20
76.499135
 30
0.0
 10
56.148589
 20
76.495510
 30
0.0
 10
56.146129
 20
76.491806
 30
0.0
  0
SPLINE
  5
286
100
AcDbEntity
  8
0
 62
7
100
AcDbSpline
 70
8
 71
3
 72
8
 73
4
 74
0
 40
0
 40
0
 40
0
 40
0
 40
1
 40
1
 40
1
 40
1
 10
56.146129
 20
76.491806
 30
0.0
 10
56.145335
 20
76.490483
 30
0.0
 10
56.143747
 20
76.489081
 30
0.0
 10
56.143033
 20
76.487679
 30
0.0
  0
SPLINE
  5
287
100
AcDbEntity
  8
0
 62
7
100
AcDbSpline
 70
8
 71
3
 72
8
 73
4
 74
0
 40
0
 40
0
 40
0
 40
0
 40
1
 40
1
 40
1
 40
1
 10
56.143033
 20
76.487679
 30
0.0
 10
56.142768
 20
76.487150
 30
0.0
 10
56.142239
 20
76.486620
 30
0.0
 10
56.141975
 20
76.486091
 30
0.0
  0
SPLINE
  5
288
100
AcDbEntity
  8
0
 62
7
100
AcDbSpline
 70
8
 71
3
 72
8
 73
4
 74
0
 40
0
 40
0
 40
0
 40
0
 40
1
 40
1
 40
1
 40
1
 10
56.141975
 20
76.486091
 30
0.0
 10
56.140916
 20
76.484239
 30
0.0
 10
56.140387
 20
76.482705
 30
0.0
 10
56.139329
 20
76.480932
 30
0.0
  0
SPLINE
  5
289
100
AcDbEntity
  8
0
 62
7
100
AcDbSpline
 70
8
 71
3
 72
8
 73
4
 74
0
 40
0
 40
0
 40
0
 40
0
 40
1
 40
1
 40
1
 40
1
 10
56.139329
 20
76.480932
 30
0.0
 10
56.132873
 20
76.473920
 30
0.0
 10
56.143324
 20
76.485774
 30
0.0
 10
56.133640
 20
76.472148
 30
0.0
  0
SPLINE
  5
28a
100
AcDbEntity
  8
0
 62
7
100
AcDbSpline
 70
8
 71
3
 72
8
 73
4
 74
0
 40
0
 40
0
 40
0
 40
0
 40
1
 40
1
 40
1
 40
1
 10
56.133640
 20
76.472148
 30
0.0
 10
56.132582
 20
76.470560
 30
0.0
 10
56.130650
 20
76.470031
 30
0.0
 10
56.129513
 20
76.468523
 30
0.0
  0
SPLINE
  5
28b
100
AcDbEntity
  8
0
 62
7
100
AcDbSpline
 70
8
 71
3
 72
8
 73
4
 74
0
 40
0
 40
0
 40
0
 40
0
 40
1
 40
1
 40
1
 40
1
 10
56.129513
 20
76.468523
 30
0.0
 10
56.128984
 20
76.467994
 30
0.0
 10
56.128454
 20
76.467200
 30
0.0
 10
56.127925
 20
76.466406
 30
0.0
  0
SPLINE
  5
28c
100
AcDbEntity
  8
0
 62
7
100
AcDbSpline
 70
8
 71
3
 72
8
 73
4
 74
0
 40
0
 40
0
 40
0
 40
0
 40
1
 40
1
 40
1
 40
1
 10
56.127925
 20
76.466406
 30
0.0
 10
56.124750
 20
76.462993
 30
0.0
 10
56.121813
 20
76.459474
 30
0.0
 10
56.118612
 20
76.456061
 30
0.0
  0
SPLINE
  5
28d
100
AcDbEntity
  8
0
 62
7
100
AcDbSpline
 70
8
 71
3
 72
8
 73
4
 74
0
 40
0
 40
0
 40
0
 40
0
 40
1
 40
1
 40
1
 40
1
 10
56.118612
 20
76.456061
 30
0.0
 10
56.117554
 20
76.455532
 30
0.0
 10
56.116495
 20
76.453680
 30
0.0
 10
56.115516
 20
76.452965
 30
0.0
  0
SPLINE
  5
28e
100
AcDbEntity
  8
0
 62
7
100
AcDbSpline
 70
8
 71
3
 72
8
 73
4
 74
0
 40
0
 40
0
 40
0
 40
0
 40
1
 40
1
 40
1
 40
1
 10
56.115516
 20
76.452965
 30
0.0
 10
56.111944
 20
76.449155
 30
0.0
 10
56.108664
 20
76.444975
 30
0.0
 10
56.105171
 20
76.441086
 30
0.0
  0
SPLINE
  5
28f
100
AcDbEntity
  8
0
 62
7
100
AcDbSpline
 70
8
 71
3
 72
8
 73
4
 74
0
 40
0
 40
0
 40
0
 40
0
 40
1
 40
1
 40
1
 40
1
 10
56.105171
 20
76.441086
 30
0.0
 10
56.103848
 20
76.439763
 30
0.0
 10
56.102234
 20
76.438969
 30
0.0
 10
56.101044
 20
76.437461
 30
0.0
  0
SPLINE
  5
290
100
AcDbEntity
  8
0
 62
7
100
AcDbSpline
 70
8
 71
3
 72
8
 73
4
 74
0
 40
0
 40
0
 40
0
 40
0
 40
1
 40
1
 40
1
 40
1
 10
56.101044
 20
76.437461
 30
0.0
 10
56.097128
 20
76.432778
 30
0.0
 10
56.094217
 20
76.427592
 30
0.0
 10
56.090196
 20
76.422988
 30
0.0
  0
SPLINE
  5
291
100
AcDbEntity
  8
0
 62
7
100
AcDbSpline
 70
8
 71
3
 72
8
 73
4
 74
0
 40
0
 40
0
 40
0
 40
0
 40
1
 40
1
 40
1
 40
1
 10
56.090196
 20
76.422988
 30
0.0
 10
56.088079
 20
76.420607
 30
0.0
 10
56.085274
 20
76.418728
 30
0.0
 10
56.082946
 20
76.416797
 30
0.0
  0
SPLINE
  5
292
100
AcDbEntity
  8
0
 62
7
100
AcDbSpline
 70
8
 71
3
 72
8
 73
4
 74
0
 40
0
 40
0
 40
0
 40
0
 40
1
 40
1
 40
1
 40
1
 10
56.082946
 20
76.416797
 30
0.0
 10
56.076781
 20
76.412590
 30
0.0
 10
56.071357
 20
76.408066
 30
0.0
 10
56.064849
 20
76.404388
 30
0.0
  0
SPLINE
  5
293
100
AcDbEntity
  8
0
 62
7
100
AcDbSpline
 70
8
 71
3
 72
8
 73
4
 74
0
 40
0
 40
0
 40
0
 40
0
 40
1
 40
1
 40
1
 40
1
 10
56.064849
 20
76.404388
 30
0.0
 10
56.063261
 20
76.403594
 30
0.0
 10
56.061488
 20
76.403065
 30
0.0
 10
56.059689
 20
76.402800
 30
0.0
  0
SPLINE
  5
294
100
AcDbEntity
  8
0
 62
7
100
AcDbSpline
 70
8
 71
3
 72
8
 73
4
 74
0
 40
0
 40
0
 40
0
 40
0
 40
1
 40
1
 40
1
 40
1
 10
56.059689
 20
76.402800
 30
0.0
 10
56.058102
 20
76.401213
 30
0.0
 10
56.057837
 20
76.400155
 30
0.0
 10
56.055562
 20
76.398144
 30
0.0
  0
SPLINE
  5
295
100
AcDbEntity
  8
0
 62
7
100
AcDbSpline
 70
8
 71
3
 72
8
 73
4
 74
0
 40
0
 40
0
 40
0
 40
0
 40
1
 40
1
 40
1
 40
1
 10
56.055562
 20
76.398144
 30
0.0
 10
56.053445
 20
76.396027
 30
0.0
 10
56.049820
 20
76.395498
 30
0.0
 10
56.047307
 20
76.394016
 30
0.0
  0
SPLINE
  5
296
100
AcDbEntity
  8
0
 62
7
100
AcDbSpline
 70
8
 71
3
 72
8
 73
4
 74
0
 40
0
 40
0
 40
0
 40
0
 40
1
 40
1
 40
1
 40
1
 10
56.047307
 20
76.394016
 30
0.0
 10
56.045984
 20
76.393487
 30
0.0
 10
56.044925
 20
76.391635
 30
0.0
 10
56.043682
 20
76.390921
 30
0.0
  0
SPLINE
  5
297
100
AcDbEntity
  8
0
 62
7
100
AcDbSpline
 70
8
 71
3
 72
8
 73
4
 74
0
 40
0
 40
0
 40
0
 40
0
 40
1
 40
1
 40
1
 40
1
 10
56.043682
 20
76.390921
 30
0.0
 10
56.039925
 20
76.387005
 30
0.0
 10
56.035533
 20
76.383221
 30
0.0
 10
56.032834
 20
76.380575
 30
0.0
  0
SPLINE
  5
298
100
AcDbEntity
  8
0
 62
7
100
AcDbSpline
 70
8
 71
3
 72
8
 73
4
 74
0
 40
0
 40
0
 40
0
 40
0
 40
1
 40
1
 40
1
 40
1
 10
56.032834
 20
76.380575
 30
0.0
 10
56.030717
 20
76.378459
 30
0.0
 10
56.028362
 20
76.376713
 30
0.0
 10
56.026114
 20
76.374887
 30
0.0
  0
SPLINE
  5
299
100
AcDbEntity
  8
0
 62
7
100
AcDbSpline
 70
8
 71
3
 72
8
 73
4
 74
0
 40
0
 40
0
 40
0
 40
0
 40
1
 40
1
 40
1
 40
1
 10
56.026114
 20
76.374887
 30
0.0
 10
55.992834
 20
76.332739
 30
0.0
 10
56.031961
 20
76.382084
 30
0.0
 10
56.008545
 20
76.354726
 30
0.0
  0
SPLINE
  5
29a
100
AcDbEntity
  8
0
 62
7
100
AcDbSpline
 70
8
 71
3
 72
8
 73
4
 74
0
 40
0
 40
0
 40
0
 40
0
 40
1
 40
1
 40
1
 40
1
 10
56.008545
 20
76.354726
 30
0.0
 10
56.005397
 20
76.351048
 30
0.0
 10
55.994866
 20
76.339115
 30
0.0
 10
55.985817
 20
76.333533
 30
0.0
  0
SPLINE
  5
29b
100
AcDbEntity
  8
0
 62
7
100
AcDbSpline
 70
8
 71
3
 72
8
 73
4
 74
0
 40
0
 40
0
 40
0
 40
0
 40
1
 40
1
 40
1
 40
1
 10
55.985817
 20
76.333533
 30
0.0
 10
55.983965
 20
76.331416
 30
0.0
 10
55.982351
 20
76.329035
 30
0.0
 10
55.980658
 20
76.326812
 30
0.0
  0
SPLINE
  5
29c
100
AcDbEntity
  8
0
 62
7
100
AcDbSpline
 70
8
 71
3
 72
8
 73
4
 74
0
 40
0
 40
0
 40
0
 40
0
 40
1
 40
1
 40
1
 40
1
 10
55.980658
 20
76.326812
 30
0.0
 10
55.966344
 20
76.313186
 30
0.0
 10
55.954755
 20
76.299669
 30
0.0
 10
55.937251
 20
76.291157
 30
0.0
  0
LWPOLYLINE
  5
29d
100
AcDbEntity
  8
0
 62
7
100
AcDbPolyline
 90
2
 70
0
 10
56.153378
 20
76.503183
 30
0.0
 10
56.152849
 20
76.503183
 30
0.0
  0
SPLINE
  5
29e
100
AcDbEntity
  8
0
 62
7
100
AcDbSpline
 70
8
 71
3
 72
8
 73
4
 74
0
 40
0
 40
0
 40
0
 40
0
 40
1
 40
1
 40
1
 40
1
 10
55.552271
 20
75.892202
 30
0.0
 10
55.124601
 20
75.488215
 30
0.0
 10
55.035344
 20
75.282332
 30
0.0
 10
55.320245
 20
75.356836
 30
0.0
  0
SPLINE
  5
29f
100
AcDbEntity
  8
0
 62
7
100
AcDbSpline
 70
8
 71
3
 72
8
 73
4
 74
0
 40
0
 40
0
 40
0
 40
0
 40
1
 40
1
 40
1
 40
1
 10
55.320245
 20
75.356836
 30
0.0
 10
55.414362
 20
75.381469
 30
0.0
 10
55.491293
 20
75.391449
 30
0.0
 10
55.491293
 20
75.378532
 30
0.0
  0
SPLINE
  5
2a0
100
AcDbEntity
  8
0
 62
7
100
AcDbSpline
 70
8
 71
3
 72
8
 73
4
 74
0
 40
0
 40
0
 40
0
 40
0
 40
1
 40
1
 40
1
 40
1
 10
55.491293
 20
75.378532
 30
0.0
 10
55.491293
 20
75.365832
 30
0.0
 10
55.450100
 20
75.148321
 30
0.0
 10
55.399826
 20
74.894840
 30
0.0
  0
SPLINE
  5
2a1
100
AcDbEntity
  8
0
 62
7
100
AcDbSpline
 70
8
 71
3
 72
8
 73
4
 74
0
 40
0
 40
0
 40
0
 40
0
 40
1
 40
1
 40
1
 40
1
 10
55.399826
 20
74.894840
 30
0.0
 10
55.279647
 20
74.288875
 30
0.0
 10
55.287458
 20
71.323610
 30
0.0
 10
55.410674
 20
70.670809
 30
0.0
  0
SPLINE
  5
2a2
100
AcDbEntity
  8
0
 62
7
100
AcDbSpline
 70
8
 71
3
 72
8
 73
4
 74
0
 40
0
 40
0
 40
0
 40
0
 40
1
 40
1
 40
1
 40
1
 10
55.410674
 20
70.670809
 30
0.0
 10
55.580886
 20
69.770038
 30
0.0
 10
55.814807
 20
69.438697
 30
0.0
 10
57.439491
 20
67.792949
 30
0.0
  0
LWPOLYLINE
  5
2a3
100
AcDbEntity
  8
0
 62
7
100
AcDbPolyline
 90
3
 70
0
 10
55.937251
 20
76.291157
 30
0.0
 10
55.955348
 20
76.273059
 30
0.0
 10
55.552271
 20
75.892202
 30
0.0
  0
SPLINE
  5
2a4
100
AcDbEntity
  8
0
 62
7
100
AcDbSpline
 70
8
 71
3
 72
8
 73
4
 74
0
 40
0
 40
0
 40
0
 40
0
 40
1
 40
1
 40
1
 40
1
 10
58.608923
 20
65.690234
 30
0.0
 10
58.619665
 20
65.174588
 30
0.0
 10
58.656405
 20
64.707336
 30
0.0
 10
58.690571
 20
64.652054
 30
0.0
  0
SPLINE
  5
2a5
100
AcDbEntity
  8
0
 62
7
100
AcDbSpline
 70
8
 71
3
 72
8
 73
4
 74
0
 40
0
 40
0
 40
0
 40
0
 40
1
 40
1
 40
1
 40
1
 10
58.690571
 20
64.652054
 30
0.0
 10
58.736071
 20
64.578439
 30
0.0
 10
59.491332
 20
64.551285
 30
0.0
 10
61.512622
 20
64.551285
 30
0.0
  0
LWPOLYLINE
  5
2a6
100
AcDbEntity
  8
0
 62
7
100
AcDbPolyline
 90
3
 70
0
 10
57.439491
 20
67.792949
 30
0.0
 10
58.589291
 20
66.627645
 30
0.0
 10
58.608923
 20
65.690234
 30
0.0
  0
SPLINE
  5
2a7
100
AcDbEntity
  8
0
 62
7
100
AcDbSpline
 70
8
 71
3
 72
8
 73
4
 74
0
 40
0
 40
0
 40
0
 40
0
 40
1
 40
1
 40
1
 40
1
 10
65.506148
 20
67.826538
 30
0.0
 10
66.225600
 20
68.542929
 30
0.0
 10
66.885630
 20
69.244440
 30
0.0
 10
66.973241
 20
69.385617
 30
0.0
  0
SPLINE
  5
2a8
100
AcDbEntity
  8
0
 62
7
100
AcDbSpline
 70
8
 71
3
 72
8
 73
4
 74
0
 40
0
 40
0
 40
0
 40
0
 40
1
 40
1
 40
1
 40
1
 10
66.973241
 20
69.385617
 30
0.0
 10
67.272614
 20
69.868002
 30
0.0
 10
67.491068
 20
70.396354
 30
0.0
 10
67.535481
 20
70.746773
 30
0.0
  0
SPLINE
  5
2a9
100
AcDbEntity
  8
0
 62
7
100
AcDbSpline
 70
8
 71
3
 72
8
 73
4
 74
0
 40
0
 40
0
 40
0
 40
0
 40
1
 40
1
 40
1
 40
1
 10
67.535481
 20
70.746773
 30
0.0
 10
67.559902
 20
70.939390
 30
0.0
 10
67.614964
 20
71.141725
 30
0.0
 10
67.657956
 20
71.196359
 30
0.0
  0
SPLINE
  5
2aa
100
AcDbEntity
  8
0
 62
7
100
AcDbSpline
 70
8
 71
3
 72
8
 73
4
 74
0
 40
0
 40
0
 40
0
 40
0
 40
1
 40
1
 40
1
 40
1
 10
67.657956
 20
71.196359
 30
0.0
 10
67.706642
 20
71.258218
 30
0.0
 10
67.699927
 20
71.317646
 30
0.0
 10
67.640388
 20
71.354487
 30
0.0
  0
SPLINE
  5
2ab
100
AcDbEntity
  8
0
 62
7
100
AcDbSpline
 70
8
 71
3
 72
8
 73
4
 74
0
 40
0
 40
0
 40
0
 40
0
 40
1
 40
1
 40
1
 40
1
 10
67.640388
 20
71.354487
 30
0.0
 10
67.526403
 20
71.424940
 30
0.0
 10
67.539288
 20
74.008480
 30
0.0
 10
67.654861
 20
74.235966
 30
0.0
  0
SPLINE
  5
2ac
100
AcDbEntity
  8
0
 62
7
100
AcDbSpline
 70
8
 71
3
 72
8
 73
4
 74
0
 40
0
 40
0
 40
0
 40
0
 40
1
 40
1
 40
1
 40
1
 10
67.654861
 20
74.235966
 30
0.0
 10
67.695744
 20
74.316447
 30
0.0
 10
67.695593
 20
74.400815
 30
0.0
 10
67.654331
 20
74.426135
 30
0.0
  0
SPLINE
  5
2ad
100
AcDbEntity
  8
0
 62
7
100
AcDbSpline
 70
8
 71
3
 72
8
 73
4
 74
0
 40
0
 40
0
 40
0
 40
0
 40
1
 40
1
 40
1
 40
1
 10
67.654331
 20
74.426135
 30
0.0
 10
67.613863
 20
74.451139
 30
0.0
 10
67.558420
 20
74.662358
 30
0.0
 10
67.530827
 20
74.895358
 30
0.0
  0
SPLINE
  5
2ae
100
AcDbEntity
  8
0
 62
7
100
AcDbSpline
 70
8
 71
3
 72
8
 73
4
 74
0
 40
0
 40
0
 40
0
 40
0
 40
1
 40
1
 40
1
 40
1
 10
67.530827
 20
74.895358
 30
0.0
 10
67.478114
 20
75.340416
 30
0.0
 10
67.150893
 20
76.077556
 30
0.0
 10
66.921560
 20
76.267884
 30
0.0
  0
SPLINE
  5
2af
100
AcDbEntity
  8
0
 62
7
100
AcDbSpline
 70
8
 71
3
 72
8
 73
4
 74
0
 40
0
 40
0
 40
0
 40
0
 40
1
 40
1
 40
1
 40
1
 10
66.921560
 20
76.267884
 30
0.0
 10
66.847302
 20
76.329514
 30
0.0
 10
66.786686
 20
76.405600
 30
0.0
 10
66.786686
 20
76.436866
 30
0.0
  0
SPLINE
  5
2b0
100
AcDbEntity
  8
0
 62
7
100
AcDbSpline
 70
8
 71
3
 72
8
 73
4
 74
0
 40
0
 40
0
 40
0
 40
0
 40
1
 40
1
 40
1
 40
1
 10
66.786686
 20
76.436866
 30
0.0
 10
66.786686
 20
76.468134
 30
0.0
 10
66.204145
 20
77.076250
 30
0.0
 10
65.492191
 20
77.788204
 30
0.0
  0
LWPOLYLINE
  5
2b1
100
AcDbEntity
  8
0
 62
7
100
AcDbPolyline
 90
5
 70
0
 10
61.512622
 20
64.551285
 30
0.0
 10
64.273665
 20
64.551285
 30
0.0
 10
64.235425
 20
65.537789
 30
0.0
 10
64.197701
 20
66.523775
 30
0.0
 10
65.506148
 20
67.826538
 30
0.0
  0
SPLINE
  5
2b2
100
AcDbEntity
  8
0
 62
7
100
AcDbSpline
 70
8
 71
3
 72
8
 73
4
 74
0
 40
0
 40
0
 40
0
 40
0
 40
1
 40
1
 40
1
 40
1
 10
43.310088
 20
80.962968
 30
0.0
 10
43.309559
 20
80.962439
 30
0.0
 10
43.309029
 20
80.961381
 30
0.0
 10
43.308500
 20
80.960852
 30
0.0
  0
SPLINE
  5
2b3
100
AcDbEntity
  8
0
 62
7
100
AcDbSpline
 70
8
 71
3
 72
8
 73
4
 74
0
 40
0
 40
0
 40
0
 40
0
 40
1
 40
1
 40
1
 40
1
 10
43.308500
 20
80.960852
 30
0.0
 10
43.309029
 20
80.960058
 30
0.0
 10
43.309559
 20
80.959529
 30
0.0
 10
43.310088
 20
80.958735
 30
0.0
  0
SPLINE
  5
2b4
100
AcDbEntity
  8
0
 62
7
100
AcDbSpline
 70
8
 71
3
 72
8
 73
4
 74
0
 40
0
 40
0
 40
0
 40
0
 40
1
 40
1
 40
1
 40
1
 10
43.310088
 20
80.958735
 30
0.0
 10
43.309995
 20
80.960058
 30
0.0
 10
43.310127
 20
80.961487
 30
0.0
 10
43.310088
 20
80.962862
 30
0.0
  0
LWPOLYLINE
  5
2b5
100
AcDbEntity
  8
0
 62
7
100
AcDbPolyline
 90
5
 70
0
 10
65.492191
 20
77.788204
 30
0.0
 10
64.197696
 20
79.082699
 30
0.0
 10
64.235420
 20
80.073852
 30
0.0
 10
64.273660
 20
81.065008
 30
0.0
 10
61.467119
 20
81.066838
 30
0.0
  0
SPLINE
  5
2b6
100
AcDbEntity
  8
0
 62
7
100
AcDbSpline
 70
8
 71
3
 72
8
 73
4
 74
0
 40
0
 40
0
 40
0
 40
0
 40
1
 40
1
 40
1
 40
1
 10
43.671305
 20
80.873050
 30
0.0
 10
43.671834
 20
80.871991
 30
0.0
 10
43.672363
 20
80.870933
 30
0.0
 10
43.672892
 20
80.869954
 30
0.0
  0
SPLINE
  5
2b7
100
AcDbEntity
  8
0
 62
7
100
AcDbSpline
 70
8
 71
3
 72
8
 73
4
 74
0
 40
0
 40
0
 40
0
 40
0
 40
1
 40
1
 40
1
 40
1
 10
43.672892
 20
80.869954
 30
0.0
 10
43.679004
 20
80.860059
 30
0.0
 10
43.703338
 20
80.835381
 30
0.0
 10
43.696149
 20
80.844104
 30
0.0
  0
SPLINE
  5
2b8
100
AcDbEntity
  8
0
 62
7
100
AcDbSpline
 70
8
 71
3
 72
8
 73
4
 74
0
 40
0
 40
0
 40
0
 40
0
 40
1
 40
1
 40
1
 40
1
 10
43.696149
 20
80.844104
 30
0.0
 10
43.688238
 20
80.853973
 30
0.0
 10
43.680195
 20
80.863842
 30
0.0
 10
43.671358
 20
80.873042
 30
0.0
  0
LWPOLYLINE
  5
2b9
100
AcDbEntity
  8
0
 62
7
100
AcDbPolyline
 90
2
 70
0
 10
43.310088
 20
80.962862
 30
0.0
 10
43.310088
 20
80.962968
 30
0.0
  0
LWPOLYLINE
  5
2ba
100
AcDbEntity
  8
0
 62
7
100
AcDbPolyline
 90
1
 70
1
 10
43.671358
 20
80.873042
 30
0.0
  0
SPLINE
  5
2bb
100
AcDbEntity
  8
0
 62
7
100
AcDbSpline
 70
8
 71
3
 72
8
 73
4
 74
0
 40
0
 40
0
 40
0
 40
0
 40
1
 40
1
 40
1
 40
1
 10
65.426556
 20
77.511500
 30
0.0
 10
66.536676
 20
76.407283
 30
0.0
 10
66.850432
 20
76.041552
 30
0.0
 10
67.071417
 20
75.592752
 30
0.0
  0
LWPOLYLINE
  5
2bc
100
AcDbEntity
  8
0
 62
7
100
AcDbPolyline
 90
6
 70
0
 10
58.873477
 20
80.767632
 30
0.0
 10
61.440248
 20
80.767632
 30
0.0
 10
64.007532
 20
80.767632
 30
0.0
 10
64.031291
 20
79.821434
 30
0.0
 10
64.055580
 20
78.875758
 30
0.0
 10
65.426556
 20
77.511500
 30
0.0
  0
SPLINE
  5
2bd
100
AcDbEntity
  8
0
 62
7
100
AcDbSpline
 70
8
 71
3
 72
8
 73
4
 74
0
 40
0
 40
0
 40
0
 40
0
 40
1
 40
1
 40
1
 40
1
 10
67.063665
 20
70.012216
 30
0.0
 10
66.836406
 20
69.550640
 30
0.0
 10
66.523952
 20
69.181091
 30
0.0
 10
65.416737
 20
68.064531
 30
0.0
  0
LWPOLYLINE
  5
2be
100
AcDbEntity
  8
0
 62
7
100
AcDbPolyline
 90
5
 70
0
 10
67.071417
 20
75.592752
 30
0.0
 10
67.344269
 20
75.038265
 30
0.0
 10
67.344269
 20
72.810494
 30
0.0
 10
67.344269
 20
70.582205
 30
0.0
 10
67.063665
 20
70.012216
 30
0.0
  0
SPLINE
  5
2bf
100
AcDbEntity
  8
0
 62
7
100
AcDbSpline
 70
8
 71
3
 72
8
 73
4
 74
0
 40
0
 40
0
 40
0
 40
0
 40
1
 40
1
 40
1
 40
1
 10
58.865198
 20
65.027506
 30
0.0
 10
58.835274
 20
65.146740
 30
0.0
 10
58.830387
 20
65.559969
 30
0.0
 10
58.854351
 20
65.946314
 30
0.0
  0
LWPOLYLINE
  5
2c0
100
AcDbEntity
  8
0
 62
7
100
AcDbPolyline
 90
7
 70
0
 10
65.416737
 20
68.064531
 30
0.0
 10
64.049897
 20
66.686319
 30
0.0
 10
64.049897
 20
65.748392
 30
0.0
 10
64.049897
 20
64.810465
 30
0.0
 10
61.484677
 20
64.810465
 30
0.0
 10
58.919459
 20
64.810465
 30
0.0
 10
58.865198
 20
65.027506
 30
0.0
  0
SPLINE
  5
2c1
100
AcDbEntity
  8
0
 62
7
100
AcDbSpline
 70
8
 71
3
 72
8
 73
4
 74
0
 40
0
 40
0
 40
0
 40
0
 40
1
 40
1
 40
1
 40
1
 10
57.496811
 20
68.082618
 30
0.0
 10
56.583577
 20
69.017171
 30
0.0
 10
56.019681
 20
69.667109
 30
0.0
 10
55.876754
 20
69.949168
 30
0.0
  0
SPLINE
  5
2c2
100
AcDbEntity
  8
0
 62
7
100
AcDbSpline
 70
8
 71
3
 72
8
 73
4
 74
0
 40
0
 40
0
 40
0
 40
0
 40
1
 40
1
 40
1
 40
1
 10
55.876754
 20
69.949168
 30
0.0
 10
55.577711
 20
70.539300
 30
0.0
 10
55.503651
 20
71.236515
 30
0.0
 10
55.533105
 20
73.195484
 30
0.0
  0
SPLINE
  5
2c3
100
AcDbEntity
  8
0
 62
7
100
AcDbSpline
 70
8
 71
3
 72
8
 73
4
 74
0
 40
0
 40
0
 40
0
 40
0
 40
1
 40
1
 40
1
 40
1
 10
55.533105
 20
73.195484
 30
0.0
 10
55.559431
 20
74.946375
 30
0.0
 10
55.650294
 20
75.479873
 30
0.0
 10
55.999227
 20
75.929167
 30
0.0
  0
SPLINE
  5
2c4
100
AcDbEntity
  8
0
 62
7
100
AcDbSpline
 70
8
 71
3
 72
8
 73
4
 74
0
 40
0
 40
0
 40
0
 40
0
 40
1
 40
1
 40
1
 40
1
 10
55.999227
 20
75.929167
 30
0.0
 10
56.052535
 20
75.997808
 30
0.0
 10
56.090140
 20
76.035548
 30
0.0
 10
56.124800
 20
76.058874
 30
0.0
  0
SPLINE
  5
2c5
100
AcDbEntity
  8
0
 62
7
100
AcDbSpline
 70
8
 71
3
 72
8
 73
4
 74
0
 40
0
 40
0
 40
0
 40
0
 40
1
 40
1
 40
1
 40
1
 10
56.124800
 20
76.058874
 30
0.0
 10
56.126123
 20
76.061520
 30
0.0
 10
56.127182
 20
76.064536
 30
0.0
 10
56.127896
 20
76.064562
 30
0.0
  0
SPLINE
  5
2c6
100
AcDbEntity
  8
0
 62
7
100
AcDbSpline
 70
8
 71
3
 72
8
 73
4
 74
0
 40
0
 40
0
 40
0
 40
0
 40
1
 40
1
 40
1
 40
1
 10
56.127896
 20
76.064562
 30
0.0
 10
56.128425
 20
76.065356
 30
0.0
 10
56.128425
 20
76.067658
 30
0.0
 10
56.129484
 20
76.067658
 30
0.0
  0
SPLINE
  5
2c7
100
AcDbEntity
  8
0
 62
7
100
AcDbSpline
 70
8
 71
3
 72
8
 73
4
 74
0
 40
0
 40
0
 40
0
 40
0
 40
1
 40
1
 40
1
 40
1
 10
56.129484
 20
76.067658
 30
0.0
 10
56.130013
 20
76.069510
 30
0.0
 10
56.130542
 20
76.071442
 30
0.0
 10
56.131071
 20
76.073347
 30
0.0
  0
SPLINE
  5
2c8
100
AcDbEntity
  8
0
 62
7
100
AcDbSpline
 70
8
 71
3
 72
8
 73
4
 74
0
 40
0
 40
0
 40
0
 40
0
 40
1
 40
1
 40
1
 40
1
 10
56.131071
 20
76.073347
 30
0.0
 10
56.133188
 20
76.076786
 30
0.0
 10
56.136336
 20
76.080120
 30
0.0
 10
56.139855
 20
76.082131
 30
0.0
  0
SPLINE
  5
2c9
100
AcDbEntity
  8
0
 62
7
100
AcDbSpline
 70
8
 71
3
 72
8
 73
4
 74
0
 40
0
 40
0
 40
0
 40
0
 40
1
 40
1
 40
1
 40
1
 10
56.139855
 20
76.082131
 30
0.0
 10
56.152132
 20
76.089195
 30
0.0
 10
56.149036
 20
76.085359
 30
0.0
 10
56.147608
 20
76.083189
 30
0.0
  0
SPLINE
  5
2ca
100
AcDbEntity
  8
0
 62
7
100
AcDbSpline
 70
8
 71
3
 72
8
 73
4
 74
0
 40
0
 40
0
 40
0
 40
0
 40
1
 40
1
 40
1
 40
1
 10
56.147608
 20
76.083189
 30
0.0
 10
56.149460
 20
76.085570
 30
0.0
 10
56.151285
 20
76.088084
 30
0.0
 10
56.153296
 20
76.090412
 30
0.0
  0
LWPOLYLINE
  5
2cb
100
AcDbEntity
  8
0
 62
7
100
AcDbPolyline
 90
3
 70
0
 10
58.854351
 20
65.946314
 30
0.0
 10
58.897758
 20
66.649113
 30
0.0
 10
57.496811
 20
68.082618
 30
0.0
  0
SPLINE
  5
2cc
100
AcDbEntity
  8
0
 62
7
100
AcDbSpline
 70
8
 71
3
 72
8
 73
4
 74
0
 40
0
 40
0
 40
0
 40
0
 40
1
 40
1
 40
1
 40
1
 10
56.153825
 20
76.090412
 30
0.0
 10
56.160122
 20
76.095625
 30
0.0
 10
56.165149
 20
76.098720
 30
0.0
 10
56.172425
 20
76.102292
 30
0.0
  0
SPLINE
  5
2cd
100
AcDbEntity
  8
0
 62
7
100
AcDbSpline
 70
8
 71
3
 72
8
 73
4
 74
0
 40
0
 40
0
 40
0
 40
0
 40
1
 40
1
 40
1
 40
1
 10
56.172425
 20
76.102292
 30
0.0
 10
56.173748
 20
76.102821
 30
0.0
 10
56.174807
 20
76.103350
 30
0.0
 10
56.176050
 20
76.103880
 30
0.0
  0
SPLINE
  5
2ce
100
AcDbEntity
  8
0
 62
7
100
AcDbSpline
 70
8
 71
3
 72
8
 73
4
 74
0
 40
0
 40
0
 40
0
 40
0
 40
1
 40
1
 40
1
 40
1
 10
56.176050
 20
76.103880
 30
0.0
 10
56.176844
 20
76.104409
 30
0.0
 10
56.177638
 20
76.105467
 30
0.0
 10
56.178696
 20
76.105467
 30
0.0
  0
SPLINE
  5
2cf
100
AcDbEntity
  8
0
 62
7
100
AcDbSpline
 70
8
 71
3
 72
8
 73
4
 74
0
 40
0
 40
0
 40
0
 40
0
 40
1
 40
1
 40
1
 40
1
 10
56.178696
 20
76.105467
 30
0.0
 10
56.179225
 20
76.105472
 30
0.0
 10
56.177902
 20
76.104409
 30
0.0
 10
56.177638
 20
76.103880
 30
0.0
  0
SPLINE
  5
2d0
100
AcDbEntity
  8
0
 62
7
100
AcDbSpline
 70
8
 71
3
 72
8
 73
4
 74
0
 40
0
 40
0
 40
0
 40
0
 40
1
 40
1
 40
1
 40
1
 10
56.177638
 20
76.103880
 30
0.0
 10
56.180654
 20
76.107663
 30
0.0
 10
56.186819
 20
76.115415
 30
0.0
 10
56.192110
 20
76.115759
 30
0.0
  0
SPLINE
  5
2d1
100
AcDbEntity
  8
0
 62
7
100
AcDbSpline
 70
8
 71
3
 72
8
 73
4
 74
0
 40
0
 40
0
 40
0
 40
0
 40
1
 40
1
 40
1
 40
1
 10
56.192110
 20
76.115759
 30
0.0
 10
56.192904
 20
76.115815
 30
0.0
 10
56.190258
 20
76.113113
 30
0.0
 10
56.191052
 20
76.113643
 30
0.0
  0
SPLINE
  5
2d2
100
AcDbEntity
  8
0
 62
7
100
AcDbSpline
 70
8
 71
3
 72
8
 73
4
 74
0
 40
0
 40
0
 40
0
 40
0
 40
1
 40
1
 40
1
 40
1
 10
56.191052
 20
76.113643
 30
0.0
 10
56.193777
 20
76.115495
 30
0.0
 10
56.194862
 20
76.119305
 30
0.0
 10
56.197773
 20
76.120866
 30
0.0
  0
SPLINE
  5
2d3
100
AcDbEntity
  8
0
 62
7
100
AcDbSpline
 70
8
 71
3
 72
8
 73
4
 74
0
 40
0
 40
0
 40
0
 40
0
 40
1
 40
1
 40
1
 40
1
 10
56.197773
 20
76.120866
 30
0.0
 10
56.198831
 20
76.121660
 30
0.0
 10
56.199360
 20
76.121924
 30
0.0
 10
56.199889
 20
76.122453
 30
0.0
  0
SPLINE
  5
2d4
100
AcDbEntity
  8
0
 62
7
100
AcDbSpline
 70
8
 71
3
 72
8
 73
4
 74
0
 40
0
 40
0
 40
0
 40
0
 40
1
 40
1
 40
1
 40
1
 10
56.199889
 20
76.122453
 30
0.0
 10
56.201477
 20
76.125946
 30
0.0
 10
56.202826
 20
76.129359
 30
0.0
 10
56.202985
 20
76.129676
 30
0.0
  0
SPLINE
  5
2d5
100
AcDbEntity
  8
0
 62
7
100
AcDbSpline
 70
8
 71
3
 72
8
 73
4
 74
0
 40
0
 40
0
 40
0
 40
0
 40
1
 40
1
 40
1
 40
1
 10
56.202985
 20
76.129676
 30
0.0
 10
56.205101
 20
76.134360
 30
0.0
 10
56.208832
 20
76.137905
 30
0.0
 10
56.212298
 20
76.141556
 30
0.0
  0
SPLINE
  5
2d6
100
AcDbEntity
  8
0
 62
7
100
AcDbSpline
 70
8
 71
3
 72
8
 73
4
 74
0
 40
0
 40
0
 40
0
 40
0
 40
1
 40
1
 40
1
 40
1
 10
56.212298
 20
76.141556
 30
0.0
 10
56.213092
 20
76.142879
 30
0.0
 10
56.213621
 20
76.143408
 30
0.0
 10
56.214944
 20
76.144652
 30
0.0
  0
LWPOLYLINE
  5
2d7
100
AcDbEntity
  8
0
 62
7
100
AcDbPolyline
 90
2
 70
0
 10
56.153296
 20
76.090412
 30
0.0
 10
56.153825
 20
76.090412
 30
0.0
  0
SPLINE
  5
2d8
100
AcDbEntity
  8
0
 62
7
100
AcDbSpline
 70
8
 71
3
 72
8
 73
4
 74
0
 40
0
 40
0
 40
0
 40
0
 40
1
 40
1
 40
1
 40
1
 10
56.214944
 20
76.145181
 30
0.0
 10
56.215473
 20
76.145975
 30
0.0
 10
56.215738
 20
76.146504
 30
0.0
 10
56.216531
 20
76.147298
 30
0.0
  0
SPLINE
  5
2d9
100
AcDbEntity
  8
0
 62
7
100
AcDbSpline
 70
8
 71
3
 72
8
 73
4
 74
0
 40
0
 40
0
 40
0
 40
0
 40
1
 40
1
 40
1
 40
1
 10
56.216531
 20
76.147298
 30
0.0
 10
56.218119
 20
76.149150
 30
0.0
 10
56.219601
 20
76.149414
 30
0.0
 10
56.220659
 20
76.150393
 30
0.0
  0
LWPOLYLINE
  5
2da
100
AcDbEntity
  8
0
 62
7
100
AcDbPolyline
 90
2
 70
0
 10
56.214944
 20
76.144652
 30
0.0
 10
56.214944
 20
76.145181
 30
0.0
  0
SPLINE
  5
2db
100
AcDbEntity
  8
0
 62
7
100
AcDbSpline
 70
8
 71
3
 72
8
 73
4
 74
0
 40
0
 40
0
 40
0
 40
0
 40
1
 40
1
 40
1
 40
1
 10
56.223755
 20
76.150922
 30
0.0
 10
56.226691
 20
76.160183
 30
0.0
 10
56.228014
 20
76.163993
 30
0.0
 10
56.234100
 20
76.172116
 30
0.0
  0
SPLINE
  5
2dc
100
AcDbEntity
  8
0
 62
7
100
AcDbSpline
 70
8
 71
3
 72
8
 73
4
 74
0
 40
0
 40
0
 40
0
 40
0
 40
1
 40
1
 40
1
 40
1
 10
56.234100
 20
76.172116
 30
0.0
 10
56.238121
 20
76.176111
 30
0.0
 10
56.241931
 20
76.179074
 30
0.0
 10
56.245980
 20
76.182963
 30
0.0
  0
LWPOLYLINE
  5
2dd
100
AcDbEntity
  8
0
 62
7
100
AcDbPolyline
 90
2
 70
0
 10
56.220659
 20
76.150393
 30
0.0
 10
56.223755
 20
76.150922
 30
0.0
  0
SPLINE
  5
2de
100
AcDbEntity
  8
0
 62
7
100
AcDbSpline
 70
8
 71
3
 72
8
 73
4
 74
0
 40
0
 40
0
 40
0
 40
0
 40
1
 40
1
 40
1
 40
1
 10
56.248096
 20
76.184022
 30
0.0
 10
56.251404
 20
76.187382
 30
0.0
 10
56.252885
 20
76.188678
 30
0.0
 10
56.256351
 20
76.191245
 30
0.0
  0
SPLINE
  5
2df
100
AcDbEntity
  8
0
 62
7
100
AcDbSpline
 70
8
 71
3
 72
8
 73
4
 74
0
 40
0
 40
0
 40
0
 40
0
 40
1
 40
1
 40
1
 40
1
 10
56.256351
 20
76.191245
 30
0.0
 10
56.256880
 20
76.188335
 30
0.0
 10
56.259341
 20
76.192303
 30
0.0
 10
56.262040
 20
76.195372
 30
0.0
  0
SPLINE
  5
2e0
100
AcDbEntity
  8
0
 62
7
100
AcDbSpline
 70
8
 71
3
 72
8
 73
4
 74
0
 40
0
 40
0
 40
0
 40
0
 40
1
 40
1
 40
1
 40
1
 10
56.262040
 20
76.195372
 30
0.0
 10
56.261246
 20
76.191218
 30
0.0
 10
56.259262
 20
76.180926
 30
0.0
 10
56.262569
 20
76.198018
 30
0.0
  0
SPLINE
  5
2e1
100
AcDbEntity
  8
0
 62
7
100
AcDbSpline
 70
8
 71
3
 72
8
 73
4
 74
0
 40
0
 40
0
 40
0
 40
0
 40
1
 40
1
 40
1
 40
1
 10
56.262569
 20
76.198018
 30
0.0
 10
56.265506
 20
76.203839
 30
0.0
 10
56.262418
 20
76.198547
 30
0.0
 10
56.271882
 20
76.207834
 30
0.0
  0
SPLINE
  5
2e2
100
AcDbEntity
  8
0
 62
7
100
AcDbSpline
 70
8
 71
3
 72
8
 73
4
 74
0
 40
0
 40
0
 40
0
 40
0
 40
1
 40
1
 40
1
 40
1
 10
56.271882
 20
76.207834
 30
0.0
 10
56.272411
 20
76.208099
 30
0.0
 10
56.272411
 20
76.208628
 30
0.0
 10
56.272941
 20
76.208893
 30
0.0
  0
SPLINE
  5
2e3
100
AcDbEntity
  8
0
 62
7
100
AcDbSpline
 70
8
 71
3
 72
8
 73
4
 74
0
 40
0
 40
0
 40
0
 40
0
 40
1
 40
1
 40
1
 40
1
 10
56.272941
 20
76.208893
 30
0.0
 10
56.274264
 20
76.210216
 30
0.0
 10
56.275666
 20
76.211274
 30
0.0
 10
56.277068
 20
76.212517
 30
0.0
  0
SPLINE
  5
2e4
100
AcDbEntity
  8
0
 62
7
100
AcDbSpline
 70
8
 71
3
 72
8
 73
4
 74
0
 40
0
 40
0
 40
0
 40
0
 40
1
 40
1
 40
1
 40
1
 10
56.277068
 20
76.212517
 30
0.0
 10
56.278391
 20
76.213047
 30
0.0
 10
56.279793
 20
76.213576
 30
0.0
 10
56.281196
 20
76.214105
 30
0.0
  0
SPLINE
  5
2e5
100
AcDbEntity
  8
0
 62
7
100
AcDbSpline
 70
8
 71
3
 72
8
 73
4
 74
0
 40
0
 40
0
 40
0
 40
0
 40
1
 40
1
 40
1
 40
1
 10
56.281196
 20
76.214105
 30
0.0
 10
56.281725
 20
76.213864
 30
0.0
 10
56.281989
 20
76.214290
 30
0.0
 10
56.282783
 20
76.214634
 30
0.0
  0
LWPOLYLINE
  5
2e6
100
AcDbEntity
  8
0
 62
7
100
AcDbPolyline
 90
2
 70
0
 10
56.245980
 20
76.182963
 30
0.0
 10
56.248096
 20
76.184022
 30
0.0
  0
SPLINE
  5
2e7
100
AcDbEntity
  8
0
 62
7
100
AcDbSpline
 70
8
 71
3
 72
8
 73
4
 74
0
 40
0
 40
0
 40
0
 40
0
 40
1
 40
1
 40
1
 40
1
 10
56.282783
 20
76.215163
 30
0.0
 10
56.283312
 20
76.216486
 30
0.0
 10
56.283841
 20
76.218021
 30
0.0
 10
56.284900
 20
76.219291
 30
0.0
  0
SPLINE
  5
2e8
100
AcDbEntity
  8
0
 62
7
100
AcDbSpline
 70
8
 71
3
 72
8
 73
4
 74
0
 40
0
 40
0
 40
0
 40
0
 40
1
 40
1
 40
1
 40
1
 10
56.284900
 20
76.219291
 30
0.0
 10
56.286487
 20
76.221672
 30
0.0
 10
56.288763
 20
76.223286
 30
0.0
 10
56.290588
 20
76.225482
 30
0.0
  0
SPLINE
  5
2e9
100
AcDbEntity
  8
0
 62
7
100
AcDbSpline
 70
8
 71
3
 72
8
 73
4
 74
0
 40
0
 40
0
 40
0
 40
0
 40
1
 40
1
 40
1
 40
1
 10
56.290588
 20
76.225482
 30
0.0
 10
56.292176
 20
76.226011
 30
0.0
 10
56.293684
 20
76.226540
 30
0.0
 10
56.295245
 20
76.227070
 30
0.0
  0
SPLINE
  5
2ea
100
AcDbEntity
  8
0
 62
7
100
AcDbSpline
 70
8
 71
3
 72
8
 73
4
 74
0
 40
0
 40
0
 40
0
 40
0
 40
1
 40
1
 40
1
 40
1
 10
56.295245
 20
76.227070
 30
0.0
 10
56.295774
 20
76.227599
 30
0.0
 10
56.295361
 20
76.229451
 30
0.0
 10
56.296303
 20
76.230165
 30
0.0
  0
LWPOLYLINE
  5
2eb
100
AcDbEntity
  8
0
 62
7
100
AcDbPolyline
 90
2
 70
0
 10
56.282783
 20
76.214634
 30
0.0
 10
56.282783
 20
76.215163
 30
0.0
  0
SPLINE
  5
2ec
100
AcDbEntity
  8
0
 62
7
100
AcDbSpline
 70
8
 71
3
 72
8
 73
4
 74
0
 40
0
 40
0
 40
0
 40
0
 40
1
 40
1
 40
1
 40
1
 10
56.296303
 20
76.230694
 30
0.0
 10
56.297097
 20
76.230430
 30
0.0
 10
56.297891
 20
76.229901
 30
0.0
 10
56.298949
 20
76.229636
 30
0.0
  0
SPLINE
  5
2ed
100
AcDbEntity
  8
0
 62
7
100
AcDbSpline
 70
8
 71
3
 72
8
 73
4
 74
0
 40
0
 40
0
 40
0
 40
0
 40
1
 40
1
 40
1
 40
1
 10
56.298949
 20
76.229636
 30
0.0
 10
56.300801
 20
76.230165
 30
0.0
 10
56.302733
 20
76.232017
 30
0.0
 10
56.304638
 20
76.232732
 30
0.0
  0
SPLINE
  5
2ee
100
AcDbEntity
  8
0
 62
7
100
AcDbSpline
 70
8
 71
3
 72
8
 73
4
 74
0
 40
0
 40
0
 40
0
 40
0
 40
1
 40
1
 40
1
 40
1
 10
56.304638
 20
76.232732
 30
0.0
 10
56.305167
 20
76.232718
 30
0.0
 10
56.306490
 20
76.232951
 30
0.0
 10
56.306225
 20
76.232732
 30
0.0
  0
SPLINE
  5
2ef
100
AcDbEntity
  8
0
 62
7
100
AcDbSpline
 70
8
 71
3
 72
8
 73
4
 74
0
 40
0
 40
0
 40
0
 40
0
 40
1
 40
1
 40
1
 40
1
 10
56.306225
 20
76.232732
 30
0.0
 10
56.304638
 20
76.231938
 30
0.0
 10
56.302733
 20
76.230615
 30
0.0
 10
56.301066
 20
76.229636
 30
0.0
  0
SPLINE
  5
2f0
100
AcDbEntity
  8
0
 62
7
100
AcDbSpline
 70
8
 71
3
 72
8
 73
4
 74
0
 40
0
 40
0
 40
0
 40
0
 40
1
 40
1
 40
1
 40
1
 10
56.301066
 20
76.229636
 30
0.0
 10
56.304188
 20
76.229546
 30
0.0
 10
56.307231
 20
76.227519
 30
0.0
 10
56.310379
 20
76.226990
 30
0.0
  0
SPLINE
  5
2f1
100
AcDbEntity
  8
0
 62
7
100
AcDbSpline
 70
8
 71
3
 72
8
 73
4
 74
0
 40
0
 40
0
 40
0
 40
0
 40
1
 40
1
 40
1
 40
1
 10
56.310379
 20
76.226990
 30
0.0
 10
56.310599
 20
76.227236
 30
0.0
 10
56.312496
 20
76.231038
 30
0.0
 10
56.311438
 20
76.230086
 30
0.0
  0
SPLINE
  5
2f2
100
AcDbEntity
  8
0
 62
7
100
AcDbSpline
 70
8
 71
3
 72
8
 73
4
 74
0
 40
0
 40
0
 40
0
 40
0
 40
1
 40
1
 40
1
 40
1
 10
56.311438
 20
76.230086
 30
0.0
 10
56.322497
 20
76.241278
 30
0.0
 10
56.320671
 20
76.238473
 30
0.0
 10
56.327974
 20
76.237309
 30
0.0
  0
SPLINE
  5
2f3
100
AcDbEntity
  8
0
 62
7
100
AcDbSpline
 70
8
 71
3
 72
8
 73
4
 74
0
 40
0
 40
0
 40
0
 40
0
 40
1
 40
1
 40
1
 40
1
 10
56.327974
 20
76.237309
 30
0.0
 10
56.328503
 20
76.237573
 30
0.0
 10
56.328503
 20
76.238367
 30
0.0
 10
56.329032
 20
76.238896
 30
0.0
  0
SPLINE
  5
2f4
100
AcDbEntity
  8
0
 62
7
100
AcDbSpline
 70
8
 71
3
 72
8
 73
4
 74
0
 40
0
 40
0
 40
0
 40
0
 40
1
 40
1
 40
1
 40
1
 10
56.329032
 20
76.238896
 30
0.0
 10
56.329239
 20
76.238965
 30
0.0
 10
56.329561
 20
76.239426
 30
0.0
 10
56.330091
 20
76.239426
 30
0.0
  0
LWPOLYLINE
  5
2f5
100
AcDbEntity
  8
0
 62
7
100
AcDbPolyline
 90
2
 70
0
 10
56.296303
 20
76.230165
 30
0.0
 10
56.296303
 20
76.230694
 30
0.0
  0
SPLINE
  5
2f6
100
AcDbEntity
  8
0
 62
7
100
AcDbSpline
 70
8
 71
3
 72
8
 73
4
 74
0
 40
0
 40
0
 40
0
 40
0
 40
1
 40
1
 40
1
 40
1
 10
56.329561
 20
76.239955
 30
0.0
 10
56.329540
 20
76.240484
 30
0.0
 10
56.330091
 20
76.240748
 30
0.0
 10
56.330091
 20
76.241013
 30
0.0
  0
SPLINE
  5
2f7
100
AcDbEntity
  8
0
 62
7
100
AcDbSpline
 70
8
 71
3
 72
8
 73
4
 74
0
 40
0
 40
0
 40
0
 40
0
 40
1
 40
1
 40
1
 40
1
 10
56.330091
 20
76.241013
 30
0.0
 10
56.331943
 20
76.243394
 30
0.0
 10
56.333266
 20
76.244320
 30
0.0
 10
56.334218
 20
76.245141
 30
0.0
  0
SPLINE
  5
2f8
100
AcDbEntity
  8
0
 62
7
100
AcDbSpline
 70
8
 71
3
 72
8
 73
4
 74
0
 40
0
 40
0
 40
0
 40
0
 40
1
 40
1
 40
1
 40
1
 10
56.334218
 20
76.245141
 30
0.0
 10
56.334747
 20
76.247257
 30
0.0
 10
56.337843
 20
76.249903
 30
0.0
 10
56.340409
 20
76.252893
 30
0.0
  0
SPLINE
  5
2f9
100
AcDbEntity
  8
0
 62
7
100
AcDbSpline
 70
8
 71
3
 72
8
 73
4
 74
0
 40
0
 40
0
 40
0
 40
0
 40
1
 40
1
 40
1
 40
1
 10
56.340409
 20
76.252893
 30
0.0
 10
56.355676
 20
76.392109
 30
0.0
 10
56.624321
 20
76.671011
 30
0.0
 10
57.572894
 20
77.619220
 30
0.0
  0
LWPOLYLINE
  5
2fa
100
AcDbEntity
  8
0
 62
7
100
AcDbPolyline
 90
2
 70
0
 10
56.330091
 20
76.239426
 30
0.0
 10
56.329561
 20
76.239955
 30
0.0
  0
SPLINE
  5
2fb
100
AcDbEntity
  8
0
 62
7
100
AcDbSpline
 70
8
 71
3
 72
8
 73
4
 74
0
 40
0
 40
0
 40
0
 40
0
 40
1
 40
1
 40
1
 40
1
 10
44.020121
 20
78.329020
 30
0.0
 10
43.760464
 20
78.329020
 30
0.0
 10
43.538024
 20
78.323437
 30
0.0
 10
43.302851
 20
78.319204
 30
0.0
  0
SPLINE
  5
2fc
100
AcDbEntity
  8
0
 62
7
100
AcDbSpline
 70
8
 71
3
 72
8
 73
4
 74
0
 40
0
 40
0
 40
0
 40
0
 40
1
 40
1
 40
1
 40
1
 10
43.302851
 20
78.319204
 30
0.0
 10
43.301528
 20
78.312563
 30
0.0
 10
43.299200
 20
78.306054
 30
0.0
 10
43.297163
 20
78.299572
 30
0.0
  0
SPLINE
  5
2fd
100
AcDbEntity
  8
0
 62
7
100
AcDbSpline
 70
8
 71
3
 72
8
 73
4
 74
0
 40
0
 40
0
 40
0
 40
0
 40
1
 40
1
 40
1
 40
1
 10
43.297163
 20
78.299572
 30
0.0
 10
43.296104
 20
78.292719
 30
0.0
 10
43.297692
 20
78.285708
 30
0.0
 10
43.296104
 20
78.278908
 30
0.0
  0
SPLINE
  5
2fe
100
AcDbEntity
  8
0
 62
7
100
AcDbSpline
 70
8
 71
3
 72
8
 73
4
 74
0
 40
0
 40
0
 40
0
 40
0
 40
1
 40
1
 40
1
 40
1
 10
43.296104
 20
78.278908
 30
0.0
 10
43.293723
 20
78.262133
 30
0.0
 10
43.292374
 20
78.252000
 30
0.0
 10
43.290416
 20
78.241700
 30
0.0
  0
SPLINE
  5
2ff
100
AcDbEntity
  8
0
 62
7
100
AcDbSpline
 70
8
 71
3
 72
8
 73
4
 74
0
 40
0
 40
0
 40
0
 40
0
 40
1
 40
1
 40
1
 40
1
 10
43.290416
 20
78.241700
 30
0.0
 10
43.290601
 20
78.239027
 30
0.0
 10
43.290945
 20
78.236752
 30
0.0
 10
43.291474
 20
78.230323
 30
0.0
  0
SPLINE
  5
300
100
AcDbEntity
  8
0
 62
7
100
AcDbSpline
 70
8
 71
3
 72
8
 73
4
 74
0
 40
0
 40
0
 40
0
 40
0
 40
1
 40
1
 40
1
 40
1
 10
43.291474
 20
78.230323
 30
0.0
 10
43.291466
 20
78.205372
 30
0.0
 10
43.290945
 20
78.180856
 30
0.0
 10
43.290945
 20
78.155908
 30
0.0
  0
SPLINE
  5
301
100
AcDbEntity
  8
0
 62
7
100
AcDbSpline
 70
8
 71
3
 72
8
 73
4
 74
0
 40
0
 40
0
 40
0
 40
0
 40
1
 40
1
 40
1
 40
1
 10
43.290945
 20
78.155908
 30
0.0
 10
43.291043
 20
78.141621
 30
0.0
 10
43.290942
 20
78.127296
 30
0.0
 10
43.290945
 20
78.113017
 30
0.0
  0
SPLINE
  5
302
100
AcDbEntity
  8
0
 62
7
100
AcDbSpline
 70
8
 71
3
 72
8
 73
4
 74
0
 40
0
 40
0
 40
0
 40
0
 40
1
 40
1
 40
1
 40
1
 10
43.290945
 20
78.113017
 30
0.0
 10
43.295073
 20
78.107302
 30
0.0
 10
43.299729
 20
78.101984
 30
0.0
 10
43.302322
 20
78.095449
 30
0.0
  0
SPLINE
  5
303
100
AcDbEntity
  8
0
 62
7
100
AcDbSpline
 70
8
 71
3
 72
8
 73
4
 74
0
 40
0
 40
0
 40
0
 40
0
 40
1
 40
1
 40
1
 40
1
 10
43.302322
 20
78.095449
 30
0.0
 10
43.304703
 20
78.089204
 30
0.0
 10
43.303910
 20
78.080500
 30
0.0
 10
43.304439
 20
78.072721
 30
0.0
  0
LWPOLYLINE
  5
304
100
AcDbEntity
  8
0
 62
7
100
AcDbPolyline
 90
4
 70
0
 10
57.572894
 20
77.619220
 30
0.0
 10
58.902529
 20
78.948336
 30
0.0
 10
58.889617
 20
79.858875
 30
0.0
 10
58.873477
 20
80.767632
 30
0.0
  0
SPLINE
  5
305
100
AcDbEntity
  8
0
 62
7
100
AcDbSpline
 70
8
 71
3
 72
8
 73
4
 74
0
 40
0
 40
0
 40
0
 40
0
 40
1
 40
1
 40
1
 40
1
 10
43.344230
 20
77.045910
 30
0.0
 10
43.344230
 20
76.481204
 30
0.0
 10
43.315445
 20
76.015980
 30
0.0
 10
43.280153
 20
76.012381
 30
0.0
  0
SPLINE
  5
306
100
AcDbEntity
  8
0
 62
7
100
AcDbSpline
 70
8
 71
3
 72
8
 73
4
 74
0
 40
0
 40
0
 40
0
 40
0
 40
1
 40
1
 40
1
 40
1
 10
43.280153
 20
76.012381
 30
0.0
 10
43.244857
 20
76.008783
 30
0.0
 10
43.148898
 20
75.992987
 30
0.0
 10
43.066729
 20
75.977242
 30
0.0
  0
SPLINE
  5
307
100
AcDbEntity
  8
0
 62
7
100
AcDbSpline
 70
8
 71
3
 72
8
 73
4
 74
0
 40
0
 40
0
 40
0
 40
0
 40
1
 40
1
 40
1
 40
1
 10
43.066729
 20
75.977242
 30
0.0
 10
42.973898
 20
75.959462
 30
0.0
 10
42.861524
 20
76.043136
 30
0.0
 10
42.770105
 20
76.197899
 30
0.0
  0
SPLINE
  5
308
100
AcDbEntity
  8
0
 62
7
100
AcDbSpline
 70
8
 71
3
 72
8
 73
4
 74
0
 40
0
 40
0
 40
0
 40
0
 40
1
 40
1
 40
1
 40
1
 10
42.770105
 20
76.197899
 30
0.0
 10
42.675572
 20
76.357932
 30
0.0
 10
42.552710
 20
76.446981
 30
0.0
 10
42.426456
 20
76.446981
 30
0.0
  0
SPLINE
  5
309
100
AcDbEntity
  8
0
 62
7
100
AcDbSpline
 70
8
 71
3
 72
8
 73
4
 74
0
 40
0
 40
0
 40
0
 40
0
 40
1
 40
1
 40
1
 40
1
 10
42.426456
 20
76.446981
 30
0.0
 10
42.242415
 20
76.446981
 30
0.0
 10
42.250019
 20
76.425311
 30
0.0
 10
42.551514
 20
76.104882
 30
0.0
  0
SPLINE
  5
30a
100
AcDbEntity
  8
0
 62
7
100
AcDbSpline
 70
8
 71
3
 72
8
 73
4
 74
0
 40
0
 40
0
 40
0
 40
0
 40
1
 40
1
 40
1
 40
1
 10
42.551514
 20
76.104882
 30
0.0
 10
42.793737
 20
75.847448
 30
0.0
 10
42.939774
 20
75.762353
 30
0.0
 10
43.141143
 20
75.762268
 30
0.0
  0
SPLINE
  5
30b
100
AcDbEntity
  8
0
 62
7
100
AcDbSpline
 70
8
 71
3
 72
8
 73
4
 74
0
 40
0
 40
0
 40
0
 40
0
 40
1
 40
1
 40
1
 40
1
 10
43.141143
 20
75.762268
 30
0.0
 10
43.571522
 20
75.762040
 30
0.0
 10
43.622000
 20
75.901256
 30
0.0
 10
43.606231
 20
77.044875
 30
0.0
  0
LWPOLYLINE
  5
30c
100
AcDbEntity
  8
0
 62
7
100
AcDbPolyline
 90
3
 70
0
 10
43.304439
 20
78.072721
 30
0.0
 10
43.344230
 20
78.072721
 30
0.0
 10
43.344230
 20
77.045910
 30
0.0
  0
SPLINE
  5
30d
100
AcDbEntity
  8
0
 62
7
100
AcDbSpline
 70
8
 71
3
 72
8
 73
4
 74
0
 40
0
 40
0
 40
0
 40
0
 40
1
 40
1
 40
1
 40
1
 10
46.485651
 20
77.024206
 30
0.0
 10
47.059067
 20
76.447735
 30
0.0
 10
47.559494
 20
75.879918
 30
0.0
 10
47.597729
 20
75.762268
 30
0.0
  0
SPLINE
  5
30e
100
AcDbEntity
  8
0
 62
7
100
AcDbSpline
 70
8
 71
3
 72
8
 73
4
 74
0
 40
0
 40
0
 40
0
 40
0
 40
1
 40
1
 40
1
 40
1
 10
47.597729
 20
75.762268
 30
0.0
 10
47.635964
 20
75.644621
 30
0.0
 10
47.666471
 20
74.249092
 30
0.0
 10
47.665942
 20
72.661164
 30
0.0
  0
LWPOLYLINE
  5
30f
100
AcDbEntity
  8
0
 62
7
100
AcDbPolyline
 90
5
 70
0
 10
43.606231
 20
77.044875
 30
0.0
 10
43.592287
 20
78.072721
 30
0.0
 10
44.517813
 20
78.072721
 30
0.0
 10
45.442820
 20
78.072721
 30
0.0
 10
46.485651
 20
77.024206
 30
0.0
  0
SPLINE
  5
310
100
AcDbEntity
  8
0
 62
7
100
AcDbSpline
 70
8
 71
3
 72
8
 73
4
 74
0
 40
0
 40
0
 40
0
 40
0
 40
1
 40
1
 40
1
 40
1
 10
44.700206
 20
67.485771
 30
0.0
 10
43.538854
 20
67.433201
 30
0.0
 10
43.601050
 20
67.369571
 30
0.0
 10
43.601050
 20
68.613867
 30
0.0
  0
SPLINE
  5
311
100
AcDbEntity
  8
0
 62
7
100
AcDbSpline
 70
8
 71
3
 72
8
 73
4
 74
0
 40
0
 40
0
 40
0
 40
0
 40
1
 40
1
 40
1
 40
1
 10
43.601050
 20
68.613867
 30
0.0
 10
43.601050
 20
69.613701
 30
0.0
 10
43.590440
 20
69.679090
 30
0.0
 10
43.423282
 20
69.732144
 30
0.0
  0
SPLINE
  5
312
100
AcDbEntity
  8
0
 62
7
100
AcDbSpline
 70
8
 71
3
 72
8
 73
4
 74
0
 40
0
 40
0
 40
0
 40
0
 40
1
 40
1
 40
1
 40
1
 10
43.423282
 20
69.732144
 30
0.0
 10
43.325619
 20
69.763153
 30
0.0
 10
43.223214
 20
69.766447
 30
0.0
 10
43.195388
 20
69.738335
 30
0.0
  0
SPLINE
  5
313
100
AcDbEntity
  8
0
 62
7
100
AcDbSpline
 70
8
 71
3
 72
8
 73
4
 74
0
 40
0
 40
0
 40
0
 40
0
 40
1
 40
1
 40
1
 40
1
 10
43.195388
 20
69.738335
 30
0.0
 10
43.167562
 20
69.710522
 30
0.0
 10
43.189567
 20
69.687691
 30
0.0
 10
43.244482
 20
69.687691
 30
0.0
  0
SPLINE
  5
314
100
AcDbEntity
  8
0
 62
7
100
AcDbSpline
 70
8
 71
3
 72
8
 73
4
 74
0
 40
0
 40
0
 40
0
 40
0
 40
1
 40
1
 40
1
 40
1
 10
43.244482
 20
69.687691
 30
0.0
 10
43.315213
 20
69.687691
 30
0.0
 10
43.344216
 20
69.375819
 30
0.0
 10
43.344216
 20
68.617989
 30
0.0
  0
LWPOLYLINE
  5
315
100
AcDbEntity
  8
0
 62
7
100
AcDbPolyline
 90
5
 70
0
 10
47.665942
 20
72.661164
 30
0.0
 10
47.664883
 20
69.774001
 30
0.0
 10
46.537303
 20
68.645905
 30
0.0
 10
45.409207
 20
67.518325
 30
0.0
 10
44.700206
 20
67.485771
 30
0.0
  0
SPLINE
  5
316
100
AcDbEntity
  8
0
 62
7
100
AcDbSpline
 70
8
 71
3
 72
8
 73
4
 74
0
 40
0
 40
0
 40
0
 40
0
 40
1
 40
1
 40
1
 40
1
 10
43.344216
 20
67.793235
 30
0.0
 10
43.365806
 20
67.783366
 30
0.0
 10
43.364589
 20
67.762035
 30
0.0
 10
43.362817
 20
67.729156
 30
0.0
  0
SPLINE
  5
317
100
AcDbEntity
  8
0
 62
7
100
AcDbSpline
 70
8
 71
3
 72
8
 73
4
 74
0
 40
0
 40
0
 40
0
 40
0
 40
1
 40
1
 40
1
 40
1
 10
43.362817
 20
67.729156
 30
0.0
 10
43.361494
 20
67.720848
 30
0.0
 10
43.360700
 20
67.712302
 30
0.0
 10
43.359192
 20
67.704364
 30
0.0
  0
LWPOLYLINE
  5
318
100
AcDbEntity
  8
0
 62
7
100
AcDbPolyline
 90
2
 70
0
 10
43.344216
 20
68.617989
 30
0.0
 10
43.344216
 20
67.793235
 30
0.0
  0
SPLINE
  5
319
100
AcDbEntity
  8
0
 62
7
100
AcDbSpline
 70
8
 71
3
 72
8
 73
4
 74
0
 40
0
 40
0
 40
0
 40
0
 40
1
 40
1
 40
1
 40
1
 10
43.359192
 20
67.703835
 30
0.0
 10
43.364774
 20
67.696823
 30
0.0
 10
43.370145
 20
67.689680
 30
0.0
 10
43.375728
 20
67.682642
 30
0.0
  0
SPLINE
  5
31a
100
AcDbEntity
  8
0
 62
7
100
AcDbSpline
 70
8
 71
3
 72
8
 73
4
 74
0
 40
0
 40
0
 40
0
 40
0
 40
1
 40
1
 40
1
 40
1
 10
43.375728
 20
67.682642
 30
0.0
 10
43.379274
 20
67.669069
 30
0.0
 10
43.383375
 20
67.655578
 30
0.0
 10
43.386073
 20
67.641817
 30
0.0
  0
SPLINE
  5
31b
100
AcDbEntity
  8
0
 62
7
100
AcDbSpline
 70
8
 71
3
 72
8
 73
4
 74
0
 40
0
 40
0
 40
0
 40
0
 40
1
 40
1
 40
1
 40
1
 10
43.386073
 20
67.641817
 30
0.0
 10
43.387661
 20
67.633244
 30
0.0
 10
43.385015
 20
67.624645
 30
0.0
 10
43.387132
 20
67.613911
 30
0.0
  0
SPLINE
  5
31c
100
AcDbEntity
  8
0
 62
7
100
AcDbSpline
 70
8
 71
3
 72
8
 73
4
 74
0
 40
0
 40
0
 40
0
 40
0
 40
1
 40
1
 40
1
 40
1
 10
43.387132
 20
67.613911
 30
0.0
 10
43.388455
 20
67.606952
 30
0.0
 10
43.389857
 20
67.599676
 30
0.0
 10
43.391259
 20
67.592718
 30
0.0
  0
SPLINE
  5
31d
100
AcDbEntity
  8
0
 62
7
100
AcDbSpline
 70
8
 71
3
 72
8
 73
4
 74
0
 40
0
 40
0
 40
0
 40
0
 40
1
 40
1
 40
1
 40
1
 10
43.391259
 20
67.592718
 30
0.0
 10
43.392318
 20
67.555417
 30
0.0
 10
43.395096
 20
67.560396
 30
0.0
 10
43.379882
 20
67.521923
 30
0.0
  0
SPLINE
  5
31e
100
AcDbEntity
  8
0
 62
7
100
AcDbSpline
 70
8
 71
3
 72
8
 73
4
 74
0
 40
0
 40
0
 40
0
 40
0
 40
1
 40
1
 40
1
 40
1
 10
43.379882
 20
67.521923
 30
0.0
 10
43.377765
 20
67.516817
 30
0.0
 10
43.374670
 20
67.512160
 30
0.0
 10
43.371098
 20
67.507980
 30
0.0
  0
SPLINE
  5
31f
100
AcDbEntity
  8
0
 62
7
100
AcDbSpline
 70
8
 71
3
 72
8
 73
4
 74
0
 40
0
 40
0
 40
0
 40
0
 40
1
 40
1
 40
1
 40
1
 10
43.371098
 20
67.507980
 30
0.0
 10
43.367314
 20
67.503535
 30
0.0
 10
43.364219
 20
67.509038
 30
0.0
 10
43.362843
 20
67.500757
 30
0.0
  0
SPLINE
  5
320
100
AcDbEntity
  8
0
 62
7
100
AcDbSpline
 70
8
 71
3
 72
8
 73
4
 74
0
 40
0
 40
0
 40
0
 40
0
 40
1
 40
1
 40
1
 40
1
 10
43.362843
 20
67.500757
 30
0.0
 10
43.361785
 20
67.494909
 30
0.0
 10
43.362843
 20
67.489115
 30
0.0
 10
43.362843
 20
67.483188
 30
0.0
  0
SPLINE
  5
321
100
AcDbEntity
  8
0
 62
7
100
AcDbSpline
 70
8
 71
3
 72
8
 73
4
 74
0
 40
0
 40
0
 40
0
 40
0
 40
1
 40
1
 40
1
 40
1
 10
43.362843
 20
67.483188
 30
0.0
 10
43.362846
 20
67.472870
 30
0.0
 10
43.362838
 20
67.462524
 30
0.0
 10
43.362843
 20
67.452182
 30
0.0
  0
SPLINE
  5
322
100
AcDbEntity
  8
0
 62
7
100
AcDbSpline
 70
8
 71
3
 72
8
 73
4
 74
0
 40
0
 40
0
 40
0
 40
0
 40
1
 40
1
 40
1
 40
1
 10
43.362843
 20
67.452182
 30
0.0
 10
43.383189
 20
67.434322
 30
0.0
 10
43.401226
 20
67.413923
 30
0.0
 10
43.396948
 20
67.383970
 30
0.0
  0
SPLINE
  5
323
100
AcDbEntity
  8
0
 62
7
100
AcDbSpline
 70
8
 71
3
 72
8
 73
4
 74
0
 40
0
 40
0
 40
0
 40
0
 40
1
 40
1
 40
1
 40
1
 10
43.396948
 20
67.383970
 30
0.0
 10
43.396154
 20
67.385822
 30
0.0
 10
43.395360
 20
67.387991
 30
0.0
 10
43.394302
 20
67.389658
 30
0.0
  0
SPLINE
  5
324
100
AcDbEntity
  8
0
 62
7
100
AcDbSpline
 70
8
 71
3
 72
8
 73
4
 74
0
 40
0
 40
0
 40
0
 40
0
 40
1
 40
1
 40
1
 40
1
 10
43.394302
 20
67.389658
 30
0.0
 10
43.393773
 20
67.390716
 30
0.0
 10
43.395096
 20
67.387012
 30
0.0
 10
43.395360
 20
67.386033
 30
0.0
  0
SPLINE
  5
325
100
AcDbEntity
  8
0
 62
7
100
AcDbSpline
 70
8
 71
3
 72
8
 73
4
 74
0
 40
0
 40
0
 40
0
 40
0
 40
1
 40
1
 40
1
 40
1
 10
43.395360
 20
67.386033
 30
0.0
 10
43.396683
 20
67.381324
 30
0.0
 10
43.398218
 20
67.376799
 30
0.0
 10
43.400017
 20
67.372090
 30
0.0
  0
SPLINE
  5
326
100
AcDbEntity
  8
0
 62
7
100
AcDbSpline
 70
8
 71
3
 72
8
 73
4
 74
0
 40
0
 40
0
 40
0
 40
0
 40
1
 40
1
 40
1
 40
1
 10
43.400017
 20
67.372090
 30
0.0
 10
43.407716
 20
67.368597
 30
0.0
 10
43.416051
 20
67.365581
 30
0.0
 10
43.421210
 20
67.359178
 30
0.0
  0
SPLINE
  5
327
100
AcDbEntity
  8
0
 62
7
100
AcDbSpline
 70
8
 71
3
 72
8
 73
4
 74
0
 40
0
 40
0
 40
0
 40
0
 40
1
 40
1
 40
1
 40
1
 10
43.421210
 20
67.359178
 30
0.0
 10
43.436979
 20
67.339546
 30
0.0
 10
43.442721
 20
67.319779
 30
0.0
 10
43.446001
 20
67.299234
 30
0.0
  0
SPLINE
  5
328
100
AcDbEntity
  8
0
 62
7
100
AcDbSpline
 70
8
 71
3
 72
8
 73
4
 74
0
 40
0
 40
0
 40
0
 40
0
 40
1
 40
1
 40
1
 40
1
 10
43.446001
 20
67.299234
 30
0.0
 10
43.455103
 20
67.298980
 30
0.0
 10
43.465395
 20
67.296138
 30
0.0
 10
43.476489
 20
67.292011
 30
0.0
  0
LWPOLYLINE
  5
329
100
AcDbEntity
  8
0
 62
7
100
AcDbPolyline
 90
2
 70
0
 10
43.359192
 20
67.704364
 30
0.0
 10
43.359192
 20
67.703835
 30
0.0
  0
SPLINE
  5
32a
100
AcDbEntity
  8
0
 62
7
100
AcDbSpline
 70
8
 71
3
 72
8
 73
4
 74
0
 40
0
 40
0
 40
0
 40
0
 40
1
 40
1
 40
1
 40
1
 10
43.766396
 20
67.292011
 30
0.0
 10
44.804666
 20
67.292011
 30
0.0
 10
45.654397
 20
67.320795
 30
0.0
 10
45.654653
 20
67.356088
 30
0.0
  0
SPLINE
  5
32b
100
AcDbEntity
  8
0
 62
7
100
AcDbSpline
 70
8
 71
3
 72
8
 73
4
 74
0
 40
0
 40
0
 40
0
 40
0
 40
1
 40
1
 40
1
 40
1
 10
45.654653
 20
67.356088
 30
0.0
 10
45.655182
 20
67.428472
 30
0.0
 10
46.868043
 20
68.679991
 30
0.0
 10
47.486065
 20
69.245895
 30
0.0
  0
SPLINE
  5
32c
100
AcDbEntity
  8
0
 62
7
100
AcDbSpline
 70
8
 71
3
 72
8
 73
4
 74
0
 40
0
 40
0
 40
0
 40
0
 40
1
 40
1
 40
1
 40
1
 10
47.486065
 20
69.245895
 30
0.0
 10
47.709143
 20
69.450159
 30
0.0
 10
47.869848
 20
69.639328
 30
0.0
 10
47.843149
 20
69.666025
 30
0.0
  0
SPLINE
  5
32d
100
AcDbEntity
  8
0
 62
7
100
AcDbSpline
 70
8
 71
3
 72
8
 73
4
 74
0
 40
0
 40
0
 40
0
 40
0
 40
1
 40
1
 40
1
 40
1
 10
47.843149
 20
69.666025
 30
0.0
 10
47.816450
 20
69.692724
 30
0.0
 10
47.832089
 20
69.759804
 30
0.0
 10
47.877772
 20
69.814853
 30
0.0
  0
SPLINE
  5
32e
100
AcDbEntity
  8
0
 62
7
100
AcDbSpline
 70
8
 71
3
 72
8
 73
4
 74
0
 40
0
 40
0
 40
0
 40
0
 40
1
 40
1
 40
1
 40
1
 10
47.877772
 20
69.814853
 30
0.0
 10
47.929337
 20
69.876982
 30
0.0
 10
47.931970
 20
70.016402
 30
0.0
 10
47.883964
 20
70.182790
 30
0.0
  0
SPLINE
  5
32f
100
AcDbEntity
  8
0
 62
7
100
AcDbSpline
 70
8
 71
3
 72
8
 73
4
 74
0
 40
0
 40
0
 40
0
 40
0
 40
1
 40
1
 40
1
 40
1
 10
47.883964
 20
70.182790
 30
0.0
 10
47.841683
 20
70.330229
 30
0.0
 10
47.819379
 20
70.769914
 30
0.0
 10
47.834354
 20
71.159992
 30
0.0
  0
SPLINE
  5
330
100
AcDbEntity
  8
0
 62
7
100
AcDbSpline
 70
8
 71
3
 72
8
 73
4
 74
0
 40
0
 40
0
 40
0
 40
0
 40
1
 40
1
 40
1
 40
1
 10
47.834354
 20
71.159992
 30
0.0
 10
47.890740
 20
72.627680
 30
0.0
 10
47.890628
 20
75.896388
 30
0.0
 10
47.833825
 20
76.040313
 30
0.0
  0
SPLINE
  5
331
100
AcDbEntity
  8
0
 62
7
100
AcDbSpline
 70
8
 71
3
 72
8
 73
4
 74
0
 40
0
 40
0
 40
0
 40
0
 40
1
 40
1
 40
1
 40
1
 10
47.833825
 20
76.040313
 30
0.0
 10
47.801485
 20
76.122665
 30
0.0
 10
47.746036
 20
76.190197
 30
0.0
 10
47.710836
 20
76.190173
 30
0.0
  0
SPLINE
  5
332
100
AcDbEntity
  8
0
 62
7
100
AcDbSpline
 70
8
 71
3
 72
8
 73
4
 74
0
 40
0
 40
0
 40
0
 40
0
 40
1
 40
1
 40
1
 40
1
 10
47.710836
 20
76.190173
 30
0.0
 10
47.675636
 20
76.190173
 30
0.0
 10
47.171041
 20
76.671641
 30
0.0
 10
46.588942
 20
77.259876
 30
0.0
  0
LWPOLYLINE
  5
333
100
AcDbEntity
  8
0
 62
7
100
AcDbPolyline
 90
2
 70
0
 10
43.476489
 20
67.292011
 30
0.0
 10
43.766396
 20
67.292011
 30
0.0
  0
SPLINE
  5
334
100
AcDbEntity
  8
0
 62
7
100
AcDbSpline
 70
8
 71
3
 72
8
 73
4
 74
0
 40
0
 40
0
 40
0
 40
0
 40
1
 40
1
 40
1
 40
1
 10
56.835360
 20
78.233934
 30
0.0
 10
56.835455
 20
78.233670
 30
0.0
 10
56.835889
 20
78.233140
 30
0.0
 10
56.835889
 20
78.232876
 30
0.0
  0
LWPOLYLINE
  5
335
100
AcDbEntity
  8
0
 62
7
100
AcDbPolyline
 90
3
 70
0
 10
46.588942
 20
77.259876
 30
0.0
 10
45.530609
 20
78.329062
 30
0.0
 10
44.020121
 20
78.329020
 30
0.0
  0
SPLINE
  5
336
100
AcDbEntity
  8
0
 62
7
100
AcDbSpline
 70
8
 71
3
 72
8
 73
4
 74
0
 40
0
 40
0
 40
0
 40
0
 40
1
 40
1
 40
1
 40
1
 10
56.836418
 20
78.233405
 30
0.0
 10
56.836154
 20
78.233593
 30
0.0
 10
56.835625
 20
78.233656
 30
0.0
 10
56.835360
 20
78.233934
 30
0.0
  0
LWPOLYLINE
  5
337
100
AcDbEntity
  8
0
 62
7
100
AcDbPolyline
 90
2
 70
0
 10
56.835889
 20
78.232876
 30
0.0
 10
56.836418
 20
78.233405
 30
0.0
  0
SPLINE
  5
338
100
AcDbEntity
  8
0
 62
7
100
AcDbSpline
 70
8
 71
3
 72
8
 73
4
 74
0
 40
0
 40
0
 40
0
 40
0
 40
1
 40
1
 40
1
 40
1
 10
56.471042
 20
78.093893
 30
0.0
 10
56.467550
 20
78.090638
 30
0.0
 10
56.464084
 20
78.087463
 30
0.0
 10
56.460697
 20
78.084077
 30
0.0
  0
LWPOLYLINE
  5
339
100
AcDbEntity
  8
0
 62
7
100
AcDbPolyline
 90
1
 70
1
 10
56.835360
 20
78.233934
 30
0.0
  0
SPLINE
  5
33a
100
AcDbEntity
  8
0
 62
7
100
AcDbSpline
 70
8
 71
3
 72
8
 73
4
 74
0
 40
0
 40
0
 40
0
 40
0
 40
1
 40
1
 40
1
 40
1
 10
56.464851
 20
78.087172
 30
0.0
 10
56.466968
 20
78.089289
 30
0.0
 10
56.468925
 20
78.091697
 30
0.0
 10
56.471042
 20
78.093893
 30
0.0
  0
LWPOLYLINE
  5
33b
100
AcDbEntity
  8
0
 62
7
100
AcDbPolyline
 90
3
 70
0
 10
56.460697
 20
78.084077
 30
0.0
 10
56.461226
 20
78.083548
 30
0.0
 10
56.464851
 20
78.087172
 30
0.0
  0
SPLINE
  5
33c
100
AcDbEntity
  8
0
 62
7
100
AcDbSpline
 70
8
 71
3
 72
8
 73
4
 74
0
 40
0
 40
0
 40
0
 40
0
 40
1
 40
1
 40
1
 40
1
 10
56.397660
 20
78.090797
 30
0.0
 10
56.396337
 20
78.090003
 30
0.0
 10
56.395279
 20
78.089210
 30
0.0
 10
56.394035
 20
78.088151
 30
0.0
  0
SPLINE
  5
33d
100
AcDbEntity
  8
0
 62
7
100
AcDbSpline
 70
8
 71
3
 72
8
 73
4
 74
0
 40
0
 40
0
 40
0
 40
0
 40
1
 40
1
 40
1
 40
1
 10
56.394035
 20
78.088151
 30
0.0
 10
56.391654
 20
78.086299
 30
0.0
 10
56.389987
 20
78.083918
 30
0.0
 10
56.387844
 20
78.081960
 30
0.0
  0
SPLINE
  5
33e
100
AcDbEntity
  8
0
 62
7
100
AcDbSpline
 70
8
 71
3
 72
8
 73
4
 74
0
 40
0
 40
0
 40
0
 40
0
 40
1
 40
1
 40
1
 40
1
 10
56.387844
 20
78.081960
 30
0.0
 10
56.380092
 20
78.074896
 30
0.0
 10
56.381150
 20
78.076007
 30
0.0
 10
56.372339
 20
78.069551
 30
0.0
  0
SPLINE
  5
33f
100
AcDbEntity
  8
0
 62
7
100
AcDbSpline
 70
8
 71
3
 72
8
 73
4
 74
0
 40
0
 40
0
 40
0
 40
0
 40
1
 40
1
 40
1
 40
1
 10
56.372339
 20
78.069551
 30
0.0
 10
56.369270
 20
78.067699
 30
0.0
 10
56.365883
 20
78.066138
 30
0.0
 10
56.363026
 20
78.063863
 30
0.0
  0
SPLINE
  5
340
100
AcDbEntity
  8
0
 62
7
100
AcDbSpline
 70
8
 71
3
 72
8
 73
4
 74
0
 40
0
 40
0
 40
0
 40
0
 40
1
 40
1
 40
1
 40
1
 10
56.363026
 20
78.063863
 30
0.0
 10
56.363820
 20
78.063799
 30
0.0
 10
56.364878
 20
78.063069
 30
0.0
 10
56.365672
 20
78.062804
 30
0.0
  0
SPLINE
  5
341
100
AcDbEntity
  8
0
 62
7
100
AcDbSpline
 70
8
 71
3
 72
8
 73
4
 74
0
 40
0
 40
0
 40
0
 40
0
 40
1
 40
1
 40
1
 40
1
 10
56.365672
 20
78.062804
 30
0.0
 10
56.370408
 20
78.068810
 30
0.0
 10
56.381626
 20
78.077012
 30
0.0
 10
56.386865
 20
78.080373
 30
0.0
  0
SPLINE
  5
342
100
AcDbEntity
  8
0
 62
7
100
AcDbSpline
 70
8
 71
3
 72
8
 73
4
 74
0
 40
0
 40
0
 40
0
 40
0
 40
1
 40
1
 40
1
 40
1
 10
56.386865
 20
78.080373
 30
0.0
 10
56.387923
 20
78.080902
 30
0.0
 10
56.388982
 20
78.081960
 30
0.0
 10
56.389961
 20
78.082489
 30
0.0
  0
SPLINE
  5
343
100
AcDbEntity
  8
0
 62
7
100
AcDbSpline
 70
8
 71
3
 72
8
 73
4
 74
0
 40
0
 40
0
 40
0
 40
0
 40
1
 40
1
 40
1
 40
1
 10
56.389961
 20
78.082489
 30
0.0
 10
56.390490
 20
78.083812
 30
0.0
 10
56.391019
 20
78.085532
 30
0.0
 10
56.397713
 20
78.090744
 30
0.0
  0
LWPOLYLINE
  5
344
100
AcDbEntity
  8
0
 62
7
100
AcDbPolyline
 90
1
 70
1
 10
56.471042
 20
78.093893
 30
0.0
  0
SPLINE
  5
345
100
AcDbEntity
  8
0
 62
7
100
AcDbSpline
 70
8
 71
3
 72
8
 73
4
 74
0
 40
0
 40
0
 40
0
 40
0
 40
1
 40
1
 40
1
 40
1
 10
56.388876
 20
78.080452
 30
0.0
 10
56.387817
 20
78.079658
 30
0.0
 10
56.386495
 20
78.079129
 30
0.0
 10
56.385780
 20
78.078335
 30
0.0
  0
SPLINE
  5
346
100
AcDbEntity
  8
0
 62
7
100
AcDbSpline
 70
8
 71
3
 72
8
 73
4
 74
0
 40
0
 40
0
 40
0
 40
0
 40
1
 40
1
 40
1
 40
1
 10
56.385780
 20
78.078335
 30
0.0
 10
56.385251
 20
78.077806
 30
0.0
 10
56.384457
 20
78.075689
 30
0.0
 10
56.384722
 20
78.076219
 30
0.0
  0
SPLINE
  5
347
100
AcDbEntity
  8
0
 62
7
100
AcDbSpline
 70
8
 71
3
 72
8
 73
4
 74
0
 40
0
 40
0
 40
0
 40
0
 40
1
 40
1
 40
1
 40
1
 10
56.384722
 20
78.076219
 30
0.0
 10
56.387659
 20
78.080558
 30
0.0
 10
56.388347
 20
78.079235
 30
0.0
 10
56.388849
 20
78.080346
 30
0.0
  0
LWPOLYLINE
  5
348
100
AcDbEntity
  8
0
 62
7
100
AcDbPolyline
 90
1
 70
1
 10
56.397713
 20
78.090744
 30
0.0
  0
SPLINE
  5
349
100
AcDbEntity
  8
0
 62
7
100
AcDbSpline
 70
8
 71
3
 72
8
 73
4
 74
0
 40
0
 40
0
 40
0
 40
0
 40
1
 40
1
 40
1
 40
1
 10
57.220350
 20
77.571955
 30
0.0
 10
57.218498
 20
77.571753
 30
0.0
 10
57.218233
 20
77.571161
 30
0.0
 10
57.216223
 20
77.570896
 30
0.0
  0
SPLINE
  5
34a
100
AcDbEntity
  8
0
 62
7
100
AcDbSpline
 70
8
 71
3
 72
8
 73
4
 74
0
 40
0
 40
0
 40
0
 40
0
 40
1
 40
1
 40
1
 40
1
 10
57.216223
 20
77.570896
 30
0.0
 10
57.215164
 20
77.570788
 30
0.0
 10
57.219398
 20
77.571089
 30
0.0
 10
57.219847
 20
77.571425
 30
0.0
  0
LWPOLYLINE
  5
34b
100
AcDbEntity
  8
0
 62
7
100
AcDbPolyline
 90
2
 70
0
 10
56.388849
 20
78.080346
 30
0.0
 10
56.388876
 20
78.080452
 30
0.0
  0
SPLINE
  5
34c
100
AcDbEntity
  8
0
 62
7
100
AcDbSpline
 70
8
 71
3
 72
8
 73
4
 74
0
 40
0
 40
0
 40
0
 40
0
 40
1
 40
1
 40
1
 40
1
 10
57.165055
 20
77.506843
 30
0.0
 10
57.158387
 20
77.505256
 30
0.0
 10
57.153836
 20
77.501552
 30
0.0
 10
57.144391
 20
77.502187
 30
0.0
  0
SPLINE
  5
34d
100
AcDbEntity
  8
0
 62
7
100
AcDbSpline
 70
8
 71
3
 72
8
 73
4
 74
0
 40
0
 40
0
 40
0
 40
0
 40
1
 40
1
 40
1
 40
1
 10
57.144391
 20
77.502187
 30
0.0
 10
57.138252
 20
77.502716
 30
0.0
 10
57.154657
 20
77.504832
 30
0.0
 10
57.162488
 20
77.504832
 30
0.0
  0
SPLINE
  5
34e
100
AcDbEntity
  8
0
 62
7
100
AcDbSpline
 70
8
 71
3
 72
8
 73
4
 74
0
 40
0
 40
0
 40
0
 40
0
 40
1
 40
1
 40
1
 40
1
 10
57.162488
 20
77.504832
 30
0.0
 10
57.163547
 20
77.506155
 30
0.0
 10
57.164076
 20
77.505626
 30
0.0
 10
57.165134
 20
77.506949
 30
0.0
  0
LWPOLYLINE
  5
34f
100
AcDbEntity
  8
0
 62
7
100
AcDbPolyline
 90
2
 70
0
 10
57.219847
 20
77.571425
 30
0.0
 10
57.220350
 20
77.571955
 30
0.0
  0
SPLINE
  5
350
100
AcDbEntity
  8
0
 62
7
100
AcDbSpline
 70
8
 71
3
 72
8
 73
4
 74
0
 40
0
 40
0
 40
0
 40
0
 40
1
 40
1
 40
1
 40
1
 10
56.682397
 20
77.138390
 30
0.0
 10
56.682151
 20
77.138308
 30
0.0
 10
56.681074
 20
77.137861
 30
0.0
 10
56.680809
 20
77.137861
 30
0.0
  0
SPLINE
  5
351
100
AcDbEntity
  8
0
 62
7
100
AcDbSpline
 70
8
 71
3
 72
8
 73
4
 74
0
 40
0
 40
0
 40
0
 40
0
 40
1
 40
1
 40
1
 40
1
 10
56.680809
 20
77.137861
 30
0.0
 10
56.680629
 20
77.137331
 30
0.0
 10
56.680994
 20
77.136802
 30
0.0
 10
56.680809
 20
77.136273
 30
0.0
  0
SPLINE
  5
352
100
AcDbEntity
  8
0
 62
7
100
AcDbSpline
 70
8
 71
3
 72
8
 73
4
 74
0
 40
0
 40
0
 40
0
 40
0
 40
1
 40
1
 40
1
 40
1
 10
56.680809
 20
77.136273
 30
0.0
 10
56.680600
 20
77.136405
 30
0.0
 10
56.683190
 20
77.138654
 30
0.0
 10
56.682397
 20
77.138390
 30
0.0
  0
LWPOLYLINE
  5
353
100
AcDbEntity
  8
0
 62
7
100
AcDbPolyline
 90
2
 70
0
 10
57.165134
 20
77.506949
 30
0.0
 10
57.165055
 20
77.506843
 30
0.0
  0
LWPOLYLINE
  5
354
100
AcDbEntity
  8
0
 62
7
100
AcDbPolyline
 90
1
 70
1
 10
56.682397
 20
77.138390
 30
0.0
  0
SPLINE
  5
355
100
AcDbEntity
  8
0
 62
7
100
AcDbSpline
 70
8
 71
3
 72
8
 73
4
 74
0
 40
0
 40
0
 40
0
 40
0
 40
1
 40
1
 40
1
 40
1
 10
55.842202
 20
76.393220
 30
0.0
 10
55.842995
 20
76.393482
 30
0.0
 10
55.843525
 20
76.394014
 30
0.0
 10
55.844318
 20
76.394278
 30
0.0
  0
SPLINE
  5
356
100
AcDbEntity
  8
0
 62
7
100
AcDbSpline
 70
8
 71
3
 72
8
 73
4
 74
0
 40
0
 40
0
 40
0
 40
0
 40
1
 40
1
 40
1
 40
1
 10
55.844318
 20
76.394278
 30
0.0
 10
55.842731
 20
76.394543
 30
0.0
 10
55.841196
 20
76.395866
 30
0.0
 10
55.839662
 20
76.396395
 30
0.0
  0
LWPOLYLINE
  5
357
100
AcDbEntity
  8
0
 62
7
100
AcDbPolyline
 90
2
 70
0
 10
55.839556
 20
76.396316
 30
0.0
 10
55.842202
 20
76.393220
 30
0.0
  0
SPLINE
  5
358
100
AcDbEntity
  8
0
 62
7
100
AcDbSpline
 70
8
 71
3
 72
8
 73
4
 74
0
 40
0
 40
0
 40
0
 40
0
 40
1
 40
1
 40
1
 40
1
 10
56.347535
 20
76.191676
 30
0.0
 10
56.347005
 20
76.191480
 30
0.0
 10
56.346476
 20
76.190882
 30
0.0
 10
56.345947
 20
76.190618
 30
0.0
  0
SPLINE
  5
359
100
AcDbEntity
  8
0
 62
7
100
AcDbSpline
 70
8
 71
3
 72
8
 73
4
 74
0
 40
0
 40
0
 40
0
 40
0
 40
1
 40
1
 40
1
 40
1
 10
56.345947
 20
76.190618
 30
0.0
 10
56.347270
 20
76.191412
 30
0.0
 10
56.343063
 20
76.189560
 30
0.0
 10
56.341820
 20
76.189030
 30
0.0
  0
SPLINE
  5
35a
100
AcDbEntity
  8
0
 62
7
100
AcDbSpline
 70
8
 71
3
 72
8
 73
4
 74
0
 40
0
 40
0
 40
0
 40
0
 40
1
 40
1
 40
1
 40
1
 10
56.341820
 20
76.189030
 30
0.0
 10
56.342613
 20
76.189560
 30
0.0
 10
56.343143
 20
76.188501
 30
0.0
 10
56.343936
 20
76.189030
 30
0.0
  0
SPLINE
  5
35b
100
AcDbEntity
  8
0
 62
7
100
AcDbSpline
 70
8
 71
3
 72
8
 73
4
 74
0
 40
0
 40
0
 40
0
 40
0
 40
1
 40
1
 40
1
 40
1
 10
56.343936
 20
76.189030
 30
0.0
 10
56.344201
 20
76.189155
 30
0.0
 10
56.344730
 20
76.189560
 30
0.0
 10
56.344995
 20
76.189560
 30
0.0
  0
SPLINE
  5
35c
100
AcDbEntity
  8
0
 62
7
100
AcDbSpline
 70
8
 71
3
 72
8
 73
4
 74
0
 40
0
 40
0
 40
0
 40
0
 40
1
 40
1
 40
1
 40
1
 10
56.344995
 20
76.189560
 30
0.0
 10
56.347376
 20
76.190882
 30
0.0
 10
56.348117
 20
76.187707
 30
0.0
 10
56.350154
 20
76.187972
 30
0.0
  0
SPLINE
  5
35d
100
AcDbEntity
  8
0
 62
7
100
AcDbSpline
 70
8
 71
3
 72
8
 73
4
 74
0
 40
0
 40
0
 40
0
 40
0
 40
1
 40
1
 40
1
 40
1
 10
56.350154
 20
76.187972
 30
0.0
 10
56.349360
 20
76.189295
 30
0.0
 10
56.348302
 20
76.190353
 30
0.0
 10
56.347508
 20
76.191597
 30
0.0
  0
LWPOLYLINE
  5
35e
100
AcDbEntity
  8
0
 62
7
100
AcDbPolyline
 90
2
 70
0
 10
55.839662
 20
76.396395
 30
0.0
 10
55.839556
 20
76.396316
 30
0.0
  0
SPLINE
  5
35f
100
AcDbEntity
  8
0
 62
7
100
AcDbSpline
 70
8
 71
3
 72
8
 73
4
 74
0
 40
0
 40
0
 40
0
 40
0
 40
1
 40
1
 40
1
 40
1
 10
56.193539
 20
76.108478
 30
0.0
 10
56.193539
 20
76.106097
 30
0.0
 10
56.193010
 20
76.101599
 30
0.0
 10
56.193539
 20
76.103319
 30
0.0
  0
SPLINE
  5
360
100
AcDbEntity
  8
0
 62
7
100
AcDbSpline
 70
8
 71
3
 72
8
 73
4
 74
0
 40
0
 40
0
 40
0
 40
0
 40
1
 40
1
 40
1
 40
1
 10
56.193539
 20
76.103319
 30
0.0
 10
56.193804
 20
76.104906
 30
0.0
 10
56.194068
 20
76.106441
 30
0.0
 10
56.194068
 20
76.107975
 30
0.0
  0
LWPOLYLINE
  5
361
100
AcDbEntity
  8
0
 62
7
100
AcDbPolyline
 90
1
 70
1
 10
56.347508
 20
76.191597
 30
0.0
  0
SPLINE
  5
362
100
AcDbEntity
  8
0
 62
7
100
AcDbSpline
 70
8
 71
3
 72
8
 73
4
 74
0
 40
0
 40
0
 40
0
 40
0
 40
1
 40
1
 40
1
 40
1
 10
52.099215
 20
76.055768
 30
0.0
 10
52.098422
 20
76.055620
 30
0.0
 10
52.097892
 20
76.055239
 30
0.0
 10
52.097099
 20
76.055239
 30
0.0
  0
SPLINE
  5
363
100
AcDbEntity
  8
0
 62
7
100
AcDbSpline
 70
8
 71
3
 72
8
 73
4
 74
0
 40
0
 40
0
 40
0
 40
0
 40
1
 40
1
 40
1
 40
1
 10
52.097099
 20
76.055239
 30
0.0
 10
52.095511
 20
76.054709
 30
0.0
 10
52.093950
 20
76.055278
 30
0.0
 10
52.092442
 20
76.054709
 30
0.0
  0
SPLINE
  5
364
100
AcDbEntity
  8
0
 62
7
100
AcDbSpline
 70
8
 71
3
 72
8
 73
4
 74
0
 40
0
 40
0
 40
0
 40
0
 40
1
 40
1
 40
1
 40
1
 10
52.092442
 20
76.054709
 30
0.0
 10
52.097575
 20
76.054765
 30
0.0
 10
52.102761
 20
76.054868
 30
0.0
 10
52.107947
 20
76.055239
 30
0.0
  0
LWPOLYLINE
  5
365
100
AcDbEntity
  8
0
 62
7
100
AcDbPolyline
 90
2
 70
0
 10
56.194068
 20
76.107975
 30
0.0
 10
56.193539
 20
76.108478
 30
0.0
  0
SPLINE
  5
366
100
AcDbEntity
  8
0
 62
7
100
AcDbSpline
 70
8
 71
3
 72
8
 73
4
 74
0
 40
0
 40
0
 40
0
 40
0
 40
1
 40
1
 40
1
 40
1
 10
52.107947
 20
76.055768
 30
0.0
 10
52.105830
 20
76.055823
 30
0.0
 10
52.103819
 20
76.055620
 30
0.0
 10
52.101755
 20
76.055768
 30
0.0
  0
SPLINE
  5
367
100
AcDbEntity
  8
0
 62
7
100
AcDbSpline
 70
8
 71
3
 72
8
 73
4
 74
0
 40
0
 40
0
 40
0
 40
0
 40
1
 40
1
 40
1
 40
1
 10
52.101755
 20
76.055768
 30
0.0
 10
52.100962
 20
76.055580
 30
0.0
 10
52.099903
 20
76.055948
 30
0.0
 10
52.099109
 20
76.055768
 30
0.0
  0
LWPOLYLINE
  5
368
100
AcDbEntity
  8
0
 62
7
100
AcDbPolyline
 90
2
 70
0
 10
52.107947
 20
76.055239
 30
0.0
 10
52.107947
 20
76.055768
 30
0.0
  0
SPLINE
  5
369
100
AcDbEntity
  8
0
 62
7
100
AcDbSpline
 70
8
 71
3
 72
8
 73
4
 74
0
 40
0
 40
0
 40
0
 40
0
 40
1
 40
1
 40
1
 40
1
 10
51.945736
 20
75.833044
 30
0.0
 10
51.941450
 20
75.833071
 30
0.0
 10
51.937163
 20
75.831986
 30
0.0
 10
51.932824
 20
75.831986
 30
0.0
  0
SPLINE
  5
36a
100
AcDbEntity
  8
0
 62
7
100
AcDbSpline
 70
8
 71
3
 72
8
 73
4
 74
0
 40
0
 40
0
 40
0
 40
0
 40
1
 40
1
 40
1
 40
1
 10
51.932824
 20
75.831986
 30
0.0
 10
51.931237
 20
75.831457
 30
0.0
 10
51.929067
 20
75.830927
 30
0.0
 10
51.927136
 20
75.830398
 30
0.0
  0
SPLINE
  5
36b
100
AcDbEntity
  8
0
 62
7
100
AcDbSpline
 70
8
 71
3
 72
8
 73
4
 74
0
 40
0
 40
0
 40
0
 40
0
 40
1
 40
1
 40
1
 40
1
 10
51.927136
 20
75.830398
 30
0.0
 10
51.933327
 20
75.830927
 30
0.0
 10
51.939545
 20
75.831192
 30
0.0
 10
51.945736
 20
75.831457
 30
0.0
  0
SPLINE
  5
36c
100
AcDbEntity
  8
0
 62
7
100
AcDbSpline
 70
8
 71
3
 72
8
 73
4
 74
0
 40
0
 40
0
 40
0
 40
0
 40
1
 40
1
 40
1
 40
1
 10
51.945736
 20
75.831457
 30
0.0
 10
51.946794
 20
75.831986
 30
0.0
 10
51.948117
 20
75.832515
 30
0.0
 10
51.949361
 20
75.833044
 30
0.0
  0
SPLINE
  5
36d
100
AcDbEntity
  8
0
 62
7
100
AcDbSpline
 70
8
 71
3
 72
8
 73
4
 74
0
 40
0
 40
0
 40
0
 40
0
 40
1
 40
1
 40
1
 40
1
 10
51.949361
 20
75.833044
 30
0.0
 10
51.948038
 20
75.833023
 30
0.0
 10
51.947244
 20
75.833078
 30
0.0
 10
51.945736
 20
75.833044
 30
0.0
  0
LWPOLYLINE
  5
36e
100
AcDbEntity
  8
0
 62
7
100
AcDbPolyline
 90
2
 70
0
 10
52.099109
 20
76.055768
 30
0.0
 10
52.099215
 20
76.055768
 30
0.0
  0
SPLINE
  5
36f
100
AcDbEntity
  8
0
 62
7
100
AcDbSpline
 70
8
 71
3
 72
8
 73
4
 74
0
 40
0
 40
0
 40
0
 40
0
 40
1
 40
1
 40
1
 40
1
 10
51.932824
 20
75.470792
 30
0.0
 10
51.931766
 20
75.470655
 30
0.0
 10
51.931237
 20
75.469734
 30
0.0
 10
51.930178
 20
75.469205
 30
0.0
  0
SPLINE
  5
370
100
AcDbEntity
  8
0
 62
7
100
AcDbSpline
 70
8
 71
3
 72
8
 73
4
 74
0
 40
0
 40
0
 40
0
 40
0
 40
1
 40
1
 40
1
 40
1
 10
51.930178
 20
75.469205
 30
0.0
 10
51.932560
 20
75.469208
 30
0.0
 10
51.932560
 20
75.468676
 30
0.0
 10
51.933274
 20
75.468147
 30
0.0
  0
SPLINE
  5
371
100
AcDbEntity
  8
0
 62
7
100
AcDbSpline
 70
8
 71
3
 72
8
 73
4
 74
0
 40
0
 40
0
 40
0
 40
0
 40
1
 40
1
 40
1
 40
1
 10
51.933274
 20
75.468147
 30
0.0
 10
51.933538
 20
75.469205
 30
0.0
 10
51.933382
 20
75.469734
 30
0.0
 10
51.933803
 20
75.470792
 30
0.0
  0
SPLINE
  5
372
100
AcDbEntity
  8
0
 62
7
100
AcDbSpline
 70
8
 71
3
 72
8
 73
4
 74
0
 40
0
 40
0
 40
0
 40
0
 40
1
 40
1
 40
1
 40
1
 10
51.933803
 20
75.470792
 30
0.0
 10
51.933538
 20
75.470732
 30
0.0
 10
51.933009
 20
75.470851
 30
0.0
 10
51.932745
 20
75.470792
 30
0.0
  0
LWPOLYLINE
  5
373
100
AcDbEntity
  8
0
 62
7
100
AcDbPolyline
 90
1
 70
1
 10
51.945736
 20
75.833044
 30
0.0
  0
SPLINE
  5
374
100
AcDbEntity
  8
0
 62
7
100
AcDbSpline
 70
8
 71
3
 72
8
 73
4
 74
0
 40
0
 40
0
 40
0
 40
0
 40
1
 40
1
 40
1
 40
1
 10
51.565405
 20
75.361755
 30
0.0
 10
51.564082
 20
75.361490
 30
0.0
 10
51.563024
 20
75.360432
 30
0.0
 10
51.561780
 20
75.360168
 30
0.0
  0
SPLINE
  5
375
100
AcDbEntity
  8
0
 62
7
100
AcDbSpline
 70
8
 71
3
 72
8
 73
4
 74
0
 40
0
 40
0
 40
0
 40
0
 40
1
 40
1
 40
1
 40
1
 10
51.561780
 20
75.360168
 30
0.0
 10
51.563368
 20
75.360379
 30
0.0
 10
51.564876
 20
75.360697
 30
0.0
 10
51.566437
 20
75.360697
 30
0.0
  0
SPLINE
  5
376
100
AcDbEntity
  8
0
 62
7
100
AcDbSpline
 70
8
 71
3
 72
8
 73
4
 74
0
 40
0
 40
0
 40
0
 40
0
 40
1
 40
1
 40
1
 40
1
 10
51.566437
 20
75.360697
 30
0.0
 10
51.566612
 20
75.361226
 30
0.0
 10
51.567231
 20
75.362020
 30
0.0
 10
51.565379
 20
75.361755
 30
0.0
  0
LWPOLYLINE
  5
377
100
AcDbEntity
  8
0
 62
7
100
AcDbPolyline
 90
1
 70
1
 10
51.932745
 20
75.470792
 30
0.0
  0
SPLINE
  5
378
100
AcDbEntity
  8
0
 62
7
100
AcDbSpline
 70
8
 71
3
 72
8
 73
4
 74
0
 40
0
 40
0
 40
0
 40
0
 40
1
 40
1
 40
1
 40
1
 10
71.318721
 20
75.352442
 30
0.0
 10
70.731512
 20
75.349796
 30
0.0
 10
70.583859
 20
75.315551
 30
0.0
 10
70.135332
 20
75.076489
 30
0.0
  0
SPLINE
  5
379
100
AcDbEntity
  8
0
 62
7
100
AcDbSpline
 70
8
 71
3
 72
8
 73
4
 74
0
 40
0
 40
0
 40
0
 40
0
 40
1
 40
1
 40
1
 40
1
 10
70.135332
 20
75.076489
 30
0.0
 10
69.312692
 20
74.638027
 30
0.0
 10
68.821350
 20
73.953119
 30
0.0
 10
68.701311
 20
73.077128
 30
0.0
  0
SPLINE
  5
37a
100
AcDbEntity
  8
0
 62
7
100
AcDbSpline
 70
8
 71
3
 72
8
 73
4
 74
0
 40
0
 40
0
 40
0
 40
0
 40
1
 40
1
 40
1
 40
1
 10
68.701311
 20
73.077128
 30
0.0
 10
68.553341
 20
71.997573
 30
0.0
 10
69.340132
 20
70.735222
 30
0.0
 10
70.396296
 20
70.358431
 30
0.0
  0
SPLINE
  5
37b
100
AcDbEntity
  8
0
 62
7
100
AcDbSpline
 70
8
 71
3
 72
8
 73
4
 74
0
 40
0
 40
0
 40
0
 40
0
 40
1
 40
1
 40
1
 40
1
 10
70.396296
 20
70.358431
 30
0.0
 10
71.602970
 20
69.927949
 30
0.0
 10
73.031051
 20
70.470003
 30
0.0
 10
73.587832
 20
71.569726
 30
0.0
  0
SPLINE
  5
37c
100
AcDbEntity
  8
0
 62
7
100
AcDbSpline
 70
8
 71
3
 72
8
 73
4
 74
0
 40
0
 40
0
 40
0
 40
0
 40
1
 40
1
 40
1
 40
1
 10
73.587832
 20
71.569726
 30
0.0
 10
74.131969
 20
72.644463
 30
0.0
 10
73.984763
 20
73.676013
 30
0.0
 10
73.162020
 20
74.555591
 30
0.0
  0
SPLINE
  5
37d
100
AcDbEntity
  8
0
 62
7
100
AcDbSpline
 70
8
 71
3
 72
8
 73
4
 74
0
 40
0
 40
0
 40
0
 40
0
 40
1
 40
1
 40
1
 40
1
 10
73.162020
 20
74.555591
 30
0.0
 10
72.601526
 20
75.154803
 30
0.0
 10
72.136606
 20
75.356014
 30
0.0
 10
71.318721
 20
75.352442
 30
0.0
  0
LWPOLYLINE
  5
37e
100
AcDbEntity
  8
0
 62
7
100
AcDbPolyline
 90
1
 70
1
 10
51.565379
 20
75.361755
 30
0.0
  0
SPLINE
  5
37f
100
AcDbEntity
  8
0
 62
7
100
AcDbSpline
 70
8
 71
3
 72
8
 73
4
 74
0
 40
0
 40
0
 40
0
 40
0
 40
1
 40
1
 40
1
 40
1
 10
51.988119
 20
75.335905
 30
0.0
 10
51.985738
 20
75.332545
 30
0.0
 10
51.981902
 20
75.331116
 30
0.0
 10
51.976240
 20
75.332810
 30
0.0
  0
SPLINE
  5
380
100
AcDbEntity
  8
0
 62
7
100
AcDbSpline
 70
8
 71
3
 72
8
 73
4
 74
0
 40
0
 40
0
 40
0
 40
0
 40
1
 40
1
 40
1
 40
1
 10
51.976240
 20
75.332810
 30
0.0
 10
51.976031
 20
75.331751
 30
0.0
 10
51.976136
 20
75.329582
 30
0.0
 10
51.975710
 20
75.328682
 30
0.0
  0
SPLINE
  5
381
100
AcDbEntity
  8
0
 62
7
100
AcDbSpline
 70
8
 71
3
 72
8
 73
4
 74
0
 40
0
 40
0
 40
0
 40
0
 40
1
 40
1
 40
1
 40
1
 10
51.975710
 20
75.328682
 30
0.0
 10
51.975517
 20
75.328153
 30
0.0
 10
51.974652
 20
75.328719
 30
0.0
 10
51.974123
 20
75.328682
 30
0.0
  0
SPLINE
  5
382
100
AcDbEntity
  8
0
 62
7
100
AcDbSpline
 70
8
 71
3
 72
8
 73
4
 74
0
 40
0
 40
0
 40
0
 40
0
 40
1
 40
1
 40
1
 40
1
 10
51.974123
 20
75.328682
 30
0.0
 10
51.970578
 20
75.328481
 30
0.0
 10
51.966820
 20
75.328550
 30
0.0
 10
51.963275
 20
75.328153
 30
0.0
  0
SPLINE
  5
383
100
AcDbEntity
  8
0
 62
7
100
AcDbSpline
 70
8
 71
3
 72
8
 73
4
 74
0
 40
0
 40
0
 40
0
 40
0
 40
1
 40
1
 40
1
 40
1
 10
51.963275
 20
75.328153
 30
0.0
 10
51.952533
 20
75.327359
 30
0.0
 10
51.942003
 20
75.327359
 30
0.0
 10
51.931234
 20
75.327624
 30
0.0
  0
SPLINE
  5
384
100
AcDbEntity
  8
0
 62
7
100
AcDbSpline
 70
8
 71
3
 72
8
 73
4
 74
0
 40
0
 40
0
 40
0
 40
0
 40
1
 40
1
 40
1
 40
1
 10
51.931234
 20
75.327624
 30
0.0
 10
51.921021
 20
75.327587
 30
0.0
 10
51.910940
 20
75.327613
 30
0.0
 10
51.900746
 20
75.327624
 30
0.0
  0
SPLINE
  5
385
100
AcDbEntity
  8
0
 62
7
100
AcDbSpline
 70
8
 71
3
 72
8
 73
4
 74
0
 40
0
 40
0
 40
0
 40
0
 40
1
 40
1
 40
1
 40
1
 10
51.900746
 20
75.327624
 30
0.0
 10
51.892650
 20
75.327634
 30
0.0
 10
51.884554
 20
75.327626
 30
0.0
 10
51.876457
 20
75.327624
 30
0.0
  0
SPLINE
  5
386
100
AcDbEntity
  8
0
 62
7
100
AcDbSpline
 70
8
 71
3
 72
8
 73
4
 74
0
 40
0
 40
0
 40
0
 40
0
 40
1
 40
1
 40
1
 40
1
 10
51.876457
 20
75.327624
 30
0.0
 10
51.863810
 20
75.327624
 30
0.0
 10
51.850846
 20
75.327626
 30
0.0
 10
51.838217
 20
75.327624
 30
0.0
  0
SPLINE
  5
387
100
AcDbEntity
  8
0
 62
7
100
AcDbSpline
 70
8
 71
3
 72
8
 73
4
 74
0
 40
0
 40
0
 40
0
 40
0
 40
1
 40
1
 40
1
 40
1
 10
51.838217
 20
75.327624
 30
0.0
 10
51.838746
 20
75.327359
 30
0.0
 10
51.840069
 20
75.327769
 30
0.0
 10
51.839805
 20
75.327095
 30
0.0
  0
SPLINE
  5
388
100
AcDbEntity
  8
0
 62
7
100
AcDbSpline
 70
8
 71
3
 72
8
 73
4
 74
0
 40
0
 40
0
 40
0
 40
0
 40
1
 40
1
 40
1
 40
1
 10
51.839805
 20
75.327095
 30
0.0
 10
51.839275
 20
75.326301
 30
0.0
 10
51.837688
 20
75.325772
 30
0.0
 10
51.836709
 20
75.325507
 30
0.0
  0
SPLINE
  5
389
100
AcDbEntity
  8
0
 62
7
100
AcDbSpline
 70
8
 71
3
 72
8
 73
4
 74
0
 40
0
 40
0
 40
0
 40
0
 40
1
 40
1
 40
1
 40
1
 10
51.836709
 20
75.325507
 30
0.0
 10
51.827449
 20
75.322015
 30
0.0
 10
51.819405
 20
75.322861
 30
0.0
 10
51.809838
 20
75.323920
 30
0.0
  0
SPLINE
  5
38a
100
AcDbEntity
  8
0
 62
7
100
AcDbSpline
 70
8
 71
3
 72
8
 73
4
 74
0
 40
0
 40
0
 40
0
 40
0
 40
1
 40
1
 40
1
 40
1
 10
51.809838
 20
75.323920
 30
0.0
 10
51.799625
 20
75.324062
 30
0.0
 10
51.789571
 20
75.323390
 30
0.0
 10
51.779347
 20
75.323390
 30
0.0
  0
SPLINE
  5
38b
100
AcDbEntity
  8
0
 62
7
100
AcDbSpline
 70
8
 71
3
 72
8
 73
4
 74
0
 40
0
 40
0
 40
0
 40
0
 40
1
 40
1
 40
1
 40
1
 10
51.779347
 20
75.323390
 30
0.0
 10
51.773209
 20
75.323470
 30
0.0
 10
51.768129
 20
75.326777
 30
0.0
 10
51.762811
 20
75.329079
 30
0.0
  0
SPLINE
  5
38c
100
AcDbEntity
  8
0
 62
7
100
AcDbSpline
 70
8
 71
3
 72
8
 73
4
 74
0
 40
0
 40
0
 40
0
 40
0
 40
1
 40
1
 40
1
 40
1
 10
51.762811
 20
75.329079
 30
0.0
 10
51.762017
 20
75.329127
 30
0.0
 10
51.761488
 20
75.328994
 30
0.0
 10
51.760694
 20
75.329079
 30
0.0
  0
SPLINE
  5
38d
100
AcDbEntity
  8
0
 62
7
100
AcDbSpline
 70
8
 71
3
 72
8
 73
4
 74
0
 40
0
 40
0
 40
0
 40
0
 40
1
 40
1
 40
1
 40
1
 10
51.760694
 20
75.329079
 30
0.0
 10
51.759636
 20
75.328285
 30
0.0
 10
51.758577
 20
75.327756
 30
0.0
 10
51.757599
 20
75.327491
 30
0.0
  0
SPLINE
  5
38e
100
AcDbEntity
  8
0
 62
7
100
AcDbSpline
 70
8
 71
3
 72
8
 73
4
 74
0
 40
0
 40
0
 40
0
 40
0
 40
1
 40
1
 40
1
 40
1
 10
51.757599
 20
75.327491
 30
0.0
 10
51.752995
 20
75.326698
 30
0.0
 10
51.748312
 20
75.326169
 30
0.0
 10
51.743655
 20
75.325904
 30
0.0
  0
SPLINE
  5
38f
100
AcDbEntity
  8
0
 62
7
100
AcDbSpline
 70
8
 71
3
 72
8
 73
4
 74
0
 40
0
 40
0
 40
0
 40
0
 40
1
 40
1
 40
1
 40
1
 10
51.743655
 20
75.325904
 30
0.0
 10
51.740030
 20
75.325817
 30
0.0
 10
51.736908
 20
75.330349
 30
0.0
 10
51.731775
 20
75.333127
 30
0.0
  0
SPLINE
  5
390
100
AcDbEntity
  8
0
 62
7
100
AcDbSpline
 70
8
 71
3
 72
8
 73
4
 74
0
 40
0
 40
0
 40
0
 40
0
 40
1
 40
1
 40
1
 40
1
 10
51.731775
 20
75.333127
 30
0.0
 10
51.717435
 20
75.332333
 30
0.0
 10
51.703229
 20
75.331804
 30
0.0
 10
51.688884
 20
75.332069
 30
0.0
  0
SPLINE
  5
391
100
AcDbEntity
  8
0
 62
7
100
AcDbSpline
 70
8
 71
3
 72
8
 73
4
 74
0
 40
0
 40
0
 40
0
 40
0
 40
1
 40
1
 40
1
 40
1
 10
51.688884
 20
75.332069
 30
0.0
 10
51.677057
 20
75.331878
 30
0.0
 10
51.665045
 20
75.332042
 30
0.0
 10
51.653226
 20
75.332069
 30
0.0
  0
SPLINE
  5
392
100
AcDbEntity
  8
0
 62
7
100
AcDbSpline
 70
8
 71
3
 72
8
 73
4
 74
0
 40
0
 40
0
 40
0
 40
0
 40
1
 40
1
 40
1
 40
1
 10
51.653226
 20
75.332069
 30
0.0
 10
51.647034
 20
75.330746
 30
0.0
 10
51.636689
 20
75.333392
 30
0.0
 10
51.630498
 20
75.332069
 30
0.0
  0
SPLINE
  5
393
100
AcDbEntity
  8
0
 62
7
100
AcDbSpline
 70
8
 71
3
 72
8
 73
4
 74
0
 40
0
 40
0
 40
0
 40
0
 40
1
 40
1
 40
1
 40
1
 10
51.630498
 20
75.332069
 30
0.0
 10
51.628381
 20
75.331540
 30
0.0
 10
51.634361
 20
75.329688
 30
0.0
 10
51.633594
 20
75.328973
 30
0.0
  0
SPLINE
  5
394
100
AcDbEntity
  8
0
 62
7
100
AcDbSpline
 70
8
 71
3
 72
8
 73
4
 74
0
 40
0
 40
0
 40
0
 40
0
 40
1
 40
1
 40
1
 40
1
 10
51.633594
 20
75.328973
 30
0.0
 10
51.632006
 20
75.327386
 30
0.0
 10
51.629784
 20
75.326248
 30
0.0
 10
51.627905
 20
75.324846
 30
0.0
  0
SPLINE
  5
395
100
AcDbEntity
  8
0
 62
7
100
AcDbSpline
 70
8
 71
3
 72
8
 73
4
 74
0
 40
0
 40
0
 40
0
 40
0
 40
1
 40
1
 40
1
 40
1
 10
51.627905
 20
75.324846
 30
0.0
 10
51.611025
 20
75.318337
 30
0.0
 10
51.600161
 20
75.316935
 30
0.0
 10
51.582428
 20
75.318125
 30
0.0
  0
SPLINE
  5
396
100
AcDbEntity
  8
0
 62
7
100
AcDbSpline
 70
8
 71
3
 72
8
 73
4
 74
0
 40
0
 40
0
 40
0
 40
0
 40
1
 40
1
 40
1
 40
1
 10
51.582428
 20
75.318125
 30
0.0
 10
51.576449
 20
75.318369
 30
0.0
 10
51.570840
 20
75.318160
 30
0.0
 10
51.564860
 20
75.318125
 30
0.0
  0
SPLINE
  5
397
100
AcDbEntity
  8
0
 62
7
100
AcDbSpline
 70
8
 71
3
 72
8
 73
4
 74
0
 40
0
 40
0
 40
0
 40
0
 40
1
 40
1
 40
1
 40
1
 10
51.564860
 20
75.318125
 30
0.0
 10
51.556658
 20
75.311034
 30
0.0
 10
51.548615
 20
75.306298
 30
0.0
 10
51.536955
 20
75.307277
 30
0.0
  0
SPLINE
  5
398
100
AcDbEntity
  8
0
 62
7
100
AcDbSpline
 70
8
 71
3
 72
8
 73
4
 74
0
 40
0
 40
0
 40
0
 40
0
 40
1
 40
1
 40
1
 40
1
 10
51.536955
 20
75.307277
 30
0.0
 10
51.532827
 20
75.307542
 30
0.0
 10
51.529202
 20
75.310373
 30
0.0
 10
51.525075
 20
75.310373
 30
0.0
  0
SPLINE
  5
399
100
AcDbEntity
  8
0
 62
7
100
AcDbSpline
 70
8
 71
3
 72
8
 73
4
 74
0
 40
0
 40
0
 40
0
 40
0
 40
1
 40
1
 40
1
 40
1
 10
51.525075
 20
75.310373
 30
0.0
 10
51.513539
 20
75.309579
 30
0.0
 10
51.502030
 20
75.309579
 30
0.0
 10
51.490451
 20
75.309844
 30
0.0
  0
SPLINE
  5
39a
100
AcDbEntity
  8
0
 62
7
100
AcDbSpline
 70
8
 71
3
 72
8
 73
4
 74
0
 40
0
 40
0
 40
0
 40
0
 40
1
 40
1
 40
1
 40
1
 10
51.490451
 20
75.309844
 30
0.0
 10
51.488599
 20
75.309050
 30
0.0
 10
51.488335
 20
75.307198
 30
0.0
 10
51.487356
 20
75.306748
 30
0.0
  0
SPLINE
  5
39b
100
AcDbEntity
  8
0
 62
7
100
AcDbSpline
 70
8
 71
3
 72
8
 73
4
 74
0
 40
0
 40
0
 40
0
 40
0
 40
1
 40
1
 40
1
 40
1
 10
51.487356
 20
75.306748
 30
0.0
 10
51.485239
 20
75.305690
 30
0.0
 10
51.482831
 20
75.303388
 30
0.0
 10
51.480635
 20
75.303653
 30
0.0
  0
SPLINE
  5
39c
100
AcDbEntity
  8
0
 62
7
100
AcDbSpline
 70
8
 71
3
 72
8
 73
4
 74
0
 40
0
 40
0
 40
0
 40
0
 40
1
 40
1
 40
1
 40
1
 10
51.480635
 20
75.303653
 30
0.0
 10
51.471534
 20
75.306298
 30
0.0
 10
51.463411
 20
75.311193
 30
0.0
 10
51.454786
 20
75.315030
 30
0.0
  0
SPLINE
  5
39d
100
AcDbEntity
  8
0
 62
7
100
AcDbSpline
 70
8
 71
3
 72
8
 73
4
 74
0
 40
0
 40
0
 40
0
 40
0
 40
1
 40
1
 40
1
 40
1
 10
51.454786
 20
75.315030
 30
0.0
 10
51.452933
 20
75.328656
 30
0.0
 10
51.453992
 20
75.328920
 30
0.0
 10
51.454256
 20
75.331566
 30
0.0
  0
LWPOLYLINE
  5
39e
100
AcDbEntity
  8
0
 62
7
100
AcDbPolyline
 90
1
 70
1
 10
71.318721
 20
75.352442
 30
0.0
  0
SPLINE
  5
39f
100
AcDbEntity
  8
0
 62
7
100
AcDbSpline
 70
8
 71
3
 72
8
 73
4
 74
0
 40
0
 40
0
 40
0
 40
0
 40
1
 40
1
 40
1
 40
1
 10
51.265638
 20
75.331566
 30
0.0
 10
50.207971
 20
75.331566
 30
0.0
 10
48.991528
 20
74.035997
 30
0.0
 10
48.991356
 20
72.909493
 30
0.0
  0
SPLINE
  5
3a0
100
AcDbEntity
  8
0
 62
7
100
AcDbSpline
 70
8
 71
3
 72
8
 73
4
 74
0
 40
0
 40
0
 40
0
 40
0
 40
1
 40
1
 40
1
 40
1
 10
48.991356
 20
72.909493
 30
0.0
 10
48.991240
 20
72.202656
 30
0.0
 10
49.150376
 20
71.765832
 30
0.0
 10
49.568066
 20
71.327677
 30
0.0
  0
SPLINE
  5
3a1
100
AcDbEntity
  8
0
 62
7
100
AcDbSpline
 70
8
 71
3
 72
8
 73
4
 74
0
 40
0
 40
0
 40
0
 40
0
 40
1
 40
1
 40
1
 40
1
 10
49.568066
 20
71.327677
 30
0.0
 10
49.927925
 20
70.950185
 30
0.0
 10
49.937514
 20
70.945608
 30
0.0
 10
49.717412
 20
71.254813
 30
0.0
  0
SPLINE
  5
3a2
100
AcDbEntity
  8
0
 62
7
100
AcDbSpline
 70
8
 71
3
 72
8
 73
4
 74
0
 40
0
 40
0
 40
0
 40
0
 40
1
 40
1
 40
1
 40
1
 10
49.717412
 20
71.254813
 30
0.0
 10
49.180192
 20
72.009479
 30
0.0
 10
49.096036
 20
73.032067
 30
0.0
 10
49.503986
 20
73.848455
 30
0.0
  0
SPLINE
  5
3a3
100
AcDbEntity
  8
0
 62
7
100
AcDbSpline
 70
8
 71
3
 72
8
 73
4
 74
0
 40
0
 40
0
 40
0
 40
0
 40
1
 40
1
 40
1
 40
1
 10
49.503986
 20
73.848455
 30
0.0
 10
49.930875
 20
74.702731
 30
0.0
 10
50.688899
 20
75.162407
 30
0.0
 10
51.666645
 20
75.158968
 30
0.0
  0
SPLINE
  5
3a4
100
AcDbEntity
  8
0
 62
7
100
AcDbSpline
 70
8
 71
3
 72
8
 73
4
 74
0
 40
0
 40
0
 40
0
 40
0
 40
1
 40
1
 40
1
 40
1
 10
51.666645
 20
75.158968
 30
0.0
 10
52.310157
 20
75.156587
 30
0.0
 10
52.755387
 20
74.969849
 30
0.0
 10
53.216421
 20
74.508879
 30
0.0
  0
SPLINE
  5
3a5
100
AcDbEntity
  8
0
 62
7
100
AcDbSpline
 70
8
 71
3
 72
8
 73
4
 74
0
 40
0
 40
0
 40
0
 40
0
 40
1
 40
1
 40
1
 40
1
 10
53.216421
 20
74.508879
 30
0.0
 10
53.981167
 20
73.744209
 30
0.0
 10
54.163513
 20
72.732254
 30
0.0
 10
53.707866
 20
71.780879
 30
0.0
  0
SPLINE
  5
3a6
100
AcDbEntity
  8
0
 62
7
100
AcDbSpline
 70
8
 71
3
 72
8
 73
4
 74
0
 40
0
 40
0
 40
0
 40
0
 40
1
 40
1
 40
1
 40
1
 10
53.707866
 20
71.780879
 30
0.0
 10
53.434287
 20
71.209657
 30
0.0
 10
53.156744
 20
70.915427
 30
0.0
 10
52.584937
 20
70.590254
 30
0.0
  0
SPLINE
  5
3a7
100
AcDbEntity
  8
0
 62
7
100
AcDbSpline
 70
8
 71
3
 72
8
 73
4
 74
0
 40
0
 40
0
 40
0
 40
0
 40
1
 40
1
 40
1
 40
1
 10
52.584937
 20
70.590254
 30
0.0
 10
52.167496
 20
70.352859
 30
0.0
 10
52.240810
 20
70.294794
 30
0.0
 10
52.710511
 20
70.491035
 30
0.0
  0
SPLINE
  5
3a8
100
AcDbEntity
  8
0
 62
7
100
AcDbSpline
 70
8
 71
3
 72
8
 73
4
 74
0
 40
0
 40
0
 40
0
 40
0
 40
1
 40
1
 40
1
 40
1
 10
52.710511
 20
70.491035
 30
0.0
 10
53.233884
 20
70.709716
 30
0.0
 10
53.747456
 20
71.267690
 30
0.0
 10
53.999320
 20
71.891983
 30
0.0
  0
SPLINE
  5
3a9
100
AcDbEntity
  8
0
 62
7
100
AcDbSpline
 70
8
 71
3
 72
8
 73
4
 74
0
 40
0
 40
0
 40
0
 40
0
 40
1
 40
1
 40
1
 40
1
 10
53.999320
 20
71.891983
 30
0.0
 10
54.126590
 20
72.207440
 30
0.0
 10
54.234694
 20
72.600095
 30
0.0
 10
54.239615
 20
72.764798
 30
0.0
  0
SPLINE
  5
3aa
100
AcDbEntity
  8
0
 62
7
100
AcDbSpline
 70
8
 71
3
 72
8
 73
4
 74
0
 40
0
 40
0
 40
0
 40
0
 40
1
 40
1
 40
1
 40
1
 10
54.239615
 20
72.764798
 30
0.0
 10
54.254855
 20
73.274637
 30
0.0
 10
53.878615
 20
74.123584
 30
0.0
 10
53.445349
 20
74.556938
 30
0.0
  0
SPLINE
  5
3ab
100
AcDbEntity
  8
0
 62
7
100
AcDbSpline
 70
8
 71
3
 72
8
 73
4
 74
0
 40
0
 40
0
 40
0
 40
0
 40
1
 40
1
 40
1
 40
1
 10
53.445349
 20
74.556938
 30
0.0
 10
53.049628
 20
74.952738
 30
0.0
 10
52.376332
 20
75.331566
 30
0.0
 10
52.069206
 20
75.331566
 30
0.0
  0
SPLINE
  5
3ac
100
AcDbEntity
  8
0
 62
7
100
AcDbSpline
 70
8
 71
3
 72
8
 73
4
 74
0
 40
0
 40
0
 40
0
 40
0
 40
1
 40
1
 40
1
 40
1
 10
52.069206
 20
75.331566
 30
0.0
 10
52.033509
 20
75.331566
 30
0.0
 10
52.011765
 20
75.332889
 30
0.0
 10
51.988590
 20
75.333683
 30
0.0
  0
LWPOLYLINE
  5
3ad
100
AcDbEntity
  8
0
 62
7
100
AcDbPolyline
 90
2
 70
0
 10
51.454256
 20
75.331566
 30
0.0
 10
51.265638
 20
75.331566
 30
0.0
  0
SPLINE
  5
3ae
100
AcDbEntity
  8
0
 62
7
100
AcDbSpline
 70
8
 71
3
 72
8
 73
4
 74
0
 40
0
 40
0
 40
0
 40
0
 40
1
 40
1
 40
1
 40
1
 10
71.269630
 20
75.128684
 30
0.0
 10
71.662734
 20
75.133076
 30
0.0
 10
72.057157
 20
75.074949
 30
0.0
 10
72.304190
 20
74.952466
 30
0.0
  0
SPLINE
  5
3af
100
AcDbEntity
  8
0
 62
7
100
AcDbSpline
 70
8
 71
3
 72
8
 73
4
 74
0
 40
0
 40
0
 40
0
 40
0
 40
1
 40
1
 40
1
 40
1
 10
72.304190
 20
74.952466
 30
0.0
 10
73.143851
 20
74.536147
 30
0.0
 10
73.634365
 20
73.733739
 30
0.0
 10
73.631242
 20
72.782057
 30
0.0
  0
SPLINE
  5
3b0
100
AcDbEntity
  8
0
 62
7
100
AcDbSpline
 70
8
 71
3
 72
8
 73
4
 74
0
 40
0
 40
0
 40
0
 40
0
 40
1
 40
1
 40
1
 40
1
 10
73.631242
 20
72.782057
 30
0.0
 10
73.628067
 20
71.815068
 30
0.0
 10
73.159961
 20
71.065803
 30
0.0
 10
72.306775
 20
70.661771
 30
0.0
  0
SPLINE
  5
3b1
100
AcDbEntity
  8
0
 62
7
100
AcDbSpline
 70
8
 71
3
 72
8
 73
4
 74
0
 40
0
 40
0
 40
0
 40
0
 40
1
 40
1
 40
1
 40
1
 10
72.306775
 20
70.661771
 30
0.0
 10
71.763088
 20
70.404305
 30
0.0
 10
70.861489
 20
70.389234
 30
0.0
 10
70.322916
 20
70.628698
 30
0.0
  0
SPLINE
  5
3b2
100
AcDbEntity
  8
0
 62
7
100
AcDbSpline
 70
8
 71
3
 72
8
 73
4
 74
0
 40
0
 40
0
 40
0
 40
0
 40
1
 40
1
 40
1
 40
1
 10
70.322916
 20
70.628698
 30
0.0
 10
69.555887
 20
70.969740
 30
0.0
 10
68.927136
 20
71.947535
 30
0.0
 10
68.927136
 20
72.798593
 30
0.0
  0
SPLINE
  5
3b3
100
AcDbEntity
  8
0
 62
7
100
AcDbSpline
 70
8
 71
3
 72
8
 73
4
 74
0
 40
0
 40
0
 40
0
 40
0
 40
1
 40
1
 40
1
 40
1
 10
68.927136
 20
72.798593
 30
0.0
 10
68.927136
 20
73.615703
 30
0.0
 10
69.493940
 20
74.533831
 30
0.0
 10
70.242300
 20
74.929212
 30
0.0
  0
SPLINE
  5
3b4
100
AcDbEntity
  8
0
 62
7
100
AcDbSpline
 70
8
 71
3
 72
8
 73
4
 74
0
 40
0
 40
0
 40
0
 40
0
 40
1
 40
1
 40
1
 40
1
 10
70.242300
 20
74.929212
 30
0.0
 10
70.484452
 20
75.057143
 30
0.0
 10
70.876522
 20
75.124302
 30
0.0
 10
71.269630
 20
75.128684
 30
0.0
  0
LWPOLYLINE
  5
3b5
100
AcDbEntity
  8
0
 62
7
100
AcDbPolyline
 90
3
 70
0
 10
51.988590
 20
75.333683
 30
0.0
 10
51.988061
 20
75.333683
 30
0.0
 10
51.988119
 20
75.335905
 30
0.0
  0
LWPOLYLINE
  5
3b6
100
AcDbEntity
  8
0
 62
7
100
AcDbPolyline
 90
1
 70
1
 10
71.269630
 20
75.128684
 30
0.0
  0
SPLINE
  5
3b7
100
AcDbEntity
  8
0
 62
7
100
AcDbSpline
 70
8
 71
3
 72
8
 73
4
 74
0
 40
0
 40
0
 40
0
 40
0
 40
1
 40
1
 40
1
 40
1
 10
42.944735
 20
69.773345
 30
0.0
 10
42.795949
 20
69.764799
 30
0.0
 10
42.582528
 20
69.643678
 30
0.0
 10
42.549411
 20
69.517030
 30
0.0
  0
SPLINE
  5
3b8
100
AcDbEntity
  8
0
 62
7
100
AcDbSpline
 70
8
 71
3
 72
8
 73
4
 74
0
 40
0
 40
0
 40
0
 40
0
 40
1
 40
1
 40
1
 40
1
 10
42.549411
 20
69.517030
 30
0.0
 10
42.515078
 20
69.385741
 30
0.0
 10
42.433132
 20
69.344947
 30
0.0
 10
42.203177
 20
69.344947
 30
0.0
  0
SPLINE
  5
3b9
100
AcDbEntity
  8
0
 62
7
100
AcDbSpline
 70
8
 71
3
 72
8
 73
4
 74
0
 40
0
 40
0
 40
0
 40
0
 40
1
 40
1
 40
1
 40
1
 10
42.203177
 20
69.344947
 30
0.0
 10
41.719119
 20
69.344947
 30
0.0
 10
41.633188
 20
69.188396
 30
0.0
 10
41.633188
 20
68.309352
 30
0.0
  0
SPLINE
  5
3ba
100
AcDbEntity
  8
0
 62
7
100
AcDbSpline
 70
8
 71
3
 72
8
 73
4
 74
0
 40
0
 40
0
 40
0
 40
0
 40
1
 40
1
 40
1
 40
1
 10
41.633188
 20
68.309352
 30
0.0
 10
41.633188
 20
68.006881
 30
0.0
 10
41.627790
 20
67.838098
 30
0.0
 10
41.611492
 20
67.720242
 30
0.0
  0
SPLINE
  5
3bb
100
AcDbEntity
  8
0
 62
7
100
AcDbSpline
 70
8
 71
3
 72
8
 73
4
 74
0
 40
0
 40
0
 40
0
 40
0
 40
1
 40
1
 40
1
 40
1
 10
41.611492
 20
67.720242
 30
0.0
 10
41.619165
 20
67.701747
 30
0.0
 10
41.622657
 20
67.681023
 30
0.0
 10
41.616148
 20
67.660295
 30
0.0
  0
SPLINE
  5
3bc
100
AcDbEntity
  8
0
 62
7
100
AcDbSpline
 70
8
 71
3
 72
8
 73
4
 74
0
 40
0
 40
0
 40
0
 40
0
 40
1
 40
1
 40
1
 40
1
 10
41.616148
 20
67.660295
 30
0.0
 10
41.613503
 20
67.652040
 30
0.0
 10
41.608052
 20
67.644843
 30
0.0
 10
41.603237
 20
67.637567
 30
0.0
  0
SPLINE
  5
3bd
100
AcDbEntity
  8
0
 62
7
100
AcDbSpline
 70
8
 71
3
 72
8
 73
4
 74
0
 40
0
 40
0
 40
0
 40
0
 40
1
 40
1
 40
1
 40
1
 10
41.603237
 20
67.637567
 30
0.0
 10
41.603361
 20
67.627037
 30
0.0
 10
41.603766
 20
67.615898
 30
0.0
 10
41.604295
 20
67.609662
 30
0.0
  0
SPLINE
  5
3be
100
AcDbEntity
  8
0
 62
7
100
AcDbSpline
 70
8
 71
3
 72
8
 73
4
 74
0
 40
0
 40
0
 40
0
 40
0
 40
1
 40
1
 40
1
 40
1
 10
41.604295
 20
67.609662
 30
0.0
 10
41.605883
 20
67.588257
 30
0.0
 10
41.608079
 20
67.566961
 30
0.0
 10
41.604295
 20
67.545582
 30
0.0
  0
SPLINE
  5
3bf
100
AcDbEntity
  8
0
 62
7
100
AcDbSpline
 70
8
 71
3
 72
8
 73
4
 74
0
 40
0
 40
0
 40
0
 40
0
 40
1
 40
1
 40
1
 40
1
 10
41.604295
 20
67.545582
 30
0.0
 10
41.602708
 20
67.536930
 30
0.0
 10
41.600432
 20
67.528543
 30
0.0
 10
41.597575
 20
67.520262
 30
0.0
  0
SPLINE
  5
3c0
100
AcDbEntity
  8
0
 62
7
100
AcDbSpline
 70
8
 71
3
 72
8
 73
4
 74
0
 40
0
 40
0
 40
0
 40
0
 40
1
 40
1
 40
1
 40
1
 10
41.597575
 20
67.520262
 30
0.0
 10
41.596781
 20
67.517616
 30
0.0
 10
41.595193
 20
67.517060
 30
0.0
 10
41.593950
 20
67.513012
 30
0.0
  0
SPLINE
  5
3c1
100
AcDbEntity
  8
0
 62
7
100
AcDbSpline
 70
8
 71
3
 72
8
 73
4
 74
0
 40
0
 40
0
 40
0
 40
0
 40
1
 40
1
 40
1
 40
1
 10
41.593950
 20
67.513012
 30
0.0
 10
41.596067
 20
67.490999
 30
0.0
 10
41.594214
 20
67.471671
 30
0.0
 10
41.577916
 20
67.446866
 30
0.0
  0
SPLINE
  5
3c2
100
AcDbEntity
  8
0
 62
7
100
AcDbSpline
 70
8
 71
3
 72
8
 73
4
 74
0
 40
0
 40
0
 40
0
 40
0
 40
1
 40
1
 40
1
 40
1
 10
41.577916
 20
67.446866
 30
0.0
 10
41.575270
 20
67.442871
 30
0.0
 10
41.571196
 20
67.440278
 30
0.0
 10
41.567571
 20
67.437050
 30
0.0
  0
LWPOLYLINE
  5
3c3
100
AcDbEntity
  8
0
 62
7
100
AcDbPolyline
 90
11
 70
0
 10
42.944735
 20
69.778637
 30
0.0
 10
42.944735
 20
69.778107
 30
0.0
 10
42.944735
 20
69.777578
 30
0.0
 10
42.944735
 20
69.777049
 30
0.0
 10
42.944735
 20
69.776520
 30
0.0
 10
42.944735
 20
69.775991
 30
0.0
 10
42.944735
 20
69.775462
 30
0.0
 10
42.944735
 20
69.774932
 30
0.0
 10
42.944735
 20
69.774403
 30
0.0
 10
42.944735
 20
69.773874
 30
0.0
 10
42.944735
 20
69.773345
 30
0.0
  0
SPLINE
  5
3c4
100
AcDbEntity
  8
0
 62
7
100
AcDbSpline
 70
8
 71
3
 72
8
 73
4
 74
0
 40
0
 40
0
 40
0
 40
0
 40
1
 40
1
 40
1
 40
1
 10
41.567571
 20
67.336797
 30
0.0
 10
41.630118
 20
67.254715
 30
0.0
 10
41.633201
 20
67.009637
 30
0.0
 10
41.633201
 20
66.236604
 30
0.0
  0
SPLINE
  5
3c5
100
AcDbEntity
  8
0
 62
7
100
AcDbSpline
 70
8
 71
3
 72
8
 73
4
 74
0
 40
0
 40
0
 40
0
 40
0
 40
1
 40
1
 40
1
 40
1
 10
41.633201
 20
66.236604
 30
0.0
 10
41.633201
 20
64.704193
 30
0.0
 10
41.740309
 20
64.193846
 30
0.0
 10
42.171152
 20
63.673453
 30
0.0
  0
SPLINE
  5
3c6
100
AcDbEntity
  8
0
 62
7
100
AcDbSpline
 70
8
 71
3
 72
8
 73
4
 74
0
 40
0
 40
0
 40
0
 40
0
 40
1
 40
1
 40
1
 40
1
 10
42.171152
 20
63.673453
 30
0.0
 10
42.536502
 20
63.232162
 30
0.0
 10
42.810824
 20
63.055905
 30
0.0
 10
43.319920
 20
62.936033
 30
0.0
  0
SPLINE
  5
3c7
100
AcDbEntity
  8
0
 62
7
100
AcDbSpline
 70
8
 71
3
 72
8
 73
4
 74
0
 40
0
 40
0
 40
0
 40
0
 40
1
 40
1
 40
1
 40
1
 10
43.319920
 20
62.936033
 30
0.0
 10
43.497921
 20
62.894109
 30
0.0
 10
44.611197
 20
62.855501
 30
0.0
 10
45.793671
 20
62.850765
 30
0.0
  0
SPLINE
  5
3c8
100
AcDbEntity
  8
0
 62
7
100
AcDbSpline
 70
8
 71
3
 72
8
 73
4
 74
0
 40
0
 40
0
 40
0
 40
0
 40
1
 40
1
 40
1
 40
1
 10
45.793671
 20
62.850765
 30
0.0
 10
48.149047
 20
62.841346
 30
0.0
 10
48.202480
 20
62.853147
 30
0.0
 10
48.150632
 20
63.347375
 30
0.0
  0
SPLINE
  5
3c9
100
AcDbEntity
  8
0
 62
7
100
AcDbSpline
 70
8
 71
3
 72
8
 73
4
 74
0
 40
0
 40
0
 40
0
 40
0
 40
1
 40
1
 40
1
 40
1
 10
48.150632
 20
63.347375
 30
0.0
 10
48.132905
 20
63.516349
 30
0.0
 10
48.193150
 20
63.623060
 30
0.0
 10
48.387825
 20
63.766988
 30
0.0
  0
SPLINE
  5
3ca
100
AcDbEntity
  8
0
 62
7
100
AcDbSpline
 70
8
 71
3
 72
8
 73
4
 74
0
 40
0
 40
0
 40
0
 40
0
 40
1
 40
1
 40
1
 40
1
 10
48.387825
 20
63.766988
 30
0.0
 10
48.598616
 20
63.922833
 30
0.0
 10
48.648792
 20
64.021790
 30
0.0
 10
48.648792
 20
64.282204
 30
0.0
  0
SPLINE
  5
3cb
100
AcDbEntity
  8
0
 62
7
100
AcDbSpline
 70
8
 71
3
 72
8
 73
4
 74
0
 40
0
 40
0
 40
0
 40
0
 40
1
 40
1
 40
1
 40
1
 10
48.648792
 20
64.282204
 30
0.0
 10
48.648792
 20
64.459617
 30
0.0
 10
48.602942
 20
64.651030
 30
0.0
 10
48.546472
 20
64.707500
 30
0.0
  0
SPLINE
  5
3cc
100
AcDbEntity
  8
0
 62
7
100
AcDbSpline
 70
8
 71
3
 72
8
 73
4
 74
0
 40
0
 40
0
 40
0
 40
0
 40
1
 40
1
 40
1
 40
1
 10
48.546472
 20
64.707500
 30
0.0
 10
48.477744
 20
64.776228
 30
0.0
 10
48.095961
 20
64.810336
 30
0.0
 10
47.391505
 20
64.810336
 30
0.0
  0
LWPOLYLINE
  5
3cd
100
AcDbEntity
  8
0
 62
7
100
AcDbPolyline
 90
3
 70
0
 10
41.567571
 20
67.437050
 30
0.0
 10
41.567571
 20
67.361086
 30
0.0
 10
41.567571
 20
67.336797
 30
0.0
  0
SPLINE
  5
3ce
100
AcDbEntity
  8
0
 62
7
100
AcDbSpline
 70
8
 71
3
 72
8
 73
4
 74
0
 40
0
 40
0
 40
0
 40
0
 40
1
 40
1
 40
1
 40
1
 10
47.336213
 20
67.644272
 30
0.0
 10
47.884839
 20
68.199754
 30
0.0
 10
48.458996
 20
68.713395
 30
0.0
 10
48.611586
 20
68.785803
 30
0.0
  0
SPLINE
  5
3cf
100
AcDbEntity
  8
0
 62
7
100
AcDbSpline
 70
8
 71
3
 72
8
 73
4
 74
0
 40
0
 40
0
 40
0
 40
0
 40
1
 40
1
 40
1
 40
1
 10
48.611586
 20
68.785803
 30
0.0
 10
48.962077
 20
68.952123
 30
0.0
 10
50.651262
 20
68.971726
 30
0.0
 10
51.131327
 20
68.848332
 30
0.0
  0
SPLINE
  5
3d0
100
AcDbEntity
  8
0
 62
7
100
AcDbSpline
 70
8
 71
3
 72
8
 73
4
 74
0
 40
0
 40
0
 40
0
 40
0
 40
1
 40
1
 40
1
 40
1
 10
51.131327
 20
68.848332
 30
0.0
 10
51.136222
 20
68.855079
 30
0.0
 10
51.137677
 20
68.858440
 30
0.0
 10
51.149425
 20
68.864340
 30
0.0
  0
SPLINE
  5
3d1
100
AcDbEntity
  8
0
 62
7
100
AcDbSpline
 70
8
 71
3
 72
8
 73
4
 74
0
 40
0
 40
0
 40
0
 40
0
 40
1
 40
1
 40
1
 40
1
 10
51.149425
 20
68.864340
 30
0.0
 10
51.153473
 20
68.866456
 30
0.0
 10
51.135957
 20
68.868891
 30
0.0
 10
51.157177
 20
68.867435
 30
0.0
  0
SPLINE
  5
3d2
100
AcDbEntity
  8
0
 62
7
100
AcDbSpline
 70
8
 71
3
 72
8
 73
4
 74
0
 40
0
 40
0
 40
0
 40
0
 40
1
 40
1
 40
1
 40
1
 10
51.157177
 20
68.867435
 30
0.0
 10
51.167628
 20
68.873732
 30
0.0
 10
51.178502
 20
68.872251
 30
0.0
 10
51.190766
 20
68.872092
 30
0.0
  0
SPLINE
  5
3d3
100
AcDbEntity
  8
0
 62
7
100
AcDbSpline
 70
8
 71
3
 72
8
 73
4
 74
0
 40
0
 40
0
 40
0
 40
0
 40
1
 40
1
 40
1
 40
1
 10
51.190766
 20
68.872092
 30
0.0
 10
51.200820
 20
68.872621
 30
0.0
 10
51.211192
 20
68.872886
 30
0.0
 10
51.221256
 20
68.872621
 30
0.0
  0
SPLINE
  5
3d4
100
AcDbEntity
  8
0
 62
7
100
AcDbSpline
 70
8
 71
3
 72
8
 73
4
 74
0
 40
0
 40
0
 40
0
 40
0
 40
1
 40
1
 40
1
 40
1
 10
51.221256
 20
68.872621
 30
0.0
 10
51.222579
 20
68.872608
 30
0.0
 10
51.223638
 20
68.872629
 30
0.0
 10
51.224881
 20
68.872621
 30
0.0
  0
SPLINE
  5
3d5
100
AcDbEntity
  8
0
 62
7
100
AcDbSpline
 70
8
 71
3
 72
8
 73
4
 74
0
 40
0
 40
0
 40
0
 40
0
 40
1
 40
1
 40
1
 40
1
 10
51.224881
 20
68.872621
 30
0.0
 10
51.227818
 20
68.872608
 30
0.0
 10
51.231972
 20
68.872608
 30
0.0
 10
51.234697
 20
68.872621
 30
0.0
  0
SPLINE
  5
3d6
100
AcDbEntity
  8
0
 62
7
100
AcDbSpline
 70
8
 71
3
 72
8
 73
4
 74
0
 40
0
 40
0
 40
0
 40
0
 40
1
 40
1
 40
1
 40
1
 10
51.234697
 20
68.872621
 30
0.0
 10
51.236814
 20
68.874209
 30
0.0
 10
51.238904
 20
68.875426
 30
0.0
 10
51.241418
 20
68.876246
 30
0.0
  0
SPLINE
  5
3d7
100
AcDbEntity
  8
0
 62
7
100
AcDbSpline
 70
8
 71
3
 72
8
 73
4
 74
0
 40
0
 40
0
 40
0
 40
0
 40
1
 40
1
 40
1
 40
1
 10
51.241418
 20
68.876246
 30
0.0
 10
51.252292
 20
68.879791
 30
0.0
 10
51.267029
 20
68.876196
 30
0.0
 10
51.278626
 20
68.876246
 30
0.0
  0
SPLINE
  5
3d8
100
AcDbEntity
  8
0
 62
7
100
AcDbSpline
 70
8
 71
3
 72
8
 73
4
 74
0
 40
0
 40
0
 40
0
 40
0
 40
1
 40
1
 40
1
 40
1
 10
51.278626
 20
68.876246
 30
0.0
 10
51.279684
 20
68.876286
 30
0.0
 10
51.280743
 20
68.876775
 30
0.0
 10
51.281722
 20
68.876775
 30
0.0
  0
SPLINE
  5
3d9
100
AcDbEntity
  8
0
 62
7
100
AcDbSpline
 70
8
 71
3
 72
8
 73
4
 74
0
 40
0
 40
0
 40
0
 40
0
 40
1
 40
1
 40
1
 40
1
 10
51.281722
 20
68.876775
 30
0.0
 10
51.286749
 20
68.876995
 30
0.0
 10
51.289236
 20
68.875188
 30
0.0
 10
51.293099
 20
68.874129
 30
0.0
  0
SPLINE
  5
3da
100
AcDbEntity
  8
0
 62
7
100
AcDbSpline
 70
8
 71
3
 72
8
 73
4
 74
0
 40
0
 40
0
 40
0
 40
0
 40
1
 40
1
 40
1
 40
1
 10
51.293099
 20
68.874129
 30
0.0
 10
51.294686
 20
68.874362
 30
0.0
 10
51.296168
 20
68.874923
 30
0.0
 10
51.297755
 20
68.875188
 30
0.0
  0
SPLINE
  5
3db
100
AcDbEntity
  8
0
 62
7
100
AcDbSpline
 70
8
 71
3
 72
8
 73
4
 74
0
 40
0
 40
0
 40
0
 40
0
 40
1
 40
1
 40
1
 40
1
 10
51.297755
 20
68.875188
 30
0.0
 10
51.305799
 20
68.877040
 30
0.0
 10
51.310905
 20
68.877834
 30
0.0
 10
51.319451
 20
68.877834
 30
0.0
  0
SPLINE
  5
3dc
100
AcDbEntity
  8
0
 62
7
100
AcDbSpline
 70
8
 71
3
 72
8
 73
4
 74
0
 40
0
 40
0
 40
0
 40
0
 40
1
 40
1
 40
1
 40
1
 10
51.319451
 20
68.877834
 30
0.0
 10
51.333342
 20
68.878363
 30
0.0
 10
51.341888
 20
68.871748
 30
0.0
 10
51.349942
 20
68.862858
 30
0.0
  0
SPLINE
  5
3dd
100
AcDbEntity
  8
0
 62
7
100
AcDbSpline
 70
8
 71
3
 72
8
 73
4
 74
0
 40
0
 40
0
 40
0
 40
0
 40
1
 40
1
 40
1
 40
1
 10
51.349942
 20
68.862858
 30
0.0
 10
51.350471
 20
68.862885
 30
0.0
 10
51.350735
 20
68.863387
 30
0.0
 10
51.351000
 20
68.863387
 30
0.0
  0
SPLINE
  5
3de
100
AcDbEntity
  8
0
 62
7
100
AcDbSpline
 70
8
 71
3
 72
8
 73
4
 74
0
 40
0
 40
0
 40
0
 40
0
 40
1
 40
1
 40
1
 40
1
 10
51.351000
 20
68.863387
 30
0.0
 10
51.359334
 20
68.864975
 30
0.0
 10
51.367351
 20
68.865504
 30
0.0
 10
51.375792
 20
68.864975
 30
0.0
  0
SPLINE
  5
3df
100
AcDbEntity
  8
0
 62
7
100
AcDbSpline
 70
8
 71
3
 72
8
 73
4
 74
0
 40
0
 40
0
 40
0
 40
0
 40
1
 40
1
 40
1
 40
1
 10
51.375792
 20
68.864975
 30
0.0
 10
51.385713
 20
68.864446
 30
0.0
 10
51.395318
 20
68.864917
 30
0.0
 10
51.405248
 20
68.864975
 30
0.0
  0
SPLINE
  5
3e0
100
AcDbEntity
  8
0
 62
7
100
AcDbSpline
 70
8
 71
3
 72
8
 73
4
 74
0
 40
0
 40
0
 40
0
 40
0
 40
1
 40
1
 40
1
 40
1
 10
51.405248
 20
68.864975
 30
0.0
 10
51.409058
 20
68.863916
 30
0.0
 10
51.425912
 20
68.866298
 30
0.0
 10
51.429007
 20
68.864975
 30
0.0
  0
SPLINE
  5
3e1
100
AcDbEntity
  8
0
 62
7
100
AcDbSpline
 70
8
 71
3
 72
8
 73
4
 74
0
 40
0
 40
0
 40
0
 40
0
 40
1
 40
1
 40
1
 40
1
 10
51.429007
 20
68.864975
 30
0.0
 10
51.435172
 20
68.862302
 30
0.0
 10
51.441152
 20
68.858254
 30
0.0
 10
51.447105
 20
68.855159
 30
0.0
  0
SPLINE
  5
3e2
100
AcDbEntity
  8
0
 62
7
100
AcDbSpline
 70
8
 71
3
 72
8
 73
4
 74
0
 40
0
 40
0
 40
0
 40
0
 40
1
 40
1
 40
1
 40
1
 10
51.447105
 20
68.855159
 30
0.0
 10
51.442792
 20
68.860106
 30
0.0
 10
51.446046
 20
68.859366
 30
0.0
 10
51.451232
 20
68.859815
 30
0.0
  0
SPLINE
  5
3e3
100
AcDbEntity
  8
0
 62
7
100
AcDbSpline
 70
8
 71
3
 72
8
 73
4
 74
0
 40
0
 40
0
 40
0
 40
0
 40
1
 40
1
 40
1
 40
1
 10
51.451232
 20
68.859815
 30
0.0
 10
51.458826
 20
68.860345
 30
0.0
 10
51.455809
 20
68.861138
 30
0.0
 10
51.463112
 20
68.861403
 30
0.0
  0
SPLINE
  5
3e4
100
AcDbEntity
  8
0
 62
7
100
AcDbSpline
 70
8
 71
3
 72
8
 73
4
 74
0
 40
0
 40
0
 40
0
 40
0
 40
1
 40
1
 40
1
 40
1
 10
51.463112
 20
68.861403
 30
0.0
 10
51.471473
 20
68.861350
 30
0.0
 10
51.480045
 20
68.860345
 30
0.0
 10
51.488433
 20
68.860345
 30
0.0
  0
SPLINE
  5
3e5
100
AcDbEntity
  8
0
 62
7
100
AcDbSpline
 70
8
 71
3
 72
8
 73
4
 74
0
 40
0
 40
0
 40
0
 40
0
 40
1
 40
1
 40
1
 40
1
 10
51.488433
 20
68.860345
 30
0.0
 10
51.497032
 20
68.860432
 30
0.0
 10
51.505683
 20
68.860352
 30
0.0
 10
51.514282
 20
68.860345
 30
0.0
  0
SPLINE
  5
3e6
100
AcDbEntity
  8
0
 62
7
100
AcDbSpline
 70
8
 71
3
 72
8
 73
4
 74
0
 40
0
 40
0
 40
0
 40
0
 40
1
 40
1
 40
1
 40
1
 10
51.514282
 20
68.860345
 30
0.0
 10
51.515076
 20
68.860286
 30
0.0
 10
51.515605
 20
68.860363
 30
0.0
 10
51.516399
 20
68.860345
 30
0.0
  0
SPLINE
  5
3e7
100
AcDbEntity
  8
0
 62
7
100
AcDbSpline
 70
8
 71
3
 72
8
 73
4
 74
0
 40
0
 40
0
 40
0
 40
0
 40
1
 40
1
 40
1
 40
1
 10
51.516399
 20
68.860345
 30
0.0
 10
51.516928
 20
68.860538
 30
0.0
 10
51.517457
 20
68.861138
 30
0.0
 10
51.517987
 20
68.861403
 30
0.0
  0
SPLINE
  5
3e8
100
AcDbEntity
  8
0
 62
7
100
AcDbSpline
 70
8
 71
3
 72
8
 73
4
 74
0
 40
0
 40
0
 40
0
 40
0
 40
1
 40
1
 40
1
 40
1
 10
51.517987
 20
68.861403
 30
0.0
 10
51.519309
 20
68.861932
 30
0.0
 10
51.519839
 20
68.861387
 30
0.0
 10
51.521082
 20
68.861932
 30
0.0
  0
SPLINE
  5
3e9
100
AcDbEntity
  8
0
 62
7
100
AcDbSpline
 70
8
 71
3
 72
8
 73
4
 74
0
 40
0
 40
0
 40
0
 40
0
 40
1
 40
1
 40
1
 40
1
 10
51.521082
 20
68.861932
 30
0.0
 10
51.676694
 20
68.918582
 30
0.0
 10
52.044362
 20
68.922813
 30
0.0
 10
53.081195
 20
68.903789
 30
0.0
  0
LWPOLYLINE
  5
3ea
100
AcDbEntity
  8
0
 62
7
100
AcDbPolyline
 90
5
 70
0
 10
47.391505
 20
64.810336
 30
0.0
 10
46.338855
 20
64.810336
 30
0.0
 10
46.338855
 20
65.722423
 30
0.0
 10
46.338855
 20
66.633998
 30
0.0
 10
47.336213
 20
67.644272
 30
0.0
  0
SPLINE
  5
3eb
100
AcDbEntity
  8
0
 62
7
100
AcDbSpline
 70
8
 71
3
 72
8
 73
4
 74
0
 40
0
 40
0
 40
0
 40
0
 40
1
 40
1
 40
1
 40
1
 10
56.865983
 20
66.179925
 30
0.0
 10
56.872756
 20
65.921102
 30
0.0
 10
56.874661
 20
65.507164
 30
0.0
 10
56.870640
 20
65.260085
 30
0.0
  0
LWPOLYLINE
  5
3ec
100
AcDbEntity
  8
0
 62
7
100
AcDbPolyline
 90
5
 70
0
 10
53.081195
 20
68.903789
 30
0.0
 10
54.638721
 20
68.875368
 30
0.0
 10
55.746147
 20
67.762774
 30
0.0
 10
56.853574
 20
66.650698
 30
0.0
 10
56.865983
 20
66.179925
 30
0.0
  0
SPLINE
  5
3ed
100
AcDbEntity
  8
0
 62
7
100
AcDbSpline
 70
8
 71
3
 72
8
 73
4
 74
0
 40
0
 40
0
 40
0
 40
0
 40
1
 40
1
 40
1
 40
1
 10
55.796815
 20
64.811016
 30
0.0
 10
54.614490
 20
64.811016
 30
0.0
 10
54.553480
 20
64.781470
 30
0.0
 10
54.553480
 20
64.213637
 30
0.0
  0
SPLINE
  5
3ee
100
AcDbEntity
  8
0
 62
7
100
AcDbSpline
 70
8
 71
3
 72
8
 73
4
 74
0
 40
0
 40
0
 40
0
 40
0
 40
1
 40
1
 40
1
 40
1
 10
54.553480
 20
64.213637
 30
0.0
 10
54.553480
 20
64.007384
 30
0.0
 10
54.611400
 20
63.914668
 30
0.0
 10
54.809795
 20
63.801776
 30
0.0
  0
SPLINE
  5
3ef
100
AcDbEntity
  8
0
 62
7
100
AcDbSpline
 70
8
 71
3
 72
8
 73
4
 74
0
 40
0
 40
0
 40
0
 40
0
 40
1
 40
1
 40
1
 40
1
 10
54.809795
 20
63.801776
 30
0.0
 10
54.998803
 20
63.694225
 30
0.0
 10
55.065581
 20
63.593006
 30
0.0
 10
55.066110
 20
63.415235
 30
0.0
  0
SPLINE
  5
3f0
100
AcDbEntity
  8
0
 62
7
100
AcDbSpline
 70
8
 71
3
 72
8
 73
4
 74
0
 40
0
 40
0
 40
0
 40
0
 40
1
 40
1
 40
1
 40
1
 10
55.066110
 20
63.415235
 30
0.0
 10
55.066374
 20
63.282729
 30
0.0
 10
55.106795
 20
63.099566
 30
0.0
 10
55.155510
 20
63.008542
 30
0.0
  0
SPLINE
  5
3f1
100
AcDbEntity
  8
0
 62
7
100
AcDbSpline
 70
8
 71
3
 72
8
 73
4
 74
0
 40
0
 40
0
 40
0
 40
0
 40
1
 40
1
 40
1
 40
1
 10
55.155510
 20
63.008542
 30
0.0
 10
55.241825
 20
62.847252
 30
0.0
 10
55.401821
 20
62.843177
 30
0.0
 10
61.431096
 20
62.843177
 30
0.0
  0
SPLINE
  5
3f2
100
AcDbEntity
  8
0
 62
7
100
AcDbSpline
 70
8
 71
3
 72
8
 73
4
 74
0
 40
0
 40
0
 40
0
 40
0
 40
1
 40
1
 40
1
 40
1
 10
61.431096
 20
62.843177
 30
0.0
 10
67.442281
 20
62.843177
 30
0.0
 10
67.621957
 20
62.848019
 30
0.0
 10
67.767660
 20
63.009060
 30
0.0
  0
SPLINE
  5
3f3
100
AcDbEntity
  8
0
 62
7
100
AcDbSpline
 70
8
 71
3
 72
8
 73
4
 74
0
 40
0
 40
0
 40
0
 40
0
 40
1
 40
1
 40
1
 40
1
 10
67.767660
 20
63.009060
 30
0.0
 10
67.850142
 20
63.100212
 30
0.0
 10
67.892369
 20
63.215962
 30
0.0
 10
67.861193
 20
63.266407
 30
0.0
  0
SPLINE
  5
3f4
100
AcDbEntity
  8
0
 62
7
100
AcDbSpline
 70
8
 71
3
 72
8
 73
4
 74
0
 40
0
 40
0
 40
0
 40
0
 40
1
 40
1
 40
1
 40
1
 10
67.861193
 20
63.266407
 30
0.0
 10
67.766441
 20
63.419717
 30
0.0
 10
67.891946
 20
63.666918
 30
0.0
 10
68.116476
 20
63.769219
 30
0.0
  0
SPLINE
  5
3f5
100
AcDbEntity
  8
0
 62
7
100
AcDbSpline
 70
8
 71
3
 72
8
 73
4
 74
0
 40
0
 40
0
 40
0
 40
0
 40
1
 40
1
 40
1
 40
1
 10
68.116476
 20
63.769219
 30
0.0
 10
68.295623
 20
63.850845
 30
0.0
 10
68.328865
 20
63.924894
 30
0.0
 10
68.328865
 20
64.242577
 30
0.0
  0
SPLINE
  5
3f6
100
AcDbEntity
  8
0
 62
7
100
AcDbSpline
 70
8
 71
3
 72
8
 73
4
 74
0
 40
0
 40
0
 40
0
 40
0
 40
1
 40
1
 40
1
 40
1
 10
68.328865
 20
64.242577
 30
0.0
 10
68.328865
 20
64.449576
 30
0.0
 10
68.278481
 20
64.661066
 30
0.0
 10
68.216727
 20
64.712316
 30
0.0
  0
SPLINE
  5
3f7
100
AcDbEntity
  8
0
 62
7
100
AcDbSpline
 70
8
 71
3
 72
8
 73
4
 74
0
 40
0
 40
0
 40
0
 40
0
 40
1
 40
1
 40
1
 40
1
 10
68.216727
 20
64.712316
 30
0.0
 10
68.153687
 20
64.764634
 30
0.0
 10
67.656427
 20
64.816027
 30
0.0
 10
67.082948
 20
64.829619
 30
0.0
  0
LWPOLYLINE
  5
3f8
100
AcDbEntity
  8
0
 62
7
100
AcDbPolyline
 90
3
 70
0
 10
56.870640
 20
65.260085
 30
0.0
 10
56.863417
 20
64.811016
 30
0.0
 10
55.796815
 20
64.811016
 30
0.0
  0
SPLINE
  5
3f9
100
AcDbEntity
  8
0
 62
7
100
AcDbSpline
 70
8
 71
3
 72
8
 73
4
 74
0
 40
0
 40
0
 40
0
 40
0
 40
1
 40
1
 40
1
 40
1
 10
66.035984
 20
65.580996
 30
0.0
 10
66.022093
 20
65.980995
 30
0.0
 10
66.034925
 20
66.404376
 30
0.0
 10
66.064405
 20
66.522023
 30
0.0
  0
SPLINE
  5
3fa
100
AcDbEntity
  8
0
 62
7
100
AcDbSpline
 70
8
 71
3
 72
8
 73
4
 74
0
 40
0
 40
0
 40
0
 40
0
 40
1
 40
1
 40
1
 40
1
 10
66.064405
 20
66.522023
 30
0.0
 10
66.125643
 20
66.766802
 30
0.0
 10
67.959542
 20
68.598656
 30
0.0
 10
68.340751
 20
68.795786
 30
0.0
  0
SPLINE
  5
3fb
100
AcDbEntity
  8
0
 62
7
100
AcDbSpline
 70
8
 71
3
 72
8
 73
4
 74
0
 40
0
 40
0
 40
0
 40
0
 40
1
 40
1
 40
1
 40
1
 10
68.340751
 20
68.795786
 30
0.0
 10
68.555706
 20
68.906948
 30
0.0
 10
69.020936
 20
68.922516
 30
0.0
 10
71.454772
 20
68.900688
 30
0.0
  0
LWPOLYLINE
  5
3fc
100
AcDbEntity
  8
0
 62
7
100
AcDbPolyline
 90
3
 70
0
 10
67.082948
 20
64.829619
 30
0.0
 10
66.061304
 20
64.853907
 30
0.0
 10
66.035984
 20
65.580996
 30
0.0
  0
SPLINE
  5
3fd
100
AcDbEntity
  8
0
 62
7
100
AcDbSpline
 70
8
 71
3
 72
8
 73
4
 74
0
 40
0
 40
0
 40
0
 40
0
 40
1
 40
1
 40
1
 40
1
 10
75.501540
 20
64.811016
 30
0.0
 10
74.905259
 20
64.787494
 30
0.0
 10
74.398555
 20
64.748754
 30
0.0
 10
74.375510
 20
64.725232
 30
0.0
  0
SPLINE
  5
3fe
100
AcDbEntity
  8
0
 62
7
100
AcDbSpline
 70
8
 71
3
 72
8
 73
4
 74
0
 40
0
 40
0
 40
0
 40
0
 40
1
 40
1
 40
1
 40
1
 10
74.375510
 20
64.725232
 30
0.0
 10
74.352465
 20
64.701711
 30
0.0
 10
74.306872
 20
64.541757
 30
0.0
 10
74.274741
 20
64.369699
 30
0.0
  0
SPLINE
  5
3ff
100
AcDbEntity
  8
0
 62
7
100
AcDbSpline
 70
8
 71
3
 72
8
 73
4
 74
0
 40
0
 40
0
 40
0
 40
0
 40
1
 40
1
 40
1
 40
1
 10
74.274741
 20
64.369699
 30
0.0
 10
74.228346
 20
64.121300
 30
0.0
 10
74.251061
 20
64.022340
 30
0.0
 10
74.384810
 20
63.888591
 30
0.0
  0
SPLINE
  5
400
100
AcDbEntity
  8
0
 62
7
100
AcDbSpline
 70
8
 71
3
 72
8
 73
4
 74
0
 40
0
 40
0
 40
0
 40
0
 40
1
 40
1
 40
1
 40
1
 10
74.384810
 20
63.888591
 30
0.0
 10
74.477457
 20
63.795947
 30
0.0
 10
74.596345
 20
63.705735
 30
0.0
 10
74.648878
 20
63.688087
 30
0.0
  0
SPLINE
  5
401
100
AcDbEntity
  8
0
 62
7
100
AcDbSpline
 70
8
 71
3
 72
8
 73
4
 74
0
 40
0
 40
0
 40
0
 40
0
 40
1
 40
1
 40
1
 40
1
 10
74.648878
 20
63.688087
 30
0.0
 10
74.701408
 20
63.670439
 30
0.0
 10
74.758817
 20
63.531427
 30
0.0
 10
74.776518
 20
63.379062
 30
0.0
  0
SPLINE
  5
402
100
AcDbEntity
  8
0
 62
7
100
AcDbSpline
 70
8
 71
3
 72
8
 73
4
 74
0
 40
0
 40
0
 40
0
 40
0
 40
1
 40
1
 40
1
 40
1
 10
74.776518
 20
63.379062
 30
0.0
 10
74.842103
 20
62.814433
 30
0.0
 10
74.781227
 20
62.826344
 30
0.0
 10
77.412017
 20
62.857647
 30
0.0
  0
LWPOLYLINE
  5
403
100
AcDbEntity
  8
0
 62
7
100
AcDbPolyline
 90
7
 70
0
 10
71.454772
 20
68.900688
 30
0.0
 10
74.316098
 20
68.875368
 30
0.0
 10
75.474166
 20
67.719882
 30
0.0
 10
76.632753
 20
66.564915
 30
0.0
 10
76.608966
 20
65.709152
 30
0.0
 10
76.585710
 20
64.853907
 30
0.0
 10
75.501540
 20
64.811016
 30
0.0
  0
SPLINE
  5
404
100
AcDbEntity
  8
0
 62
7
100
AcDbSpline
 70
8
 71
3
 72
8
 73
4
 74
0
 40
0
 40
0
 40
0
 40
0
 40
1
 40
1
 40
1
 40
1
 10
79.984470
 20
63.090192
 30
0.0
 10
80.161545
 20
63.276028
 30
0.0
 10
80.163226
 20
63.288005
 30
0.0
 10
80.007727
 20
63.223000
 30
0.0
  0
SPLINE
  5
405
100
AcDbEntity
  8
0
 62
7
100
AcDbSpline
 70
8
 71
3
 72
8
 73
4
 74
0
 40
0
 40
0
 40
0
 40
0
 40
1
 40
1
 40
1
 40
1
 10
80.007727
 20
63.223000
 30
0.0
 10
79.913610
 20
63.183672
 30
0.0
 10
78.771861
 20
63.136854
 30
0.0
 10
77.470413
 20
63.118614
 30
0.0
  0
SPLINE
  5
406
100
AcDbEntity
  8
0
 62
7
100
AcDbSpline
 70
8
 71
3
 72
8
 73
4
 74
0
 40
0
 40
0
 40
0
 40
0
 40
1
 40
1
 40
1
 40
1
 10
77.470413
 20
63.118614
 30
0.0
 10
75.136282
 20
63.085882
 30
0.0
 10
75.103419
 20
63.087620
 30
0.0
 10
75.047822
 20
63.262790
 30
0.0
  0
SPLINE
  5
407
100
AcDbEntity
  8
0
 62
7
100
AcDbSpline
 70
8
 71
3
 72
8
 73
4
 74
0
 40
0
 40
0
 40
0
 40
0
 40
1
 40
1
 40
1
 40
1
 10
75.047822
 20
63.262790
 30
0.0
 10
75.016828
 20
63.360461
 30
0.0
 10
75.014810
 20
63.478122
 30
0.0
 10
75.043165
 20
63.524273
 30
0.0
  0
SPLINE
  5
408
100
AcDbEntity
  8
0
 62
7
100
AcDbSpline
 70
8
 71
3
 72
8
 73
4
 74
0
 40
0
 40
0
 40
0
 40
0
 40
1
 40
1
 40
1
 40
1
 10
75.043165
 20
63.524273
 30
0.0
 10
75.119410
 20
63.647637
 30
0.0
 10
74.837348
 20
64.038043
 30
0.0
 10
74.707787
 20
63.988328
 30
0.0
  0
SPLINE
  5
409
100
AcDbEntity
  8
0
 62
7
100
AcDbSpline
 70
8
 71
3
 72
8
 73
4
 74
0
 40
0
 40
0
 40
0
 40
0
 40
1
 40
1
 40
1
 40
1
 10
74.707787
 20
63.988328
 30
0.0
 10
74.571000
 20
63.935838
 30
0.0
 10
74.467490
 20
64.180096
 30
0.0
 10
74.535705
 20
64.395022
 30
0.0
  0
SPLINE
  5
40a
100
AcDbEntity
  8
0
 62
7
100
AcDbSpline
 70
8
 71
3
 72
8
 73
4
 74
0
 40
0
 40
0
 40
0
 40
0
 40
1
 40
1
 40
1
 40
1
 10
74.535705
 20
64.395022
 30
0.0
 10
74.581554
 20
64.539490
 30
0.0
 10
74.690126
 20
64.554230
 30
0.0
 10
75.714442
 20
64.554185
 30
0.0
  0
LWPOLYLINE
  5
40b
100
AcDbEntity
  8
0
 62
7
100
AcDbPolyline
 90
3
 70
0
 10
77.412017
 20
62.857647
 30
0.0
 10
79.789650
 20
62.886069
 30
0.0
 10
79.984470
 20
63.090192
 30
0.0
  0
SPLINE
  5
40c
100
AcDbEntity
  8
0
 62
7
100
AcDbSpline
 70
8
 71
3
 72
8
 73
4
 74
0
 40
0
 40
0
 40
0
 40
0
 40
1
 40
1
 40
1
 40
1
 10
75.779564
 20
67.727634
 30
0.0
 10
75.211194
 20
68.290445
 30
0.0
 10
74.746035
 20
68.786819
 30
0.0
 10
74.746035
 20
68.830926
 30
0.0
  0
SPLINE
  5
40d
100
AcDbEntity
  8
0
 62
7
100
AcDbSpline
 70
8
 71
3
 72
8
 73
4
 74
0
 40
0
 40
0
 40
0
 40
0
 40
1
 40
1
 40
1
 40
1
 10
74.746035
 20
68.830926
 30
0.0
 10
74.746035
 20
69.051083
 30
0.0
 10
74.018457
 20
69.099509
 30
0.0
 10
71.109565
 20
69.073289
 30
0.0
  0
LWPOLYLINE
  5
40e
100
AcDbEntity
  8
0
 62
7
100
AcDbPolyline
 90
5
 70
0
 10
75.714442
 20
64.554185
 30
0.0
 10
76.842022
 20
64.554185
 30
0.0
 10
76.827549
 20
65.629054
 30
0.0
 10
76.812574
 20
66.703924
 30
0.0
 10
75.779564
 20
67.727634
 30
0.0
  0
SPLINE
  5
40f
100
AcDbEntity
  8
0
 62
7
100
AcDbSpline
 70
8
 71
3
 72
8
 73
4
 74
0
 40
0
 40
0
 40
0
 40
0
 40
1
 40
1
 40
1
 40
1
 10
68.072003
 20
64.252417
 30
0.0
 10
68.072003
 20
64.018070
 30
0.0
 10
68.038065
 20
63.955279
 30
0.0
 10
67.910255
 20
63.955279
 30
0.0
  0
SPLINE
  5
410
100
AcDbEntity
  8
0
 62
7
100
AcDbSpline
 70
8
 71
3
 72
8
 73
4
 74
0
 40
0
 40
0
 40
0
 40
0
 40
1
 40
1
 40
1
 40
1
 10
67.910255
 20
63.955279
 30
0.0
 10
67.722189
 20
63.955279
 30
0.0
 10
67.617128
 20
63.762345
 30
0.0
 10
67.607947
 20
63.399241
 30
0.0
  0
LWPOLYLINE
  5
411
100
AcDbEntity
  8
0
 62
7
100
AcDbPolyline
 90
9
 70
0
 10
71.109565
 20
69.073289
 30
0.0
 10
68.114915
 20
69.046415
 30
0.0
 10
66.937210
 20
67.848557
 30
0.0
 10
65.759502
 20
66.650698
 30
0.0
 10
65.782230
 20
65.623887
 30
0.0
 10
65.804957
 20
64.597076
 30
0.0
 10
66.938221
 20
64.573317
 30
0.0
 10
68.072003
 20
64.549557
 30
0.0
 10
68.072003
 20
64.252417
 30
0.0
  0
SPLINE
  5
412
100
AcDbEntity
  8
0
 62
7
100
AcDbSpline
 70
8
 71
3
 72
8
 73
4
 74
0
 40
0
 40
0
 40
0
 40
0
 40
1
 40
1
 40
1
 40
1
 10
61.516339
 20
63.120712
 30
0.0
 10
56.181622
 20
63.101477
 30
0.0
 10
55.417736
 20
63.114679
 30
0.0
 10
55.323954
 20
63.227683
 30
0.0
  0
SPLINE
  5
413
100
AcDbEntity
  8
0
 62
7
100
AcDbSpline
 70
8
 71
3
 72
8
 73
4
 74
0
 40
0
 40
0
 40
0
 40
0
 40
1
 40
1
 40
1
 40
1
 10
55.323954
 20
63.227683
 30
0.0
 10
55.238240
 20
63.330878
 30
0.0
 10
55.237790
 20
63.382554
 30
0.0
 10
55.324483
 20
63.486580
 30
0.0
  0
SPLINE
  5
414
100
AcDbEntity
  8
0
 62
7
100
AcDbSpline
 70
8
 71
3
 72
8
 73
4
 74
0
 40
0
 40
0
 40
0
 40
0
 40
1
 40
1
 40
1
 40
1
 10
55.324483
 20
63.486580
 30
0.0
 10
55.412741
 20
63.592924
 30
0.0
 10
55.404557
 20
63.647061
 30
0.0
 10
55.279010
 20
63.785787
 30
0.0
  0
SPLINE
  5
415
100
AcDbEntity
  8
0
 62
7
100
AcDbSpline
 70
8
 71
3
 72
8
 73
4
 74
0
 40
0
 40
0
 40
0
 40
0
 40
1
 40
1
 40
1
 40
1
 10
55.279010
 20
63.785787
 30
0.0
 10
55.194631
 20
63.879021
 30
0.0
 10
55.074756
 20
63.955287
 30
0.0
 10
55.012357
 20
63.955287
 30
0.0
  0
SPLINE
  5
416
100
AcDbEntity
  8
0
 62
7
100
AcDbSpline
 70
8
 71
3
 72
8
 73
4
 74
0
 40
0
 40
0
 40
0
 40
0
 40
1
 40
1
 40
1
 40
1
 10
55.012357
 20
63.955287
 30
0.0
 10
54.874665
 20
63.955287
 30
0.0
 10
54.757929
 20
64.365418
 30
0.0
 10
54.865079
 20
64.472569
 30
0.0
  0
SPLINE
  5
417
100
AcDbEntity
  8
0
 62
7
100
AcDbSpline
 70
8
 71
3
 72
8
 73
4
 74
0
 40
0
 40
0
 40
0
 40
0
 40
1
 40
1
 40
1
 40
1
 10
54.865079
 20
64.472569
 30
0.0
 10
54.907206
 20
64.514696
 30
0.0
 10
55.437291
 20
64.559564
 30
0.0
 10
56.043303
 20
64.572819
 30
0.0
  0
LWPOLYLINE
  5
418
100
AcDbEntity
  8
0
 62
7
100
AcDbPolyline
 90
3
 70
0
 10
67.607947
 20
63.399241
 30
0.0
 10
67.601756
 20
63.142408
 30
0.0
 10
61.516339
 20
63.120712
 30
0.0
  0
SPLINE
  5
419
100
AcDbEntity
  8
0
 62
7
100
AcDbSpline
 70
8
 71
3
 72
8
 73
4
 74
0
 40
0
 40
0
 40
0
 40
0
 40
1
 40
1
 40
1
 40
1
 10
56.117202
 20
67.713714
 30
0.0
 10
55.551893
 20
68.275555
 30
0.0
 10
55.068563
 20
68.790272
 30
0.0
 10
55.042848
 20
68.857312
 30
0.0
  0
SPLINE
  5
41a
100
AcDbEntity
  8
0
 62
7
100
AcDbSpline
 70
8
 71
3
 72
8
 73
4
 74
0
 40
0
 40
0
 40
0
 40
0
 40
1
 40
1
 40
1
 40
1
 10
55.042848
 20
68.857312
 30
0.0
 10
54.970757
 20
69.045180
 30
0.0
 10
54.572683
 20
69.089339
 30
0.0
 10
52.941683
 20
69.089339
 30
0.0
  0
SPLINE
  5
41b
100
AcDbEntity
  8
0
 62
7
100
AcDbSpline
 70
8
 71
3
 72
8
 73
4
 74
0
 40
0
 40
0
 40
0
 40
0
 40
1
 40
1
 40
1
 40
1
 10
52.941683
 20
69.089339
 30
0.0
 10
51.871523
 20
69.089339
 30
0.0
 10
51.566151
 20
69.097435
 30
0.0
 10
51.540219
 20
69.159104
 30
0.0
  0
SPLINE
  5
41c
100
AcDbEntity
  8
0
 62
7
100
AcDbSpline
 70
8
 71
3
 72
8
 73
4
 74
0
 40
0
 40
0
 40
0
 40
0
 40
1
 40
1
 40
1
 40
1
 10
51.540219
 20
69.159104
 30
0.0
 10
51.536674
 20
69.159205
 30
0.0
 10
51.533234
 20
69.159178
 30
0.0
 10
51.529874
 20
69.159104
 30
0.0
  0
SPLINE
  5
41d
100
AcDbEntity
  8
0
 62
7
100
AcDbSpline
 70
8
 71
3
 72
8
 73
4
 74
0
 40
0
 40
0
 40
0
 40
0
 40
1
 40
1
 40
1
 40
1
 10
51.529874
 20
69.159104
 30
0.0
 10
51.531462
 20
69.149844
 30
0.0
 10
51.534108
 20
69.142409
 30
0.0
 10
51.525747
 20
69.132752
 30
0.0
  0
SPLINE
  5
41e
100
AcDbEntity
  8
0
 62
7
100
AcDbSpline
 70
8
 71
3
 72
8
 73
4
 74
0
 40
0
 40
0
 40
0
 40
0
 40
1
 40
1
 40
1
 40
1
 10
51.525747
 20
69.132752
 30
0.0
 10
51.517068
 20
69.122697
 30
0.0
 10
51.506406
 20
69.124655
 30
0.0
 10
51.495775
 20
69.124999
 30
0.0
  0
SPLINE
  5
41f
100
AcDbEntity
  8
0
 62
7
100
AcDbSpline
 70
8
 71
3
 72
8
 73
4
 74
0
 40
0
 40
0
 40
0
 40
0
 40
1
 40
1
 40
1
 40
1
 10
51.495775
 20
69.124999
 30
0.0
 10
51.483181
 20
69.125158
 30
0.0
 10
51.470534
 20
69.120184
 30
0.0
 10
51.458566
 20
69.127645
 30
0.0
  0
SPLINE
  5
420
100
AcDbEntity
  8
0
 62
7
100
AcDbSpline
 70
8
 71
3
 72
8
 73
4
 74
0
 40
0
 40
0
 40
0
 40
0
 40
1
 40
1
 40
1
 40
1
 10
51.458566
 20
69.127645
 30
0.0
 10
51.457773
 20
69.128174
 30
0.0
 10
51.456979
 20
69.128703
 30
0.0
 10
51.455921
 20
69.129233
 30
0.0
  0
SPLINE
  5
421
100
AcDbEntity
  8
0
 62
7
100
AcDbSpline
 70
8
 71
3
 72
8
 73
4
 74
0
 40
0
 40
0
 40
0
 40
0
 40
1
 40
1
 40
1
 40
1
 10
51.455921
 20
69.129233
 30
0.0
 10
51.450285
 20
69.128703
 30
0.0
 10
51.444570
 20
69.127381
 30
0.0
 10
51.438855
 20
69.128174
 30
0.0
  0
SPLINE
  5
422
100
AcDbEntity
  8
0
 62
7
100
AcDbSpline
 70
8
 71
3
 72
8
 73
4
 74
0
 40
0
 40
0
 40
0
 40
0
 40
1
 40
1
 40
1
 40
1
 10
51.438855
 20
69.128174
 30
0.0
 10
51.434225
 20
69.128703
 30
0.0
 10
51.430018
 20
69.130556
 30
0.0
 10
51.425414
 20
69.131270
 30
0.0
  0
SPLINE
  5
423
100
AcDbEntity
  8
0
 62
7
100
AcDbSpline
 70
8
 71
3
 72
8
 73
4
 74
0
 40
0
 40
0
 40
0
 40
0
 40
1
 40
1
 40
1
 40
1
 10
51.425414
 20
69.131270
 30
0.0
 10
51.422636
 20
69.131799
 30
0.0
 10
51.419805
 20
69.133387
 30
0.0
 10
51.417159
 20
69.134366
 30
0.0
  0
SPLINE
  5
424
100
AcDbEntity
  8
0
 62
7
100
AcDbSpline
 70
8
 71
3
 72
8
 73
4
 74
0
 40
0
 40
0
 40
0
 40
0
 40
1
 40
1
 40
1
 40
1
 10
51.417159
 20
69.134366
 30
0.0
 10
51.416630
 20
69.134588
 30
0.0
 10
51.416365
 20
69.135424
 30
0.0
 10
51.415572
 20
69.135424
 30
0.0
  0
SPLINE
  5
425
100
AcDbEntity
  8
0
 62
7
100
AcDbSpline
 70
8
 71
3
 72
8
 73
4
 74
0
 40
0
 40
0
 40
0
 40
0
 40
1
 40
1
 40
1
 40
1
 10
51.415572
 20
69.135424
 30
0.0
 10
51.405835
 20
69.136482
 30
0.0
 10
51.395357
 20
69.129973
 30
0.0
 10
51.385600
 20
69.132328
 30
0.0
  0
SPLINE
  5
426
100
AcDbEntity
  8
0
 62
7
100
AcDbSpline
 70
8
 71
3
 72
8
 73
4
 74
0
 40
0
 40
0
 40
0
 40
0
 40
1
 40
1
 40
1
 40
1
 10
51.385600
 20
69.132328
 30
0.0
 10
51.364274
 20
69.133387
 30
0.0
 10
51.361708
 20
69.133122
 30
0.0
 10
51.338575
 20
69.135953
 30
0.0
  0
SPLINE
  5
427
100
AcDbEntity
  8
0
 62
7
100
AcDbSpline
 70
8
 71
3
 72
8
 73
4
 74
0
 40
0
 40
0
 40
0
 40
0
 40
1
 40
1
 40
1
 40
1
 10
51.338575
 20
69.135953
 30
0.0
 10
51.325214
 20
69.137805
 30
0.0
 10
51.321668
 20
69.138334
 30
0.0
 10
51.317382
 20
69.139049
 30
0.0
  0
LWPOLYLINE
  5
428
100
AcDbEntity
  8
0
 62
7
100
AcDbPolyline
 90
5
 70
0
 10
56.043303
 20
64.572819
 30
0.0
 10
57.145044
 20
64.597108
 30
0.0
 10
57.145044
 20
65.644588
 30
0.0
 10
57.145044
 20
66.692587
 30
0.0
 10
56.117202
 20
67.713714
 30
0.0
  0
SPLINE
  5
429
100
AcDbEntity
  8
0
 62
7
100
AcDbSpline
 70
8
 71
3
 72
8
 73
4
 74
0
 40
0
 40
0
 40
0
 40
0
 40
1
 40
1
 40
1
 40
1
 10
51.316853
 20
69.139049
 30
0.0
 10
51.303253
 20
69.140372
 30
0.0
 10
51.290016
 20
69.139313
 30
0.0
 10
51.276544
 20
69.136932
 30
0.0
  0
SPLINE
  5
42a
100
AcDbEntity
  8
0
 62
7
100
AcDbSpline
 70
8
 71
3
 72
8
 73
4
 74
0
 40
0
 40
0
 40
0
 40
0
 40
1
 40
1
 40
1
 40
1
 10
51.276544
 20
69.136932
 30
0.0
 10
51.271543
 20
69.136138
 30
0.0
 10
51.266622
 20
69.134286
 30
0.0
 10
51.261568
 20
69.133836
 30
0.0
  0
SPLINE
  5
42b
100
AcDbEntity
  8
0
 62
7
100
AcDbSpline
 70
8
 71
3
 72
8
 73
4
 74
0
 40
0
 40
0
 40
0
 40
0
 40
1
 40
1
 40
1
 40
1
 10
51.261568
 20
69.133836
 30
0.0
 10
51.258367
 20
69.133572
 30
0.0
 10
51.255007
 20
69.133836
 30
0.0
 10
51.251752
 20
69.133836
 30
0.0
  0
SPLINE
  5
42c
100
AcDbEntity
  8
0
 62
7
100
AcDbSpline
 70
8
 71
3
 72
8
 73
4
 74
0
 40
0
 40
0
 40
0
 40
0
 40
1
 40
1
 40
1
 40
1
 10
51.251752
 20
69.133836
 30
0.0
 10
51.241195
 20
69.133834
 30
0.0
 10
51.230771
 20
69.133834
 30
0.0
 10
51.220230
 20
69.133836
 30
0.0
  0
SPLINE
  5
42d
100
AcDbEntity
  8
0
 62
7
100
AcDbSpline
 70
8
 71
3
 72
8
 73
4
 74
0
 40
0
 40
0
 40
0
 40
0
 40
1
 40
1
 40
1
 40
1
 10
51.220230
 20
69.133836
 30
0.0
 10
51.202159
 20
69.133826
 30
0.0
 10
51.184035
 20
69.133739
 30
0.0
 10
51.165969
 20
69.133836
 30
0.0
  0
SPLINE
  5
42e
100
AcDbEntity
  8
0
 62
7
100
AcDbSpline
 70
8
 71
3
 72
8
 73
4
 74
0
 40
0
 40
0
 40
0
 40
0
 40
1
 40
1
 40
1
 40
1
 10
51.165969
 20
69.133836
 30
0.0
 10
51.153057
 20
69.133916
 30
0.0
 10
51.140119
 20
69.133307
 30
0.0
 10
51.127213
 20
69.133307
 30
0.0
  0
SPLINE
  5
42f
100
AcDbEntity
  8
0
 62
7
100
AcDbSpline
 70
8
 71
3
 72
8
 73
4
 74
0
 40
0
 40
0
 40
0
 40
0
 40
1
 40
1
 40
1
 40
1
 10
51.127213
 20
69.133307
 30
0.0
 10
51.126155
 20
69.133405
 30
0.0
 10
51.113693
 20
69.135953
 30
0.0
 10
51.112740
 20
69.135424
 30
0.0
  0
SPLINE
  5
430
100
AcDbEntity
  8
0
 62
7
100
AcDbSpline
 70
8
 71
3
 72
8
 73
4
 74
0
 40
0
 40
0
 40
0
 40
0
 40
1
 40
1
 40
1
 40
1
 10
51.112740
 20
69.135424
 30
0.0
 10
51.110359
 20
69.134630
 30
0.0
 10
51.108269
 20
69.133307
 30
0.0
 10
51.106020
 20
69.132328
 30
0.0
  0
SPLINE
  5
431
100
AcDbEntity
  8
0
 62
7
100
AcDbSpline
 70
8
 71
3
 72
8
 73
4
 74
0
 40
0
 40
0
 40
0
 40
0
 40
1
 40
1
 40
1
 40
1
 10
51.106020
 20
69.132328
 30
0.0
 10
51.101310
 20
69.131005
 30
0.0
 10
51.096389
 20
69.129365
 30
0.0
 10
51.091547
 20
69.128703
 30
0.0
  0
SPLINE
  5
432
100
AcDbEntity
  8
0
 62
7
100
AcDbSpline
 70
8
 71
3
 72
8
 73
4
 74
0
 40
0
 40
0
 40
0
 40
0
 40
1
 40
1
 40
1
 40
1
 10
51.091547
 20
69.128703
 30
0.0
 10
51.088451
 20
69.128174
 30
0.0
 10
51.083186
 20
69.126587
 30
0.0
 10
51.082260
 20
69.129762
 30
0.0
  0
SPLINE
  5
433
100
AcDbEntity
  8
0
 62
7
100
AcDbSpline
 70
8
 71
3
 72
8
 73
4
 74
0
 40
0
 40
0
 40
0
 40
0
 40
1
 40
1
 40
1
 40
1
 10
51.082260
 20
69.129762
 30
0.0
 10
51.080673
 20
69.134524
 30
0.0
 10
51.081466
 20
69.139790
 30
0.0
 10
51.080673
 20
69.144737
 30
0.0
  0
SPLINE
  5
434
100
AcDbEntity
  8
0
 62
7
100
AcDbSpline
 70
8
 71
3
 72
8
 73
4
 74
0
 40
0
 40
0
 40
0
 40
0
 40
1
 40
1
 40
1
 40
1
 10
51.080673
 20
69.144737
 30
0.0
 10
51.073979
 20
69.144729
 30
0.0
 10
51.067232
 20
69.145531
 30
0.0
 10
51.060511
 20
69.145796
 30
0.0
  0
SPLINE
  5
435
100
AcDbEntity
  8
0
 62
7
100
AcDbSpline
 70
8
 71
3
 72
8
 73
4
 74
0
 40
0
 40
0
 40
0
 40
0
 40
1
 40
1
 40
1
 40
1
 10
51.060511
 20
69.145796
 30
0.0
 10
50.866725
 20
69.108259
 30
0.0
 10
50.477409
 20
69.088251
 30
0.0
 10
49.824926
 20
69.075517
 30
0.0
  0
LWPOLYLINE
  5
436
100
AcDbEntity
  8
0
 62
7
100
AcDbPolyline
 90
2
 70
0
 10
51.317382
 20
69.139049
 30
0.0
 10
51.316853
 20
69.139049
 30
0.0
  0
SPLINE
  5
437
100
AcDbEntity
  8
0
 62
7
100
AcDbSpline
 70
8
 71
3
 72
8
 73
4
 74
0
 40
0
 40
0
 40
0
 40
0
 40
1
 40
1
 40
1
 40
1
 10
48.392445
 20
64.294927
 30
0.0
 10
48.392445
 20
64.128716
 30
0.0
 10
48.339462
 20
64.017604
 30
0.0
 10
48.242585
 20
63.981251
 30
0.0
  0
SPLINE
  5
438
100
AcDbEntity
  8
0
 62
7
100
AcDbSpline
 70
8
 71
3
 72
8
 73
4
 74
0
 40
0
 40
0
 40
0
 40
0
 40
1
 40
1
 40
1
 40
1
 10
48.242585
 20
63.981251
 30
0.0
 10
48.009924
 20
63.893951
 30
0.0
 10
47.884355
 20
63.683917
 30
0.0
 10
47.881365
 20
63.376119
 30
0.0
  0
LWPOLYLINE
  5
439
100
AcDbEntity
  8
0
 62
7
100
AcDbPolyline
 90
9
 70
0
 10
49.824926
 20
69.075517
 30
0.0
 10
48.433797
 20
69.048127
 30
0.0
 10
47.255057
 20
67.882307
 30
0.0
 10
46.076836
 20
66.716487
 30
0.0
 10
46.100595
 20
65.658153
 30
0.0
 10
46.124884
 20
64.599304
 30
0.0
 10
47.258666
 20
64.575015
 30
0.0
 10
48.392445
 20
64.551758
 30
0.0
 10
48.392445
 20
64.294927
 30
0.0
  0
SPLINE
  5
43a
100
AcDbEntity
  8
0
 62
7
100
AcDbSpline
 70
8
 71
3
 72
8
 73
4
 74
0
 40
0
 40
0
 40
0
 40
0
 40
1
 40
1
 40
1
 40
1
 10
45.701590
 20
63.106377
 30
0.0
 10
44.504073
 20
63.112753
 30
0.0
 10
43.366240
 20
63.158111
 30
0.0
 10
43.173063
 20
63.207146
 30
0.0
  0
SPLINE
  5
43b
100
AcDbEntity
  8
0
 62
7
100
AcDbSpline
 70
8
 71
3
 72
8
 73
4
 74
0
 40
0
 40
0
 40
0
 40
0
 40
1
 40
1
 40
1
 40
1
 10
43.173063
 20
63.207146
 30
0.0
 10
42.701895
 20
63.326740
 30
0.0
 10
42.070065
 20
63.907562
 30
0.0
 10
41.983988
 20
64.300103
 30
0.0
  0
SPLINE
  5
43c
100
AcDbEntity
  8
0
 62
7
100
AcDbSpline
 70
8
 71
3
 72
8
 73
4
 74
0
 40
0
 40
0
 40
0
 40
0
 40
1
 40
1
 40
1
 40
1
 10
41.983988
 20
64.300103
 30
0.0
 10
41.947872
 20
64.464811
 30
0.0
 10
41.909079
 20
65.205853
 30
0.0
 10
41.898205
 20
65.947031
 30
0.0
  0
LWPOLYLINE
  5
43d
100
AcDbEntity
  8
0
 62
7
100
AcDbPolyline
 90
3
 70
0
 10
47.881365
 20
63.376119
 30
0.0
 10
47.878720
 20
63.095000
 30
0.0
 10
45.701590
 20
63.106377
 30
0.0
  0
SPLINE
  5
43e
100
AcDbEntity
  8
0
 62
7
100
AcDbSpline
 70
8
 71
3
 72
8
 73
4
 74
0
 40
0
 40
0
 40
0
 40
0
 40
1
 40
1
 40
1
 40
1
 10
41.879605
 20
67.212070
 30
0.0
 10
41.870133
 20
67.215615
 30
0.0
 10
41.865952
 20
67.225114
 30
0.0
 10
41.867725
 20
67.242560
 30
0.0
  0
SPLINE
  5
43f
100
AcDbEntity
  8
0
 62
7
100
AcDbSpline
 70
8
 71
3
 72
8
 73
4
 74
0
 40
0
 40
0
 40
0
 40
0
 40
1
 40
1
 40
1
 40
1
 10
41.867725
 20
67.242560
 30
0.0
 10
41.867196
 20
67.242825
 30
0.0
 10
41.867196
 20
67.245206
 30
0.0
 10
41.866667
 20
67.245656
 30
0.0
  0
SPLINE
  5
440
100
AcDbEntity
  8
0
 62
7
100
AcDbSpline
 70
8
 71
3
 72
8
 73
4
 74
0
 40
0
 40
0
 40
0
 40
0
 40
1
 40
1
 40
1
 40
1
 10
41.866667
 20
67.245656
 30
0.0
 10
41.858015
 20
67.250260
 30
0.0
 10
41.867725
 20
67.265315
 30
0.0
 10
41.868254
 20
67.275112
 30
0.0
  0
SPLINE
  5
441
100
AcDbEntity
  8
0
 62
7
100
AcDbSpline
 70
8
 71
3
 72
8
 73
4
 74
0
 40
0
 40
0
 40
0
 40
0
 40
1
 40
1
 40
1
 40
1
 10
41.868254
 20
67.275112
 30
0.0
 10
41.869048
 20
67.297178
 30
0.0
 10
41.869312
 20
67.296199
 30
0.0
 10
41.869312
 20
67.316972
 30
0.0
  0
SPLINE
  5
442
100
AcDbEntity
  8
0
 62
7
100
AcDbSpline
 70
8
 71
3
 72
8
 73
4
 74
0
 40
0
 40
0
 40
0
 40
0
 40
1
 40
1
 40
1
 40
1
 10
41.869312
 20
67.316972
 30
0.0
 10
41.866614
 20
67.371267
 30
0.0
 10
41.870635
 20
67.341472
 30
0.0
 10
41.897734
 20
67.397585
 30
0.0
  0
SPLINE
  5
443
100
AcDbEntity
  8
0
 62
7
100
AcDbSpline
 70
8
 71
3
 72
8
 73
4
 74
0
 40
0
 40
0
 40
0
 40
0
 40
1
 40
1
 40
1
 40
1
 10
41.897734
 20
67.397585
 30
0.0
 10
41.896940
 20
67.399173
 30
0.0
 10
41.897205
 20
67.400575
 30
0.0
 10
41.896676
 20
67.402242
 30
0.0
  0
SPLINE
  5
444
100
AcDbEntity
  8
0
 62
7
100
AcDbSpline
 70
8
 71
3
 72
8
 73
4
 74
0
 40
0
 40
0
 40
0
 40
0
 40
1
 40
1
 40
1
 40
1
 10
41.896676
 20
67.402242
 30
0.0
 10
41.892760
 20
67.399173
 30
0.0
 10
41.889161
 20
67.395839
 30
0.0
 10
41.884796
 20
67.393987
 30
0.0
  0
SPLINE
  5
445
100
AcDbEntity
  8
0
 62
7
100
AcDbSpline
 70
8
 71
3
 72
8
 73
4
 74
0
 40
0
 40
0
 40
0
 40
0
 40
1
 40
1
 40
1
 40
1
 10
41.884796
 20
67.393987
 30
0.0
 10
41.881065
 20
67.407057
 30
0.0
 10
41.885023
 20
67.418249
 30
0.0
 10
41.891516
 20
67.428610
 30
0.0
  0
SPLINE
  5
446
100
AcDbEntity
  8
0
 62
7
100
AcDbSpline
 70
8
 71
3
 72
8
 73
4
 74
0
 40
0
 40
0
 40
0
 40
0
 40
1
 40
1
 40
1
 40
1
 10
41.891516
 20
67.428610
 30
0.0
 10
41.889400
 20
67.448798
 30
0.0
 10
41.890458
 20
67.468403
 30
0.0
 10
41.893633
 20
67.492171
 30
0.0
  0
SPLINE
  5
447
100
AcDbEntity
  8
0
 62
7
100
AcDbSpline
 70
8
 71
3
 72
8
 73
4
 74
0
 40
0
 40
0
 40
0
 40
0
 40
1
 40
1
 40
1
 40
1
 10
41.893633
 20
67.492171
 30
0.0
 10
41.893374
 20
67.512570
 30
0.0
 10
41.891781
 20
67.533218
 30
0.0
 10
41.892045
 20
67.553668
 30
0.0
  0
LWPOLYLINE
  5
448
100
AcDbEntity
  8
0
 62
7
100
AcDbPolyline
 90
2
 70
0
 10
41.898205
 20
65.947031
 30
0.0
 10
41.879605
 20
67.212070
 30
0.0
  0
SPLINE
  5
449
100
AcDbEntity
  8
0
 62
7
100
AcDbSpline
 70
8
 71
3
 72
8
 73
4
 74
0
 40
0
 40
0
 40
0
 40
0
 40
1
 40
1
 40
1
 40
1
 10
41.889400
 20
68.276105
 30
0.0
 10
41.889400
 20
69.053702
 30
0.0
 10
41.938842
 20
69.147788
 30
0.0
 10
42.327097
 20
69.107061
 30
0.0
  0
SPLINE
  5
44a
100
AcDbEntity
  8
0
 62
7
100
AcDbSpline
 70
8
 71
3
 72
8
 73
4
 74
0
 40
0
 40
0
 40
0
 40
0
 40
1
 40
1
 40
1
 40
1
 10
42.327097
 20
69.107061
 30
0.0
 10
42.583949
 20
69.080118
 30
0.0
 10
42.830943
 20
69.285985
 30
0.0
 10
42.830943
 20
69.527706
 30
0.0
  0
SPLINE
  5
44b
100
AcDbEntity
  8
0
 62
7
100
AcDbSpline
 70
8
 71
3
 72
8
 73
4
 74
0
 40
0
 40
0
 40
0
 40
0
 40
1
 40
1
 40
1
 40
1
 10
42.830943
 20
69.527706
 30
0.0
 10
42.830943
 20
69.624678
 30
0.0
 10
42.889768
 20
69.693073
 30
0.0
 10
42.973569
 20
69.693070
 30
0.0
  0
SPLINE
  5
44c
100
AcDbEntity
  8
0
 62
7
100
AcDbSpline
 70
8
 71
3
 72
8
 73
4
 74
0
 40
0
 40
0
 40
0
 40
0
 40
1
 40
1
 40
1
 40
1
 10
42.973569
 20
69.693070
 30
0.0
 10
43.052003
 20
69.693070
 30
0.0
 10
43.092150
 20
69.716592
 30
0.0
 10
43.062969
 20
69.745781
 30
0.0
  0
SPLINE
  5
44d
100
AcDbEntity
  8
0
 62
7
100
AcDbSpline
 70
8
 71
3
 72
8
 73
4
 74
0
 40
0
 40
0
 40
0
 40
0
 40
1
 40
1
 40
1
 40
1
 10
43.062969
 20
69.745781
 30
0.0
 10
43.036908
 20
69.771869
 30
0.0
 10
42.994228
 20
69.781700
 30
0.0
 10
42.944632
 20
69.778854
 30
0.0
  0
LWPOLYLINE
  5
44e
100
AcDbEntity
  8
0
 62
7
100
AcDbPolyline
 90
3
 70
0
 10
41.892045
 20
67.553668
 30
0.0
 10
41.889400
 20
67.553668
 30
0.0
 10
41.889400
 20
68.276105
 30
0.0
  0
SPLINE
  5
44f
100
AcDbEntity
  8
0
 62
7
100
AcDbSpline
 70
8
 71
3
 72
8
 73
4
 74
0
 40
0
 40
0
 40
0
 40
0
 40
1
 40
1
 40
1
 40
1
 10
51.283243
 20
69.209679
 30
0.0
 10
51.281126
 20
69.209679
 30
0.0
 10
51.278745
 20
69.209150
 30
0.0
 10
51.276523
 20
69.209150
 30
0.0
  0
SPLINE
  5
450
100
AcDbEntity
  8
0
 62
7
100
AcDbSpline
 70
8
 71
3
 72
8
 73
4
 74
0
 40
0
 40
0
 40
0
 40
0
 40
1
 40
1
 40
1
 40
1
 10
51.276523
 20
69.209150
 30
0.0
 10
51.278639
 20
69.209208
 30
0.0
 10
51.281020
 20
69.208978
 30
0.0
 10
51.283243
 20
69.209150
 30
0.0
  0
LWPOLYLINE
  5
451
100
AcDbEntity
  8
0
 62
7
100
AcDbPolyline
 90
2
 70
0
 10
42.944632
 20
69.778854
 30
0.0
 10
42.944735
 20
69.778637
 30
0.0
  0
SPLINE
  5
452
100
AcDbEntity
  8
0
 62
7
100
AcDbSpline
 70
8
 71
3
 72
8
 73
4
 74
0
 40
0
 40
0
 40
0
 40
0
 40
1
 40
1
 40
1
 40
1
 10
43.304402
 20
67.530713
 30
0.0
 10
43.304666
 20
67.529390
 30
0.0
 10
43.304447
 20
67.529919
 30
0.0
 10
43.304931
 20
67.528596
 30
0.0
  0
SPLINE
  5
453
100
AcDbEntity
  8
0
 62
7
100
AcDbSpline
 70
8
 71
3
 72
8
 73
4
 74
0
 40
0
 40
0
 40
0
 40
0
 40
1
 40
1
 40
1
 40
1
 10
43.304931
 20
67.528596
 30
0.0
 10
43.305725
 20
67.527802
 30
0.0
 10
43.306518
 20
67.526479
 30
0.0
 10
43.307577
 20
67.525950
 30
0.0
  0
SPLINE
  5
454
100
AcDbEntity
  8
0
 62
7
100
AcDbSpline
 70
8
 71
3
 72
8
 73
4
 74
0
 40
0
 40
0
 40
0
 40
0
 40
1
 40
1
 40
1
 40
1
 10
43.307577
 20
67.525950
 30
0.0
 10
43.309164
 20
67.525157
 30
0.0
 10
43.304111
 20
67.532433
 30
0.0
 10
43.304481
 20
67.530607
 30
0.0
  0
LWPOLYLINE
  5
455
100
AcDbEntity
  8
0
 62
7
100
AcDbPolyline
 90
2
 70
0
 10
51.283243
 20
69.209150
 30
0.0
 10
51.283243
 20
69.209679
 30
0.0
  0
SPLINE
  5
456
100
AcDbEntity
  8
0
 62
7
100
AcDbSpline
 70
8
 71
3
 72
8
 73
4
 74
0
 40
0
 40
0
 40
0
 40
0
 40
1
 40
1
 40
1
 40
1
 10
42.977292
 20
67.505392
 30
0.0
 10
42.976763
 20
67.504598
 30
0.0
 10
42.975705
 20
67.503805
 30
0.0
 10
42.975175
 20
67.502746
 30
0.0
  0
SPLINE
  5
457
100
AcDbEntity
  8
0
 62
7
100
AcDbSpline
 70
8
 71
3
 72
8
 73
4
 74
0
 40
0
 40
0
 40
0
 40
0
 40
1
 40
1
 40
1
 40
1
 10
42.975175
 20
67.502746
 30
0.0
 10
42.975705
 20
67.495894
 30
0.0
 10
42.975250
 20
67.488935
 30
0.0
 10
42.975705
 20
67.482082
 30
0.0
  0
SPLINE
  5
458
100
AcDbEntity
  8
0
 62
7
100
AcDbSpline
 70
8
 71
3
 72
8
 73
4
 74
0
 40
0
 40
0
 40
0
 40
0
 40
1
 40
1
 40
1
 40
1
 10
42.975705
 20
67.482082
 30
0.0
 10
42.975969
 20
67.483934
 30
0.0
 10
42.977028
 20
67.490284
 30
0.0
 10
42.977292
 20
67.492428
 30
0.0
  0
SPLINE
  5
459
100
AcDbEntity
  8
0
 62
7
100
AcDbSpline
 70
8
 71
3
 72
8
 73
4
 74
0
 40
0
 40
0
 40
0
 40
0
 40
1
 40
1
 40
1
 40
1
 10
42.977292
 20
67.492428
 30
0.0
 10
42.977334
 20
67.496740
 30
0.0
 10
42.977244
 20
67.501027
 30
0.0
 10
42.977292
 20
67.505339
 30
0.0
  0
LWPOLYLINE
  5
45a
100
AcDbEntity
  8
0
 62
7
100
AcDbPolyline
 90
2
 70
0
 10
43.304481
 20
67.530607
 30
0.0
 10
43.304402
 20
67.530713
 30
0.0
  0
LWPOLYLINE
  5
45b
100
AcDbEntity
  8
0
 62
7
100
AcDbPolyline
 90
1
 70
1
 10
42.977292
 20
67.505339
 30
0.0
  0
SPLINE
  5
45c
100
AcDbEntity
  8
0
 62
7
100
AcDbSpline
 70
8
 71
3
 72
8
 73
4
 74
0
 40
0
 40
0
 40
0
 40
0
 40
1
 40
1
 40
1
 40
1
 10
41.567558
 20
67.442334
 30
0.0
 10
41.575760
 20
67.454161
 30
0.0
 10
41.585973
 20
67.469112
 30
0.0
 10
41.567558
 20
67.460432
 30
0.0
  0
LWPOLYLINE
  5
45d
100
AcDbEntity
  8
0
 62
7
100
AcDbPolyline
 90
2
 70
0
 10
41.567558
 20
67.460432
 30
0.0
 10
41.567558
 20
67.442334
 30
0.0
  0
SPLINE
  5
45e
100
AcDbEntity
  8
0
 62
7
100
AcDbSpline
 70
8
 71
3
 72
8
 73
4
 74
0
 40
0
 40
0
 40
0
 40
0
 40
1
 40
1
 40
1
 40
1
 10
43.383986
 20
67.381369
 30
0.0
 10
43.384780
 20
67.377850
 30
0.0
 10
43.390230
 20
67.377612
 30
0.0
 10
43.393299
 20
67.375680
 30
0.0
  0
SPLINE
  5
45f
100
AcDbEntity
  8
0
 62
7
100
AcDbSpline
 70
8
 71
3
 72
8
 73
4
 74
0
 40
0
 40
0
 40
0
 40
0
 40
1
 40
1
 40
1
 40
1
 10
43.393299
 20
67.375680
 30
0.0
 10
43.393828
 20
67.375416
 30
0.0
 10
43.394357
 20
67.374886
 30
0.0
 10
43.394887
 20
67.374622
 30
0.0
  0
SPLINE
  5
460
100
AcDbEntity
  8
0
 62
7
100
AcDbSpline
 70
8
 71
3
 72
8
 73
4
 74
0
 40
0
 40
0
 40
0
 40
0
 40
1
 40
1
 40
1
 40
1
 10
43.394887
 20
67.374622
 30
0.0
 10
43.394093
 20
67.376209
 30
0.0
 10
43.393828
 20
67.376739
 30
0.0
 10
43.392770
 20
67.377717
 30
0.0
  0
SPLINE
  5
461
100
AcDbEntity
  8
0
 62
7
100
AcDbSpline
 70
8
 71
3
 72
8
 73
4
 74
0
 40
0
 40
0
 40
0
 40
0
 40
1
 40
1
 40
1
 40
1
 10
43.392770
 20
67.377717
 30
0.0
 10
43.390653
 20
67.380099
 30
0.0
 10
43.383192
 20
67.384411
 30
0.0
 10
43.383986
 20
67.381342
 30
0.0
  0
LWPOLYLINE
  5
462
100
AcDbEntity
  8
0
 62
7
100
AcDbPolyline
 90
1
 70
1
 10
41.567558
 20
67.460432
 30
0.0
  0
LWPOLYLINE
  5
463
100
AcDbEntity
  8
0
 62
7
100
AcDbPolyline
 90
1
 70
1
 10
43.383986
 20
67.381342
 30
0.0
  0
SPLINE
  5
464
100
AcDbEntity
  8
0
 62
7
100
AcDbSpline
 70
8
 71
3
 72
8
 73
4
 74
0
 40
0
 40
0
 40
0
 40
0
 40
1
 40
1
 40
1
 40
1
 10
41.935463
 20
77.164322
 30
0.0
 10
42.787639
 20
76.005365
 30
0.0
 10
42.787639
 20
76.022409
 30
0.0
 10
42.787639
 20
76.022409
 30
0.0
  0
SPLINE
  5
465
100
AcDbEntity
  8
0
 62
7
100
AcDbSpline
 70
8
 71
3
 72
8
 73
4
 74
0
 40
0
 40
0
 40
0
 40
0
 40
1
 40
1
 40
1
 40
1
 10
80.667082
 20
81.896342
 30
0.0
 10
78.835247
 20
82.541099
 30
0.0
 10
78.835247
 20
82.541099
 30
0.0
 10
78.835247
 20
82.541099
 30
0.0
  0
SPLINE
  5
466
100
AcDbEntity
  8
0
 62
7
100
AcDbSpline
 70
8
 71
3
 72
8
 73
4
 74
0
 40
0
 40
0
 40
0
 40
0
 40
1
 40
1
 40
1
 40
1
 10
80.034376
 20
62.981427
 30
0.0
 10
80.841831
 20
63.608106
 30
0.0
 10
81.215428
 20
65.439944
 30
0.0
 10
81.215428
 20
65.439944
 30
0.0
  0
SPLINE
  5
467
100
AcDbEntity
  8
0
 62
7
100
AcDbSpline
 70
8
 71
3
 72
8
 73
4
 74
0
 40
0
 40
0
 40
0
 40
0
 40
1
 40
1
 40
1
 40
1
 10
54.095979
 20
72.784269
 30
0.0
 10
54.095979
 20
71.872741
 30
0.0
 10
53.611958
 20
71.030455
 30
0.0
 10
52.826241
 20
70.574692
 30
0.0
  0
SPLINE
  5
468
100
AcDbEntity
  8
0
 62
7
100
AcDbSpline
 70
8
 71
3
 72
8
 73
4
 74
0
 40
0
 40
0
 40
0
 40
0
 40
1
 40
1
 40
1
 40
1
 10
52.826241
 20
70.574692
 30
0.0
 10
52.040524
 20
70.118928
 30
0.0
 10
51.072480
 20
70.118928
 30
0.0
 10
50.286763
 20
70.574692
 30
0.0
  0
SPLINE
  5
469
100
AcDbEntity
  8
0
 62
7
100
AcDbSpline
 70
8
 71
3
 72
8
 73
4
 74
0
 40
0
 40
0
 40
0
 40
0
 40
1
 40
1
 40
1
 40
1
 10
50.286763
 20
70.574692
 30
0.0
 10
49.501046
 20
71.030455
 30
0.0
 10
49.017025
 20
71.872741
 30
0.0
 10
49.017025
 20
72.784269
 30
0.0
  0
SPLINE
  5
46a
100
AcDbEntity
  8
0
 62
7
100
AcDbSpline
 70
8
 71
3
 72
8
 73
4
 74
0
 40
0
 40
0
 40
0
 40
0
 40
1
 40
1
 40
1
 40
1
 10
49.017025
 20
72.784269
 30
0.0
 10
49.017025
 20
73.695796
 30
0.0
 10
49.501046
 20
74.538082
 30
0.0
 10
50.286763
 20
74.993846
 30
0.0
  0
SPLINE
  5
46b
100
AcDbEntity
  8
0
 62
7
100
AcDbSpline
 70
8
 71
3
 72
8
 73
4
 74
0
 40
0
 40
0
 40
0
 40
0
 40
1
 40
1
 40
1
 40
1
 10
50.286763
 20
74.993846
 30
0.0
 10
51.072480
 20
75.449610
 30
0.0
 10
52.040524
 20
75.449610
 30
0.0
 10
52.826241
 20
74.993846
 30
0.0
  0
SPLINE
  5
46c
100
AcDbEntity
  8
0
 62
7
100
AcDbSpline
 70
8
 71
3
 72
8
 73
4
 74
0
 40
0
 40
0
 40
0
 40
0
 40
1
 40
1
 40
1
 40
1
 10
52.826241
 20
74.993846
 30
0.0
 10
53.611958
 20
74.538082
 30
0.0
 10
54.095979
 20
73.695796
 30
0.0
 10
54.095979
 20
72.784269
 30
0.0
  0
LWPOLYLINE
  5
46d
100
AcDbEntity
  8
0
 62
7
100
AcDbPolyline
 90
2
 70
0
 10
41.833202
 20
79.916843
 30
0.0
 10
41.935463
 20
77.164322
 30
0.0
  0
SPLINE
  5
46e
100
AcDbEntity
  8
0
 62
7
100
AcDbSpline
 70
8
 71
3
 72
8
 73
4
 74
0
 40
0
 40
0
 40
0
 40
0
 40
1
 40
1
 40
1
 40
1
 10
73.788269
 20
72.791391
 30
0.0
 10
73.788269
 20
71.879864
 30
0.0
 10
73.304247
 20
71.037578
 30
0.0
 10
72.518530
 20
70.581814
 30
0.0
  0
SPLINE
  5
46f
100
AcDbEntity
  8
0
 62
7
100
AcDbSpline
 70
8
 71
3
 72
8
 73
4
 74
0
 40
0
 40
0
 40
0
 40
0
 40
1
 40
1
 40
1
 40
1
 10
72.518530
 20
70.581814
 30
0.0
 10
71.732813
 20
70.126051
 30
0.0
 10
70.764770
 20
70.126051
 30
0.0
 10
69.979053
 20
70.581814
 30
0.0
  0
SPLINE
  5
470
100
AcDbEntity
  8
0
 62
7
100
AcDbSpline
 70
8
 71
3
 72
8
 73
4
 74
0
 40
0
 40
0
 40
0
 40
0
 40
1
 40
1
 40
1
 40
1
 10
69.979053
 20
70.581814
 30
0.0
 10
69.193336
 20
71.037578
 30
0.0
 10
68.709314
 20
71.879864
 30
0.0
 10
68.709314
 20
72.791391
 30
0.0
  0
SPLINE
  5
471
100
AcDbEntity
  8
0
 62
7
100
AcDbSpline
 70
8
 71
3
 72
8
 73
4
 74
0
 40
0
 40
0
 40
0
 40
0
 40
1
 40
1
 40
1
 40
1
 10
68.709314
 20
72.791391
 30
0.0
 10
68.709314
 20
74.200491
 30
0.0
 10
69.846277
 20
75.342791
 30
0.0
 10
71.248791
 20
75.342791
 30
0.0
  0
SPLINE
  5
472
100
AcDbEntity
  8
0
 62
7
100
AcDbSpline
 70
8
 71
3
 72
8
 73
4
 74
0
 40
0
 40
0
 40
0
 40
0
 40
1
 40
1
 40
1
 40
1
 10
71.248791
 20
75.342791
 30
0.0
 10
72.651306
 20
75.342791
 30
0.0
 10
73.788268
 20
74.200491
 30
0.0
 10
73.788269
 20
72.791391
 30
0.0
  0
LWPOLYLINE
  5
473
100
AcDbEntity
  8
0
 62
7
100
AcDbPolyline
 90
1
 70
1
 10
54.095979
 20
72.784269
 30
0.0
  0
LWPOLYLINE
  5
474
100
AcDbEntity
  8
0
 62
7
100
AcDbPolyline
 90
1
 70
1
 10
73.788269
 20
72.791391
 30
0.0
  0
ENDSEC
  0
SECTION
  2
OBJECTS
  0
DICTIONARY
  5
C
330
0
100
AcDbDictionary
  3
ACAD_GROUP
350
D
  3
ACAD_MLINESTYLE
350
17
  0
DICTIONARY
  5
D
330
C
100
AcDbDictionary
  0
DICTIONARY
  5
1A
330
C
100
AcDbDictionary
  0
DICTIONARY
  5
17
330
C
100
AcDbDictionary
  3
STANDARD
350
18
  0
DICTIONARY
  5
19
330
C
100
AcDbDictionary
  0
ENDSEC
  0
EOF
