0
SECTION
2
HEADER
9
$INSUNITS
70
1
9
$ACADVER
1
AC1014
9
$HANDSEED
5
FFFF
0
ENDSEC
0
SECTION
2
TABLES
0
TABLE
2
VPORT
5
8
100
AcDbSymbolTable
0
ENDTAB
0
TABLE
2
LTYPE
5
5
100
AcDbSymbolTable
0
LTYPE
5
14
100
AcDbSymbolTableRecord
100
AcDbLinetypeTableRecord
2
BYBLOCK
70
0
0
LTYPE
5
15
100
AcDbSymbolTableRecord
100
AcDbLinetypeTableRecord
2
BYLAYER
70
0
0
ENDTAB
0
TABLE
2
LAYER
5
2
100
AcDbSymbolTable
70
2
0
LAYER
5
50
100
AcDbSymbolTableRecord
100
AcDbLayerTableRecord
2
0
70
0
6
CONTINUOUS
0
ENDTAB
0
TABLE
2
STYLE
5
3
100
AcDbSymbolTable
70
1
0
STYLE
5
11
100
AcDbSymbolTableRecord
100
AcDbTextStyleTableRecord
2
STANDARD
70
0
0
ENDTAB
0
TABLE
2
VIEW
5
6
100
AcDbSymbolTable
70
0
0
ENDTAB
0
TABLE
2
UCS
5
7
100
AcDbSymbolTable
70
0
0
ENDTAB
0
TABLE
2
APPID
5
9
100
AcDbSymbolTable
70
2
0
APPID
5
12
100
AcDbSymbolTableRecord
100
AcDbRegAppTableRecord
2
ACAD
70
0
0
ENDTAB
0
TABLE
2
DIMSTYLE
5
A
100
AcDbSymbolTable
70
1
0
ENDTAB
0
TABLE
2
BLOCK_RECORD
5
1
100
AcDbSymbolTable
70
1
0
BLOCK_RECORD
5
1F
100
AcDbSymbolTableRecord
100
AcDbBlockTableRecord
2
*MODEL_SPACE
0
BLOCK_RECORD
5
1B
100
AcDbSymbolTableRecord
100
AcDbBlockTableRecord
2
*PAPER_SPACE
0
ENDTAB
0
ENDSEC
0
SECTION
2
BLOCKS
0
BLOCK
5
20
100
AcDbEntity
100
AcDbBlockBegin
2
*MODEL_SPACE
0
ENDBLK
5
21
100
AcDbEntity
100
AcDbBlockEnd
0
BLOCK
5
1C
100
AcDbEntity
100
AcDbBlockBegin
2
*PAPER_SPACE
0
ENDBLK
5
1D
100
AcDbEntity
100
AcDbBlockEnd
0
ENDSEC
0
SECTION
2
ENTITIES
0
LWPOLYLINE
5
100
100
AcDbEntity
8
0
100
AcDbPolyline
90
35
70
1
43
0.0
10
17.882869154263748
20
0.56466959203388545
10
15.999999999999998
20
14.999999774722601
10
11.996066506358048
20
14.999999774722601
10
11.996066506358048
20
14.226999774722602
10
8.9960665063580478
20
14.226999774722602
10
8.9960665063580478
20
14.999999774722601
10
5.9960665063580469
20
14.999999774722601
10
5.9960665063580469
20
14.226999774722602
10
2.9960665063580478
20
14.226999774722602
10
2.9960665063580478
20
14.999999774722601
10
1.1064436801707096
20
14.999999774722601
10
0.32442057062356305
20
19.86050870326774
10
-0.43876439586515775
20
19.737717388731099
10
-0.91531542252740872
20
22.699625408739003
10
-0.15213045603868572
20
22.822416723275648
10
-0.62868148270093471
20
25.784324743283552
10
-1.3918664491896457
20
25.661533428746914
10
-1.8684174758518874
20
28.623441448754821
10
-1.1052325093631838
20
28.746232763291459
10
-1.5317432565861051
20
31.397125389978584
10
-2.272220261588084
20
31.277987633313021
42
0.41421356237309886
10
-3.7220118410397167
20
29.272219856088778
10
-2.3864640479207018
20
20.971388469261029
42
-0.086458289304898198
10
-2.6467393169746884
20
0.89194276492005464
10
-2.698637037886003
20
0.61530955038327806
42
0.46963438383459499
10
-2.2072102761672006
20
0.023115527439431471
10
0.81694562910101454
20
0.023115527439431998
42
0.36088269436209852
10
1.7997991525386239
20
0.83872748155175603
10
3.646892373241065
20
10.684387873175011
42
-0.36088269436209774
10
4.6297458966786724
20
11.499999827287329
10
11.121963862843891
20
11.499999827287327
42
-0.37671507298011775
10
12.113564274030111
20
10.629339011355096
10
13.386435342998313
20
0.87066081593222333
42
0.37671507298012075
10
14.378035754184532
20
-1.923220987539641e-15
10
17.387068948670635
20
5.2451481478353848e-16
42
0.45273342266143946
0
LINE
5
101
100
AcDbEntity
8
0
100
AcDbLine
10
0
20
0
30
0
11
-3.4967654318902565e-16
21
0.023115527439431908
31
0
0
LWPOLYLINE
5
102
100
AcDbEntity
8
0
100
AcDbPolyline
90
20
70
1
43
0.0
10
1.29999975970411
20
34.499999767213346
10
1.2999997597041102
20
18.499999767213357
10
2.9960665063580492
20
18.499999767213357
10
2.9960665063580492
20
17.726999767213357
10
5.9960665063580487
20
17.726999767213357
10
5.9960665063580487
20
18.499999767213357
10
8.9960665063580478
20
18.499999767213357
10
8.9960665063580496
20
17.726999767213357
10
11.99606650635805
20
17.726999767213357
10
11.99606650635805
20
18.499999767213357
10
15.999999759704108
20
18.499999767213357
10
15.999999759704108
20
34.499999767213346
10
11.99606650635805
20
34.499999767213346
10
11.99606650635805
20
35.272999767213349
10
8.9960665063580496
20
35.272999767213349
10
8.9960665063580478
20
34.499999767213346
10
5.9960665063580487
20
34.499999767213346
10
5.9960665063580487
20
35.272999767213349
10
2.9960665063580487
20
35.272999767213349
10
2.9960665063580492
20
34.499999767213346
0
LINE
5
103
100
AcDbEntity
8
0
100
AcDbLine
10
2.9960665063580492
20
17.726999767213357
30
0
11
2.9960665063580492
21
18.499999767213357
31
0
0
LINE
5
104
100
AcDbEntity
8
0
100
AcDbLine
10
2.9960665063580487
20
34.499999767213346
30
0
11
2.9960665063580487
21
34.99999951940822
31
0
0
LINE
5
105
100
AcDbEntity
8
0
100
AcDbLine
10
5.9960665063580487
20
34.499999767213346
30
0
11
8.9960665063580478
21
34.499999767213346
31
0
0
LWPOLYLINE
5
106
100
AcDbEntity
8
0
100
AcDbPolyline
90
20
70
1
43
0.0
10
38.999999707139381
20
18.499999481861988
10
38.999999707139381
20
34.499999481861984
10
34.184999707139383
20
34.499999481861984
10
34.184999707139383
20
35.27299948186198
10
31.184999707139383
20
35.27299948186198
10
31.184999707139383
20
34.499999481861984
10
28.184999707139379
20
34.499999481861984
10
28.184999707139379
20
35.27299948186198
10
25.184999707139379
20
35.27299948186198
10
25.184999707139379
20
34.499999481861984
10
22.499999707139381
20
34.499999481861984
10
22.499999707139381
20
18.499999481861988
10
25.184999707139379
20
18.499999481861991
10
25.184999707139379
20
17.726999481861991
10
28.184999707139379
20
17.726999481861991
10
28.184999707139379
20
18.499999481861991
10
31.184999707139383
20
18.499999481861991
10
31.184999707139383
20
17.726999481861991
10
34.184999707139383
20
17.726999481861991
10
34.184999707139383
20
18.499999481861991
0
LINE
5
107
100
AcDbEntity
8
0
100
AcDbLine
10
22.499999707139381
20
34.499999481861984
30
0
11
25.184999707139379
21
34.499999481861984
31
0
0
LINE
5
108
100
AcDbEntity
8
0
100
AcDbLine
10
28.184999707139379
20
34.499999481861984
30
0
11
31.184999707139383
21
34.499999481861984
31
0
0
LWPOLYLINE
5
109
100
AcDbEntity
8
0
100
AcDbPolyline
90
4
70
1
43
0.0
10
16.499999782231846
20
3.4999999474352737
10
14.499999782231848
20
3.4999999474352737
10
14.499999782231848
20
2.7269999474352735
10
16.499999782231846
20
2.7269999474352735
0
LWPOLYLINE
5
110
100
AcDbEntity
8
0
100
AcDbPolyline
90
4
70
1
43
0.0
10
-0.96761053839173072
20
2.7269999474352735
10
1.0323894616082687
20
2.7269999474352735
10
1.0323894616082687
20
3.4999999474352737
10
-0.96761053839173072
20
3.4999999474352737
0
LWPOLYLINE
5
111
100
AcDbEntity
8
0
100
AcDbPolyline
90
12
70
1
43
0.0
10
22.673403555420528
20
1.5018492836062485e-08
10
22.673403555420528
20
16.000000015018493
10
22.423403555420528
20
16.000000015018493
10
22.423403555420528
20
16.773000015018493
10
20.423403555420528
20
16.773000015018493
10
20.423403555420528
20
16.000000015018493
10
20.173403555420528
20
16.000000015018493
10
20.173403555420528
20
1.5018492836062485e-08
10
20.423403555420528
20
1.5018492836062485e-08
10
20.423403555420528
20
-0.77299998498150679
10
22.423403555420528
20
-0.77299998498150679
10
22.423403555420528
20
1.5018492836062485e-08
0
ENDSEC
0
SECTION
2
OBJECTS
0
DICTIONARY
5
C
100
AcDbDictionary
3
ACAD_GROUP
350
D
3
ACAD_MLINESTYLE
350
17
0
DICTIONARY
5
D
100
AcDbDictionary
0
DICTIONARY
5
1A
330
C
100
AcDbDictionary
0
DICTIONARY
5
17
100
AcDbDictionary
0
ENDSEC
0
EOF
