0
SECTION
2
HEADER
9
$INSUNITS
70
4
9
$ACADVER
1
AC1014
9
$HANDSEED
5
FFFF
0
ENDSEC
0
SECTION
2
TABLES
0
TABLE
2
VPORT
5
8
100
AcDbSymbolTable
0
ENDTAB
0
TABLE
2
LTYPE
5
5
100
AcDbSymbolTable
0
LTYPE
5
14
100
AcDbSymbolTableRecord
100
AcDbLinetypeTableRecord
2
BYBLOCK
70
0
0
LTYPE
5
15
100
AcDbSymbolTableRecord
100
AcDbLinetypeTableRecord
2
BYLAYER
70
0
0
ENDTAB
0
TABLE
2
LAYER
5
2
100
AcDbSymbolTable
70
2
0
LAYER
5
50
100
AcDbSymbolTableRecord
100
AcDbLayerTableRecord
2
0
70
0
6
CONTINUOUS
0
ENDTAB
0
TABLE
2
STYLE
5
3
100
AcDbSymbolTable
70
1
0
STYLE
5
11
100
AcDbSymbolTableRecord
100
AcDbTextStyleTableRecord
2
STANDARD
70
0
0
ENDTAB
0
TABLE
2
VIEW
5
6
100
AcDbSymbolTable
70
0
0
ENDTAB
0
TABLE
2
UCS
5
7
100
AcDbSymbolTable
70
0
0
ENDTAB
0
TABLE
2
APPID
5
9
100
AcDbSymbolTable
70
2
0
APPID
5
12
100
AcDbSymbolTableRecord
100
AcDbRegAppTableRecord
2
ACAD
70
0
0
ENDTAB
0
TABLE
2
DIMSTYLE
5
A
100
AcDbSymbolTable
70
1
0
ENDTAB
0
TABLE
2
BLOCK_RECORD
5
1
100
AcDbSymbolTable
70
1
0
BLOCK_RECORD
5
1F
100
AcDbSymbolTableRecord
100
AcDbBlockTableRecord
2
*MODEL_SPACE
0
BLOCK_RECORD
5
1B
100
AcDbSymbolTableRecord
100
AcDbBlockTableRecord
2
*PAPER_SPACE
0
ENDTAB
0
ENDSEC
0
SECTION
2
BLOCKS
0
BLOCK
5
20
100
AcDbEntity
100
AcDbBlockBegin
2
*MODEL_SPACE
0
ENDBLK
5
21
100
AcDbEntity
100
AcDbBlockEnd
0
BLOCK
5
1C
100
AcDbEntity
100
AcDbBlockBegin
2
*PAPER_SPACE
0
ENDBLK
5
1D
100
AcDbEntity
100
AcDbBlockEnd
0
ENDSEC
0
SECTION
2
ENTITIES
0
LWPOLYLINE
5
100
100
AcDbEntity
8
0
100
AcDbPolyline
90
8
70
1
43
0.0
10
34.999999999999993
20
25.000000000000007
42
-0.41421356237309609
10
39.999999999999993
20
20.000000000000007
10
39.999999999999993
20
-19.999999999999993
42
-0.41421356237309553
10
34.999999999999993
20
-24.999999999999993
10
-35
20
-24.999999999999993
42
-0.4142135623730957
10
-40
20
-19.999999999999993
10
-40
20
20.000000000000007
42
-0.41421356237309553
10
-35.000000000000007
20
25.000000000000007
0
CIRCLE
5
101
100
AcDbEntity
8
0
100
AcDbCircle
10
30
20
0
30
0
40
3.9999999999999991
210
0
220
-0
230
1
0
LINE
5
102
100
AcDbEntity
8
0
100
AcDbLine
10
-6.6214413790031301
20
17.618126111512083
30
0
11
-7.2435423580928671
21
17.618126111512083
31
0
0
LINE
5
103
100
AcDbEntity
8
0
100
AcDbLine
10
-7.2435423580928671
20
17.618126111512083
30
0
11
-7.2435423580928671
21
21.634497182850737
31
0
0
LINE
5
104
100
AcDbEntity
8
0
100
AcDbLine
10
-7.2435423580928671
20
21.634497182850737
30
0
11
-6.4768300799651968
21
21.634497182850737
31
0
0
LINE
5
105
100
AcDbEntity
8
0
100
AcDbLine
10
-6.4768300799651968
20
21.634497182850737
30
0
11
-6.4768300799651968
21
18.745001988892454
31
0
0
SPLINE
5
106
100
AcDbEntity
8
0
100
AcDbSpline
70
0
71
3
72
9
73
5
74
0
42
0.000000001
43
0.0000000001
44
0.0000000001
40
0
40
0
40
0
40
0
40
0.057121539939845992
40
0.11552869034648611
40
0.11552869034648611
40
0.11552869034648611
40
0.11552869034648611
10
-6.4768300799651968
20
18.745001988892454
30
0
10
-6.3294777179541466
20
18.867783387205044
30
0
10
-6.0314565963155271
20
19.116109573104477
30
0
10
-5.6694151359211524
20
19.255635831824076
30
0
10
-5.4863799957557546
20
19.326175289635557
30
0
0
LINE
5
107
100
AcDbEntity
8
0
100
AcDbLine
10
-5.4863799957557537
20
19.326175289635557
30
0
11
-5.4863799957557546
21
18.630404608731169
31
0
0
SPLINE
5
108
100
AcDbEntity
8
0
100
AcDbSpline
70
0
71
3
72
9
73
5
74
0
42
0.000000001
43
0.0000000001
44
0.0000000001
40
0
40
0
40
0
40
0
40
0.034388554308952088
40
0.075368252684329506
40
0.075368252684329506
40
0.075368252684329506
40
0.075368252684329506
10
-5.4863799957557546
20
18.630404608731169
30
0
10
-5.5929210161919602
20
18.586872440567383
30
0
10
-5.8264234332270366
20
18.49146443299054
30
0
10
-6.0285779019086814
20
18.34020566713609
30
0
10
-6.1384945956989156
20
18.257962303643126
30
0
0
SPLINE
5
109
100
AcDbEntity
8
0
100
AcDbSpline
70
0
71
3
72
9
73
5
74
0
42
0.000000001
43
0.0000000001
44
0.0000000001
40
0
40
0
40
0
40
0
40
0.041987477124308746
40
0.080996344618720933
40
0.080996344618720933
40
0.080996344618720933
40
0.080996344618720933
10
-6.1384945956989156
20
18.257962303643126
30
0
10
-6.2457220484833709
20
18.165149971605391
30
0
10
-6.452570192576534
20
17.986109454159227
30
0
10
-6.5665481487930215
20
17.737742694831319
30
0
10
-6.6214413790031301
20
17.618126111512083
30
0
0
SPLINE
5
110
100
AcDbEntity
8
0
100
AcDbSpline
70
0
71
3
72
9
73
5
74
0
42
0.000000001
43
0.0000000001
44
0.0000000001
40
0
40
0
40
0
40
0
40
0.042885000546766583
40
0.081196730047502247
40
0.081196730047502247
40
0.081196730047502247
40
0.081196730047502247
10
-12.643270030431353
20
21.705438631062407
30
0
10
-12.497428272816393
20
21.697589474588526
30
0
10
-12.221297372227937
20
21.682728198357108
30
0
10
-11.992634851197717
20
21.528534165142013
30
0
10
-11.884743109159075
20
21.455779510025877
30
0
0
SPLINE
5
111
100
AcDbEntity
8
0
100
AcDbSpline
70
0
71
3
72
9
73
5
74
0
42
0.000000001
43
0.0000000001
44
0.0000000001
40
0
40
0
40
0
40
0
40
0.039155351036779501
40
0.084649866500719373
40
0.084649866500719373
40
0.084649866500719373
40
0.084649866500719373
10
-11.884743109159075
20
21.455779510025877
30
0
10
-11.796186972657578
20
21.356829289299437
30
0
10
-11.604737657706224
20
21.142909026731949
30
0
10
-11.545501523932295
20
20.861027058392825
30
0
10
-11.513665452413164
20
20.709531443600554
30
0
0
LINE
5
112
100
AcDbEntity
8
0
100
AcDbLine
10
-11.513665452413163
20
20.709531443600547
30
0
11
-12.255820765904986
21
20.627675788884062
31
0
0
SPLINE
5
113
100
AcDbEntity
8
0
100
AcDbSpline
70
0
71
3
72
9
73
5
74
0
42
0.000000001
43
0.0000000001
44
0.0000000001
40
0
40
0
40
0
40
0
40
0.020316097377001036
40
0.0369836549807077
40
0.0369836549807077
40
0.0369836549807077
40
0.0369836549807077
10
-12.255820765904986
20
20.627675788884062
30
0
10
-12.26633557276622
20
20.695983236390923
30
0
10
-12.285476846896209
20
20.820330891569341
30
0
10
-12.362838711085104
20
20.918872786993955
30
0
10
-12.397703662328325
20
20.963283019547362
30
0
0
SPLINE
5
114
100
AcDbEntity
8
0
100
AcDbSpline
70
0
71
3
72
9
73
5
74
0
42
0.000000001
43
0.0000000001
44
0.0000000001
40
0
40
0
40
0
40
0
40
0.015618344234682165
40
0.032821106468770463
40
0.032821106468770463
40
0.032821106468770463
40
0.032821106468770463
10
-12.397703662328325
20
20.963283019547362
30
0
10
-12.440361263493816
20
20.995095431965908
30
0
10
-12.530003907330922
20
21.061947497673287
30
0
10
-12.641912904929026
20
21.068820958234582
30
0
10
-12.700568571500384
20
21.07242359447946
30
0
0
SPLINE
5
115
100
AcDbEntity
8
0
100
AcDbSpline
70
0
71
3
72
9
73
5
74
0
42
0.000000001
43
0.0000000001
44
0.0000000001
40
0
40
0
40
0
40
0
40
0.022632230098719393
40
0.047273992089275005
40
0.047273992089275005
40
0.047273992089275005
40
0.047273992089275005
10
-12.700568571500384
20
21.07242359447946
30
0
10
-12.777812150637857
20
21.061876747853599
30
0
10
-12.939157821531284
20
21.039846592549289
30
0
10
-13.047772438026985
20
20.917773528966677
30
0
10
-13.104388251714312
20
20.854142444615263
30
0
0
SPLINE
5
116
100
AcDbEntity
8
0
100
AcDbSpline
70
0
71
3
72
9
73
5
74
0
42
0.000000001
43
0.0000000001
44
0.0000000001
40
0
40
0
40
0
40
0
40
0.036227631581402839
40
0.093763031012053244
40
0.093763031012053244
40
0.093763031012053244
40
0.093763031012053244
10
-13.104388251714312
20
20.854142444615263
30
0
10
-13.155550869249941
20
20.74378415846288
30
0
10
-13.28796808465283
20
20.458158878662509
30
0
10
-13.306091564513839
20
20.14217309612701
30
0
10
-13.317212596349322
20
19.948276119713682
30
0
0
SPLINE
5
117
100
AcDbEntity
8
0
100
AcDbSpline
70
0
71
3
72
9
73
5
74
0
42
0.000000001
43
0.0000000001
44
0.0000000001
40
0
40
0
40
0
40
0
40
0.041136870920548664
40
0.081780406923427335
40
0.081780406923427335
40
0.081780406923427335
40
0.081780406923427335
10
-13.317212596349322
20
19.948276119713682
30
0
10
-13.215220960689303
20
20.046160500673921
30
0
10
-13.012460826522272
20
20.240755381792539
30
0
10
-12.733029722417427
20
20.269565292144303
30
0
10
-12.594156995229326
20
20.283883350376982
30
0
0
SPLINE
5
118
100
AcDbEntity
8
0
100
AcDbSpline
70
0
71
3
72
9
73
5
74
0
42
0.000000001
43
0.0000000001
44
0.0000000001
40
0
40
0
40
0
40
0
40
0.044896424079040827
40
0.091278695637916102
40
0.091278695637916102
40
0.091278695637916102
40
0.091278695637916102
10
-12.594156995229326
20
20.283883350376982
30
0
10
-12.441316394606378
20
20.267741576900274
30
0
10
-12.130576932576682
20
20.234923817836822
30
0
10
-11.897918252566889
20
20.025860227599814
30
0
10
-11.779695287160479
20
19.919626849179167
30
0
0
SPLINE
5
119
100
AcDbEntity
8
0
100
AcDbSpline
70
0
71
3
72
9
73
5
74
0
42
0.000000001
43
0.0000000001
44
0.0000000001
40
0
40
0
40
0
40
0
40
0.049158792901149301
40
0.10274604466723811
40
0.10274604466723811
40
0.10274604466723811
40
0.10274604466723811
10
-11.779695287160479
20
19.919626849179167
30
0
10
-11.679871320806118
20
19.785175669319568
30
0
10
-11.471230768412365
20
19.504161305130527
30
0
10
-11.448909084533362
20
19.15406273279158
30
0
10
-11.437267198972307
20
18.971468644623656
30
0
0
SPLINE
5
120
100
AcDbEntity
8
0
100
AcDbSpline
70
0
71
3
72
9
73
5
74
0
42
0.000000001
43
0.0000000001
44
0.0000000001
40
0
40
0
40
0
40
0
40
0.055683814896152824
40
0.10664122444930178
40
0.10664122444930178
40
0.10664122444930178
40
0.10664122444930178
10
-11.437267198972307
20
18.971468644623656
30
0
10
-11.449474638944555
20
18.781530028689247
30
0
10
-11.47285335946612
20
18.417774660792389
30
0
10
-11.693406131485267
20
18.128699839418353
30
0
10
-11.798794999532305
20
17.990568416600127
30
0
0
SPLINE
5
121
100
AcDbEntity
8
0
100
AcDbSpline
70
0
71
3
72
9
73
5
74
0
42
0.000000001
43
0.0000000001
44
0.0000000001
40
0
40
0
40
0
40
0
40
0.049692313149293822
40
0.10152457237860989
40
0.10152457237860989
40
0.10152457237860989
40
0.10152457237860989
10
-11.798794999532305
20
17.990568416600127
30
0
10
-11.929437780449032
20
17.881953002474283
30
0
10
-12.196349333289714
20
17.660044768101645
30
0
10
-12.54279449728047
20
17.632294172424622
30
0
10
-12.71966828387221
20
17.618126409535307
30
0
0
SPLINE
5
122
100
AcDbEntity
8
0
100
AcDbSpline
70
0
71
3
72
9
73
5
74
0
42
0.000000001
43
0.0000000001
44
0.0000000001
40
0
40
0
40
0
40
0
40
0.056624925007207394
40
0.11340608255320017
40
0.11340608255320017
40
0.11340608255320017
40
0.11340608255320017
10
-12.71966828387221
20
17.618126409535307
30
0
10
-12.913482271828611
20
17.637845437282746
30
0
10
-13.301644995494046
20
17.677337899097218
30
0
10
-13.579290281572209
20
17.951516583384503
30
0
10
-13.71830417197188
20
18.088794785027403
30
0
0
SPLINE
5
123
100
AcDbEntity
8
0
100
AcDbSpline
70
0
71
3
72
9
73
5
74
0
42
0.000000001
43
0.0000000001
44
0.0000000001
40
0
40
0
40
0
40
0
40
0.068779908557506236
40
0.16189117411714621
40
0.16189117411714621
40
0.16189117411714621
40
0.16189117411714621
10
-13.71830417197188
20
18.088794785027403
30
0
10
-13.831467235887613
20
18.291915489032242
30
0
10
-14.097825561570676
20
18.770012217400978
30
0
10
-14.104590251913313
20
19.320572478090654
30
0
10
-14.108480945043169
20
19.63722570467462
30
0
0
SPLINE
5
124
100
AcDbEntity
8
0
100
AcDbSpline
70
0
71
3
72
9
73
5
74
0
42
0.000000001
43
0.0000000001
44
0.0000000001
40
0
40
0
40
0
40
0
40
0.094952077721334183
40
0.16570637872863586
40
0.16570637872863586
40
0.16570637872863586
40
0.16570637872863586
10
-14.108480945043169
20
19.63722570467462
30
0
10
-14.1039737851608
20
19.960245582449364
30
0
10
-14.096108079002683
20
20.523966308608816
30
0
10
-13.81987907362592
20
21.011565343093174
30
0
10
-13.701933160237871
20
21.219763296131987
30
0
0
SPLINE
5
125
100
AcDbEntity
8
0
100
AcDbSpline
70
0
71
3
72
9
73
5
74
0
42
0.000000001
43
0.0000000001
44
0.0000000001
40
0
40
0
40
0
40
0
40
0.059300183364787665
40
0.11960737009411915
40
0.11960737009411915
40
0.11960737009411915
40
0.11960737009411915
10
-13.701933160237871
20
21.219763296131987
30
0
10
-13.555283593968097
20
21.361415757236102
30
0
10
-13.259494138494233
20
21.647126144264757
30
0
10
-12.849827759879178
20
21.685892341467792
30
0
10
-12.643270030431353
20
21.705438631062407
30
0
0
SPLINE
5
126
100
AcDbEntity
8
0
100
AcDbSpline
70
0
71
3
72
9
73
5
74
0
42
0.000000001
43
0.0000000001
44
0.0000000001
40
0
40
0
40
0
40
0
40
0.050819788406963634
40
0.096654470428752082
40
0.096654470428752082
40
0.096654470428752082
40
0.096654470428752082
10
-28.367689385823809
20
21.702709930424589
30
0
10
-28.194962812802132
20
21.693082988565145
30
0
10
-27.866453073432666
20
21.674773448198287
30
0
10
-27.593830899590085
20
21.491983336534481
30
0
10
-27.464550271443926
20
21.405302124504942
30
0
0
SPLINE
5
127
100
AcDbEntity
8
0
100
AcDbSpline
70
0
71
3
72
9
73
5
74
0
42
0.000000001
43
0.0000000001
44
0.0000000001
40
0
40
0
40
0
40
0
40
0.044646946911773434
40
0.091813977549225712
40
0.091813977549225712
40
0.091813977549225712
40
0.091813977549225712
10
-27.464550271443926
20
21.405302124504942
30
0
10
-27.35956538951946
20
21.295453007236787
30
0
10
-27.143669785032351
20
21.069554371735663
30
0
10
-27.079866266028372
20
20.763219502407026
30
0
10
-27.047088876180254
20
20.605847971920866
30
0
0
LINE
5
128
100
AcDbEntity
8
0
100
AcDbLine
10
-27.047088876180258
20
20.605847971920866
30
0
11
-27.811072602681719
21
20.526721017842192
31
0
0
SPLINE
5
129
100
AcDbEntity
8
0
100
AcDbSpline
70
0
71
3
72
9
73
5
74
0
42
0.000000001
43
0.0000000001
44
0.0000000001
40
0
40
0
40
0
40
0
40
0.024113525445184924
40
0.046122422357795637
40
0.046122422357795637
40
0.046122422357795637
40
0.046122422357795637
10
-27.811072602681719
20
20.526721017842192
30
0
10
-27.826011899129341
20
20.607351869386967
30
0
10
-27.854586590210978
20
20.761576111647631
30
0
10
-27.956273727246415
20
20.880576860016738
30
0
10
-28.004797234944903
20
20.93736215162744
30
0
0
SPLINE
5
130
100
AcDbEntity
8
0
100
AcDbSpline
70
0
71
3
72
9
73
5
74
0
42
0.000000001
43
0.0000000001
44
0.0000000001
40
0
40
0
40
0
40
0
40
0.020716807959529439
40
0.040857400848407333
40
0.040857400848407333
40
0.040857400848407333
40
0.040857400848407333
10
-28.004797234944903
20
20.93736215162744
30
0
10
-28.059997599869906
20
20.981527517849472
30
0
10
-28.168862992700944
20
21.068629839542815
30
0
10
-28.30752236928533
20
21.08213651253973
30
0
10
-28.375874295644365
20
21.088794606213469
30
0
0
SPLINE
5
131
100
AcDbEntity
8
0
100
AcDbSpline
70
0
71
3
72
9
73
5
74
0
42
0.000000001
43
0.0000000001
44
0.0000000001
40
0
40
0
40
0
40
0
40
0.022699274064833599
40
0.046274871546537366
40
0.046274871546537366
40
0.046274871546537366
40
0.046274871546537366
10
-28.375874295644365
20
21.088794606213469
30
0
10
-28.453344418499775
20
21.080067222639897
30
0
10
-28.611275459536127
20
21.062275527951737
30
0
10
-28.724658278184656
20
20.95060073196867
30
0
10
-28.782423272542559
20
20.8937059216546
30
0
0
SPLINE
5
132
100
AcDbEntity
8
0
100
AcDbSpline
70
0
71
3
72
9
73
5
74
0
42
0.000000001
43
0.0000000001
44
0.0000000001
40
0
40
0
40
0
40
0
40
0.027456162497069597
40
0.062052437717863534
40
0.062052437717863534
40
0.062052437717863534
40
0.062052437717863534
10
-28.782423272542559
20
20.8937059216546
30
0
10
-28.830804140063503
20
20.814258344469359
30
0
10
-28.940147562287926
20
20.634702449298334
30
0
10
-28.945743412208902
20
20.423476744168475
30
0
10
-28.94886328261336
20
20.305711465363402
30
0
0
SPLINE
5
133
100
AcDbEntity
8
0
100
AcDbSpline
70
0
71
3
72
9
73
5
74
0
42
0.000000001
43
0.0000000001
44
0.0000000001
40
0
40
0
40
0
40
0
40
0.032493708331448046
40
0.05863342323983247
40
0.05863342323983247
40
0.05863342323983247
40
0.05863342323983247
10
-28.94886328261336
20
20.305711465363402
30
0
10
-28.945509514519468
20
20.19493953541663
30
0
10
-28.939457792072425
20
19.995056610839011
30
0
10
-28.831787956263739
20
19.827767560836335
30
0
10
-28.78378702681502
20
19.753187435154814
30
0
0
SPLINE
5
134
100
AcDbEntity
8
0
100
AcDbSpline
70
0
71
3
72
9
73
5
74
0
42
0.000000001
43
0.0000000001
44
0.0000000001
40
0
40
0
40
0
40
0
40
0.023488176885617978
40
0.047903075847990556
40
0.047903075847990556
40
0.047903075847990556
40
0.047903075847990556
10
-28.78378702681502
20
19.753187435154814
30
0
10
-28.723788709975011
20
19.699475550901795
30
0
10
-28.60142485277423
20
19.589932589017586
30
0
10
-28.437563012119146
20
19.576075526274177
30
0
10
-28.354047074727617
20
19.569012957100767
30
0
0
SPLINE
5
135
100
AcDbEntity
8
0
100
AcDbSpline
70
0
71
3
72
9
73
5
74
0
42
0.000000001
43
0.0000000001
44
0.0000000001
40
0
40
0
40
0
40
0
40
0.032149080095775273
40
0.067614797001189844
40
0.067614797001189844
40
0.067614797001189844
40
0.067614797001189844
10
-28.354047074727617
20
19.569012957100767
30
0
10
-28.244911622575437
20
19.583396957358246
30
0
10
-28.015381837557651
20
19.613648872952005
30
0
10
-27.849150846843479
20
19.775872929393042
30
0
10
-27.761958375386797
20
19.860963659768004
30
0
0
LINE
5
136
100
AcDbEntity
8
0
100
AcDbLine
10
-27.761958375386797
20
19.860963659768004
30
0
11
-27.139857545308672
21
19.770922797207731
31
0
0
LINE
5
137
100
AcDbEntity
8
0
100
AcDbLine
10
-27.139857545308672
20
19.770922797207731
30
0
11
-27.532764211110674
21
17.689067559723753
31
0
0
LINE
5
138
100
AcDbEntity
8
0
100
AcDbLine
10
-27.532764211110674
20
17.689067559723753
30
0
11
-29.560049310140215
21
17.689067559723753
31
0
0
LINE
5
139
100
AcDbEntity
8
0
100
AcDbLine
10
-29.560049310140215
20
17.689067559723753
30
0
11
-29.560049310140215
21
18.406666355614561
31
0
0
LINE
5
140
100
AcDbEntity
8
0
100
AcDbLine
10
-29.560049310140215
20
18.406666355614561
30
0
11
-28.113938107900225
21
18.406666355614561
31
0
0
LINE
5
141
100
AcDbEntity
8
0
100
AcDbLine
10
-28.113938107900225
20
18.406666355614561
30
0
11
-27.993882432393633
21
19.086066024784941
31
0
0
SPLINE
5
142
100
AcDbEntity
8
0
100
AcDbSpline
70
0
71
3
72
9
73
5
74
0
42
0.000000001
43
0.0000000001
44
0.0000000001
40
0
40
0
40
0
40
0
40
0.027647735933658338
40
0.054307814249764476
40
0.054307814249764476
40
0.054307814249764476
40
0.054307814249764476
10
-27.993882432393633
20
19.086066024784941
30
0
10
-28.078990336416606
20
19.048666294568296
30
0
10
-28.246165842358835
20
18.975202861379032
30
0
10
-28.428331045187015
20
18.963547655816026
30
0
10
-28.517757192067705
20
18.95782603550424
30
0
0
SPLINE
5
143
100
AcDbEntity
8
0
100
AcDbSpline
70
0
71
3
72
9
73
5
74
0
42
0.000000001
43
0.0000000001
44
0.0000000001
40
0
40
0
40
0
40
0
40
0.048039365909847302
40
0.096243869745978733
40
0.096243869745978733
40
0.096243869745978733
40
0.096243869745978733
10
-28.517757192067705
20
18.95782603550424
30
0
10
-28.681455508460957
20
18.973393449455997
30
0
10
-29.009414863090125
20
19.004581791189448
30
0
10
-29.258127292915873
20
19.220672800228819
30
0
10
-29.382696881703936
20
19.328903692250151
30
0
0
SPLINE
5
144
100
AcDbEntity
8
0
100
AcDbSpline
70
0
71
3
72
9
73
5
74
0
42
0.000000001
43
0.0000000001
44
0.0000000001
40
0
40
0
40
0
40
0
40
0.050252174300402852
40
0.10466314631299614
40
0.10466314631299614
40
0.10466314631299614
40
0.10466314631299614
10
-29.382696881703936
20
19.328903692250151
30
0
10
-29.486106998065758
20
19.465454432959643
30
0
10
-29.701485303376902
20
19.749856657400525
30
0
10
-29.725116596461561
20
20.106606298998983
30
0
10
-29.737401738576494
20
20.292068856243986
30
0
0
SPLINE
5
145
100
AcDbEntity
8
0
100
AcDbSpline
70
0
71
3
72
9
73
5
74
0
42
0.000000001
43
0.0000000001
44
0.0000000001
40
0
40
0
40
0
40
0
40
0.047271558972563077
40
0.093919997280424994
40
0.093919997280424994
40
0.093919997280424994
40
0.093919997280424994
10
-29.737401738576494
20
20.292068856243986
30
0
10
-29.72578448570205
20
20.451820902713127
30
0
10
-29.702703115379414
20
20.769219188194516
30
0
10
-29.534467939450447
20
21.039255833879118
30
0
10
-29.450908437184893
20
21.17337836552133
30
0
0
SPLINE
5
146
100
AcDbEntity
8
0
100
AcDbSpline
70
0
71
3
72
9
73
5
74
0
42
0.000000001
43
0.0000000001
44
0.0000000001
40
0
40
0
40
0
40
0
40
0.061209888681501019
40
0.12434486219177232
40
0.12434486219177232
40
0.12434486219177232
40
0.12434486219177232
10
-29.450908437184893
20
21.17337836552133
30
0
10
-29.306490132100574
20
21.327756400743375
30
0
10
-29.013111486419312
20
21.641367745717499
30
0
10
-28.585039198786106
20
21.682052577104205
30
0
10
-28.367689385823809
20
21.702709930424589
30
0
0
SPLINE
5
147
100
AcDbEntity
8
0
100
AcDbSpline
70
0
71
3
72
9
73
5
74
0
42
0.000000001
43
0.0000000001
44
0.0000000001
40
0
40
0
40
0
40
0
40
0.013892000800224451
40
0.026473180446465155
40
0.026473180446465155
40
0.026473180446465155
40
0.026473180446465155
10
-22.044360175542437
20
20.709531443600554
30
0
10
-22.014162457147055
20
20.744738120799152
30
0
10
-21.956616416108844
20
20.811829444201887
30
0
10
-21.909746017651514
20
20.886749838839023
30
0
10
-21.887471213750445
20
20.922355192189116
30
0
0
LINE
5
148
100
AcDbEntity
8
0
100
AcDbLine
10
-21.887471213750445
20
20.922355192189119
30
0
11
-23.409981265477739
21
20.922355192189116
31
0
0
LINE
5
149
100
AcDbEntity
8
0
100
AcDbLine
10
-23.409981265477739
20
20.922355192189116
30
0
11
-23.409981265477739
21
21.634497182850737
31
0
0
LINE
5
150
100
AcDbEntity
8
0
100
AcDbLine
10
-23.409981265477739
20
21.634497182850737
30
0
11
-20.722395911626421
21
21.634497182850737
31
0
0
SPLINE
5
151
100
AcDbEntity
8
0
100
AcDbSpline
70
0
71
3
72
9
73
5
74
0
42
0.000000001
43
0.0000000001
44
0.0000000001
40
0
40
0
40
0
40
0
40
0.040282337968057649
40
0.081386211998861674
40
0.081386211998861674
40
0.081386211998861674
40
0.081386211998861674
10
-20.722395911626421
20
21.634497182850737
30
0
10
-20.744585386988206
20
21.501056944800112
30
0
10
-20.789416879821854
20
21.231455028650707
30
0
10
-20.918925388747866
20
20.990727935319249
30
0
10
-20.984333291463457
20
20.869149404053587
30
0
0
SPLINE
5
152
100
AcDbEntity
8
0
100
AcDbSpline
70
0
71
3
72
9
73
5
74
0
42
0.000000001
43
0.0000000001
44
0.0000000001
40
0
40
0
40
0
40
0
40
0.05312932046677294
40
0.12921811416751824
40
0.12921811416751824
40
0.12921811416751824
40
0.12921811416751824
10
-20.984333291463457
20
20.869149404053587
30
0
10
-21.089094638054572
20
20.725923084768255
30
0
10
-21.343889232173645
20
20.377576169833027
30
0
10
-21.660254541314963
20
20.083336864232727
30
0
10
-21.846543088368975
20
19.910076992993254
30
0
0
SPLINE
5
153
100
AcDbEntity
8
0
100
AcDbSpline
70
0
71
3
72
9
73
5
74
0
42
0.000000001
43
0.0000000001
44
0.0000000001
40
0
40
0
40
0
40
0
40
0.058225328834176936
40
0.091343105329880436
40
0.091343105329880436
40
0.091343105329880436
40
0.091343105329880436
10
-21.846543088368975
20
19.910076992993254
30
0
10
-21.989704343662105
20
19.778601056621568
30
0
10
-22.21429377721671
20
19.572343392735362
30
0
10
-22.410976159997702
20
19.339613690845731
30
0
10
-22.482286229543291
20
19.255234139447111
30
0
0
SPLINE
5
154
100
AcDbEntity
8
0
100
AcDbSpline
70
0
71
3
72
9
73
5
74
0
42
0.000000001
43
0.0000000001
44
0.0000000001
40
0
40
0
40
0
40
0
40
0.026417986316574278
40
0.050079884455298526
40
0.050079884455298526
40
0.050079884455298526
40
0.050079884455298526
10
-22.482286229543291
20
19.255234139447111
30
0
10
-22.52840088656189
20
19.178711087982485
30
0
10
-22.615819233574143
20
19.033648344380754
30
0
10
-22.63260781636582
20
18.865416511221959
30
0
10
-22.64054013770064
20
18.7859298162507
30
0
0
SPLINE
5
155
100
AcDbEntity
8
0
100
AcDbSpline
70
0
71
3
72
9
73
5
74
0
42
0.000000001
43
0.0000000001
44
0.0000000001
40
0
40
0
40
0
40
0
40
0.022940850266781318
40
0.042619106630336467
40
0.042619106630336467
40
0.042619106630336467
40
0.042619106630336467
10
-22.64054013770064
20
18.7859298162507
30
0
10
-22.63677585439336
20
18.707494131027197
30
0
10
-22.629782635319348
20
18.561777699714085
30
0
10
-22.542877198037541
20
18.445395928988432
30
0
10
-22.502750888280474
20
18.391659694199461
30
0
0
SPLINE
5
156
100
AcDbEntity
8
0
100
AcDbSpline
70
0
71
3
72
9
73
5
74
0
42
0.000000001
43
0.0000000001
44
0.0000000001
40
0
40
0
40
0
40
0
40
0.019388867740053925
40
0.041318697064236201
40
0.041318697064236201
40
0.041318697064236201
40
0.041318697064236201
10
-22.502750888280474
20
18.391659694199461
30
0
10
-22.450212024005967
20
18.351511847386142
30
0
10
-22.3382489405417
20
18.265954673934804
30
0
10
-22.197059067926006
20
18.258059762005018
30
0
10
-22.122122779302202
20
18.253869550709624
30
0
0
SPLINE
5
157
100
AcDbEntity
8
0
100
AcDbSpline
70
0
71
3
72
9
73
5
74
0
42
0.000000001
43
0.0000000001
44
0.0000000001
40
0
40
0
40
0
40
0
40
0.021856265356777895
40
0.041722191318990409
40
0.041722191318990409
40
0.041722191318990409
40
0.041722191318990409
10
-22.122122779302202
20
18.253869550709624
30
0
10
-22.047440176750676
20
18.25865889451719
30
0
10
-21.904875938030504
20
18.267801440847489
30
0
10
-21.793271238466836
20
18.356328766251625
30
0
10
-21.74013091605147
20
18.398480849747557
30
0
0
SPLINE
5
158
100
AcDbEntity
8
0
100
AcDbSpline
70
0
71
3
72
9
73
5
74
0
42
0.000000001
43
0.0000000001
44
0.0000000001
40
0
40
0
40
0
40
0
40
0.022252478416030834
40
0.051501348684964005
40
0.051501348684964005
40
0.051501348684964005
40
0.051501348684964005
10
-21.74013091605147
20
18.398480849747557
30
0
10
-21.697625228389434
20
18.460682424515969
30
0
10
-21.599249658691114
20
18.604642343542071
30
0
10
-21.584689734357436
20
18.779431858667223
30
0
10
-21.576420798711382
20
18.878699081425566
30
0
0
LINE
5
159
100
AcDbEntity
8
0
100
AcDbLine
10
-21.576420798711382
20
18.878699081425562
30
0
11
-20.812437072209917
21
18.802300827984709
31
0
0
SPLINE
5
160
100
AcDbEntity
8
0
100
AcDbSpline
70
0
71
3
72
9
73
5
74
0
42
0.000000001
43
0.0000000001
44
0.0000000001
40
0
40
0
40
0
40
0
40
0.056169338182278865
40
0.10260751176653071
40
0.10260751176653071
40
0.10260751176653071
40
0.10260751176653071
10
-20.812437072209917
20
18.802300827984709
30
0
10
-20.840694841887547
20
18.61175366289779
30
0
10
-20.892314809801075
20
18.263671041374163
30
0
10
-21.132231582795015
20
18.008976100438197
30
0
10
-21.240813270024859
20
17.893706100468535
30
0
0
SPLINE
5
161
100
AcDbEntity
8
0
100
AcDbSpline
70
0
71
3
72
9
73
5
74
0
42
0.000000001
43
0.0000000001
44
0.0000000001
40
0
40
0
40
0
40
0
40
0.045485468492698987
40
0.095484919545764158
40
0.095484919545764158
40
0.095484919545764158
40
0.095484919545764158
10
-21.240813270024859
20
17.893706100468535
30
0
10
-21.372275540380393
20
17.813377610469527
30
0
10
-21.648246410290565
20
17.644748822881709
30
0
10
-21.971798564210147
20
17.62727569196905
30
0
10
-22.141222491674029
20
17.618126111512083
30
0
0
SPLINE
5
162
100
AcDbEntity
8
0
100
AcDbSpline
70
0
71
3
72
9
73
5
74
0
42
0.000000001
43
0.0000000001
44
0.0000000001
40
0
40
0
40
0
40
0
40
0.053463944439387547
40
0.10023435894095978
40
0.10023435894095978
40
0.10023435894095978
40
0.10023435894095978
10
-22.141222491674029
20
17.618126111512083
30
0
10
-22.323606258096468
20
17.627493208319176
30
0
10
-22.665539875233822
20
17.64505466872847
30
0
10
-22.94244034257342
20
17.844362762792578
30
0
10
-23.071645036153399
20
17.93736203241815
30
0
0
SPLINE
5
163
100
AcDbEntity
8
0
100
AcDbSpline
70
0
71
3
72
9
73
5
74
0
42
0.000000001
43
0.0000000001
44
0.0000000001
40
0
40
0
40
0
40
0
40
0.043890599762360642
40
0.08829168483110339
40
0.08829168483110339
40
0.08829168483110339
40
0.08829168483110339
10
-23.071645036153399
20
17.93736203241815
30
0
10
-23.170325647703976
20
18.050707013985036
30
0
10
-23.368834610924768
20
18.278715276434735
30
0
10
-23.396212948556787
20
18.579897552927775
30
0
10
-23.409981265477739
20
18.731359379773039
30
0
0
SPLINE
5
164
100
AcDbEntity
8
0
100
AcDbSpline
70
0
71
3
72
9
73
5
74
0
42
0.000000001
43
0.0000000001
44
0.0000000001
40
0
40
0
40
0
40
0
40
0.026475248800987311
40
0.052574874207514846
40
0.052574874207514846
40
0.052574874207514846
40
0.052574874207514846
10
-23.409981265477739
20
18.731359379773039
30
0
10
-23.406061620632556
20
18.820025224243114
30
0
10
-23.398277941762416
20
18.996098947083571
30
0
10
-23.341369752503024
20
19.162886377800664
30
0
10
-23.313118949346148
20
19.245684283261198
30
0
0
SPLINE
5
165
100
AcDbEntity
8
0
100
AcDbSpline
70
0
71
3
72
9
73
5
74
0
42
0.000000001
43
0.0000000001
44
0.0000000001
40
0
40
0
40
0
40
0
40
0.027958477523579071
40
0.059814280220474317
40
0.059814280220474317
40
0.059814280220474317
40
0.059814280220474317
10
-23.313118949346148
20
19.245684283261198
30
0
10
-23.274073294628508
20
19.330607372818058
30
0
10
-23.190539141858451
20
19.512291567590761
30
0
10
-23.070233300109102
20
19.672145637282416
30
0
10
-23.006160989217364
20
19.75728048611154
30
0
0
SPLINE
5
166
100
AcDbEntity
8
0
100
AcDbSpline
70
0
71
3
72
9
73
5
74
0
42
0.000000001
43
0.0000000001
44
0.0000000001
40
0
40
0
40
0
40
0
40
0.029123317540859374
40
0.071627168505191074
40
0.071627168505191074
40
0.071627168505191074
40
0.071627168505191074
10
-23.006160989217364
20
19.75728048611154
30
0
10
-22.942164069931039
20
19.830360816184385
30
0
10
-22.784767230951278
20
20.01009779529738
30
0
10
-22.608633254981719
20
20.171647871320534
30
0
10
-22.504114642552935
20
20.267512338642973
30
0
0
SPLINE
5
167
100
AcDbEntity
8
0
100
AcDbSpline
70
0
71
3
72
9
73
5
74
0
42
0.000000001
43
0.0000000001
44
0.0000000001
40
0
40
0
40
0
40
0
40
0.040563806659298964
40
0.06378863501818792
40
0.06378863501818792
40
0.06378863501818792
40
0.06378863501818792
10
-22.504114642552935
20
20.267512338642973
30
0
10
-22.404148470822687
20
20.358621838689523
30
0
10
-22.246946616070122
20
20.501896129832183
30
0
10
-22.098432673366183
20
20.654111347257338
30
0
10
-22.044360175542437
20
20.709531443600554
30
0
0
LINE
5
168
100
AcDbEntity
8
0
100
AcDbLine
10
13.147941967303463
20
10.201172304371145
30
0
11
20.746678690702595
21
10.252272815727046
31
0
0
LINE
5
169
100
AcDbEntity
8
0
100
AcDbLine
10
20.746678690702595
20
10.252272815727046
30
0
11
20.881173035680686
21
-9.7472749609395315
31
0
0
LINE
5
170
100
AcDbEntity
8
0
100
AcDbLine
10
20.881173035680686
20
-9.7472749609395315
30
0
11
13.500712526554288
21
-9.7969075932818317
31
0
0
SPLINE
5
171
100
AcDbEntity
8
0
100
AcDbSpline
70
0
71
3
72
9
73
5
74
0
42
0.000000001
43
0.0000000001
44
0.0000000001
40
0
40
0
40
0
40
0
40
0.22019356399487397
40
0.38336948300997037
40
0.38336948300997037
40
0.38336948300997037
40
0.38336948300997037
10
13.500712526554288
20
-9.7969075932818299
30
0
10
12.764338631499522
20
-9.797893456873572
30
0
10
11.482269917375998
20
-9.7996099012992293
30
0
10
10.226468560112385
20
-9.54772978409774
30
0
10
9.6919540782526816
20
-9.4405204953372319
30
0
0
SPLINE
5
172
100
AcDbEntity
8
0
100
AcDbSpline
70
0
71
3
72
9
73
5
74
0
42
0.000000001
43
0.0000000001
44
0.0000000001
40
0
40
0
40
0
40
0
40
0.17851760128937402
40
0.35648201087010745
40
0.35648201087010745
40
0.35648201087010745
40
0.35648201087010745
10
9.6919540782526816
20
-9.4405204953372319
30
0
10
9.1253096789372297
20
-9.2383259770218569
30
0
10
7.9937768023060869
20
-8.8345635023113704
30
0
10
7.1072197142246178
20
-8.0238288971107377
30
0
10
6.6646290534646706
20
-7.619090646815768
30
0
0
SPLINE
5
173
100
AcDbEntity
8
0
100
AcDbSpline
70
0
71
3
72
9
73
5
74
0
42
0.000000001
43
0.0000000001
44
0.0000000001
40
0
40
0
40
0
40
0
40
0.18403809525967921
40
0.37833634856445142
40
0.37833634856445142
40
0.37833634856445142
40
0.37833634856445142
10
6.6646290534646706
20
-7.619090646815768
30
0
10
6.2653222283219456
20
-7.1476871938701247
30
0
10
5.4444471482565966
20
-6.1785994577876746
30
0
10
4.9743495934332032
20
-4.9981370889079475
30
0
10
4.7329264943003668
20
-4.3918993397843735
30
0
0
SPLINE
5
174
100
AcDbEntity
8
0
100
AcDbSpline
70
0
71
3
72
9
73
5
74
0
42
0.000000001
43
0.0000000001
44
0.0000000001
40
0
40
0
40
0
40
0
40
0.21958076068078061
40
0.47879540987280456
40
0.47879540987280456
40
0.47879540987280456
40
0.47879540987280456
10
4.7329264943003668
20
-4.3918993397843735
30
0
10
4.537509164690066
20
-3.6837219829493262
30
0
10
4.1114020679802854
20
-2.1395426715322929
30
0
10
4.06917084800072
20
-0.53690924493705605
30
0
10
4.046307322899545
20
0.33073913450053949
30
0
0
SPLINE
5
175
100
AcDbEntity
8
0
100
AcDbSpline
70
0
71
3
72
9
73
5
74
0
42
0.000000001
43
0.0000000001
44
0.0000000001
40
0
40
0
40
0
40
0
40
0.23038901585716795
40
0.43150156335889733
40
0.43150156335889733
40
0.43150156335889733
40
0.43150156335889733
10
4.046307322899545
20
0.33073913450053949
30
0
10
4.0589999260578713
20
1.1020893466412396
30
0
10
4.0827722317189474
20
2.5467711653364411
30
0
10
4.4571139969299516
20
3.9412970889880072
30
0
10
4.6315857310572799
20
4.5912522337147976
30
0
0
SPLINE
5
176
100
AcDbEntity
8
0
100
AcDbSpline
70
0
71
3
72
9
73
5
74
0
42
0.000000001
43
0.0000000001
44
0.0000000001
40
0
40
0
40
0
40
0
40
0.2174615379052077
40
0.41609135708417433
40
0.41609135708417433
40
0.41609135708417433
40
0.41609135708417433
10
4.6315857310572799
20
4.5912522337147976
30
0
10
4.8924497231234998
20
5.2746482801792887
30
0
10
5.3915874259044871
20
6.5822596910915028
30
0
10
6.3108367279232436
20
7.6359824723462726
30
0
10
6.7496594035969419
20
8.1389988458948608
30
0
0
SPLINE
5
177
100
AcDbEntity
8
0
100
AcDbSpline
70
0
71
3
72
9
73
5
74
0
42
0.000000001
43
0.0000000001
44
0.0000000001
40
0
40
0
40
0
40
0
40
0.1534156817505182
40
0.32775941072153336
40
0.32775941072153336
40
0.32775941072153336
40
0.32775941072153336
10
6.7496594035969419
20
8.1389988458948608
30
0
10
7.145274581373906
20
8.4691946485834286
30
0
10
7.9904723868468412
20
9.1746295850713473
30
0
10
9.0257979961570829
20
9.552974886384817
30
0
10
9.5765145324999317
20
9.7542265621931339
30
0
0
SPLINE
5
178
100
AcDbEntity
8
0
100
AcDbSpline
70
0
71
3
72
9
73
5
74
0
42
0.000000001
43
0.0000000001
44
0.0000000001
40
0
40
0
40
0
40
0
40
0.15939517181635843
40
0.36090064451005655
40
0.36090064451005655
40
0.36090064451005655
40
0.36090064451005655
10
9.5765145324999317
20
9.7542265621931339
30
0
10
10.094182318232928
20
9.8806325000245714
30
0
10
11.266279536637869
20
10.166839314907429
30
0
10
12.473757839601529
20
10.188871077447661
30
0
10
13.147941967303463
20
10.201172304371145
30
0
0
LWPOLYLINE
5
179
100
AcDbEntity
8
0
100
AcDbPolyline
90
12
70
1
43
0.0
10
-14.65497674440736
20
10.014201309708298
10
-14.632316378418363
20
6.6445646732568751
10
-3.4593064227908163
20
6.7197017049636107
10
-3.4227012001602319
20
1.2764401388717441
10
-13.463403480508262
20
1.2089177282954986
10
-13.440743114519263
20
-2.1607189081559213
10
-3.4000408341712292
20
-2.0931964975796751
10
-3.3702245584919499
20
-6.5269296041065612
10
-14.161248904018571
20
-6.5994978325085762
10
-14.138496789328343
20
-9.9827776636535575
10
0.69063424206255875
20
-9.8830536955452413
10
0.55613989708446887
20
10.116494081121335
0
LWPOLYLINE
5
180
100
AcDbEntity
8
0
100
AcDbPolyline
90
12
70
1
43
0.0
10
-33.290295648729206
20
9.8888812256002669
10
-33.267635282740208
20
6.5192445891488457
10
-22.094630095376427
20
6.5943815887896298
10
-22.05802487274584
20
1.1511200226977625
10
-32.098724768961993
20
1.0835976281544923
10
-32.076064402972996
20
-2.2860390082969273
10
-22.035364506756842
20
-2.2185166137536565
10
-22.005548231077562
20
-6.6522497202805431
10
-32.796572576604184
20
-6.7248179486825563
10
-32.773820461913957
20
-10.10809777982754
10
-17.944687046391174
20
-10.008373795686245
10
-18.079181391369264
20
9.9911739809803297
0
SPLINE
5
181
100
AcDbEntity
8
0
100
AcDbSpline
70
0
71
3
72
9
73
5
74
0
42
0.000000001
43
0.0000000001
44
0.0000000001
40
0
40
0
40
0
40
0
40
0.042129425469028196
40
0.080969024955278607
40
0.080969024955278607
40
0.080969024955278607
40
0.080969024955278607
10
-25.390880837850176
20
17.618126111512083
30
0
10
-25.534013426803192
20
17.626918604338993
30
0
10
-25.809101587579811
20
17.64381699692791
30
0
10
-26.036321833204937
20
17.798866952175551
30
0
10
-26.145315900258623
20
17.8732420377778
30
0
0
SPLINE
5
182
100
AcDbEntity
8
0
100
AcDbSpline
70
0
71
3
72
9
73
5
74
0
42
0.000000001
43
0.0000000001
44
0.0000000001
40
0
40
0
40
0
40
0
40
0.03970094624681219
40
0.084615692692377911
40
0.084615692692377911
40
0.084615692692377911
40
0.084615692692377911
10
-26.145315900258623
20
17.8732420377778
30
0
10
-26.236546074131933
20
17.97236469554506
30
0
10
-26.430987393206429
20
18.183627477453189
30
0
10
-26.493016196282234
20
18.464789858814573
30
0
10
-26.525941625051104
20
18.614033298973936
30
0
0
LINE
5
183
100
AcDbEntity
8
0
100
AcDbLine
10
-26.525941625051107
20
18.614033298973933
30
0
11
-25.783787503652178
21
18.695888655667204
31
0
0
SPLINE
5
184
100
AcDbEntity
8
0
100
AcDbSpline
70
0
71
3
72
9
73
5
74
0
42
0.000000001
43
0.0000000001
44
0.0000000001
40
0
40
0
40
0
40
0
40
0.020514739180478116
40
0.037238948033686506
40
0.037238948033686506
40
0.037238948033686506
40
0.037238948033686506
10
-25.783787503652178
20
18.695888655667204
30
0
10
-25.773354775827755
20
18.626879191467761
30
0
10
-25.754416986471263
20
18.501611215670096
30
0
10
-25.676774333864103
20
18.402199396886886
30
0
10
-25.641904607228838
20
18.357553022389311
30
0
0
SPLINE
5
185
100
AcDbEntity
8
0
100
AcDbSpline
70
0
71
3
72
9
73
5
74
0
42
0.000000001
43
0.0000000001
44
0.0000000001
40
0
40
0
40
0
40
0
40
0.015502262507733683
40
0.032301143949155696
40
0.032301143949155696
40
0.032301143949155696
40
0.032301143949155696
10
-25.641904607228838
20
18.357553022389311
30
0
10
-25.599726163879247
20
18.325734480685473
30
0
10
-25.511841445793301
20
18.259436074545391
30
0
10
-25.401751216020635
20
18.252184026046748
30
0
10
-25.344496503285967
20
18.248412447457213
30
0
0
SPLINE
5
186
100
AcDbEntity
8
0
100
AcDbSpline
70
0
71
3
72
9
73
5
74
0
42
0.000000001
43
0.0000000001
44
0.0000000001
40
0
40
0
40
0
40
0
40
0.023062686070280405
40
0.047883398855647602
40
0.047883398855647602
40
0.047883398855647602
40
0.047883398855647602
10
-25.344496503285967
20
18.248412447457213
30
0
10
-25.265731711508003
20
18.258772303348788
30
0
10
-25.102198030782645
20
18.280281728150037
30
0
10
-24.991327052490661
20
18.403053792638396
30
0
10
-24.933856263570391
20
18.466693597321409
30
0
0
SPLINE
5
187
100
AcDbEntity
8
0
100
AcDbSpline
70
0
71
3
72
9
73
5
74
0
42
0.000000001
43
0.0000000001
44
0.0000000001
40
0
40
0
40
0
40
0
40
0.036303697844151238
40
0.09401963428058796
40
0.09401963428058796
40
0.09401963428058796
40
0.09401963428058796
10
-24.933856263570391
20
18.466693597321409
30
0
10
-24.882488940568766
20
18.57726514313465
30
0
10
-24.749457398070863
20
18.863624299819701
30
0
10
-24.732689190968205
20
19.180665928881517
30
0
10
-24.722395673207842
20
19.375288622860808
30
0
0
SPLINE
5
188
100
AcDbEntity
8
0
100
AcDbSpline
70
0
71
3
72
9
73
5
74
0
42
0.000000001
43
0.0000000001
44
0.0000000001
40
0
40
0
40
0
40
0
40
0.0409405664832143
40
0.080931183782354907
40
0.080931183782354907
40
0.080931183782354907
40
0.080931183782354907
10
-24.722395673207842
20
19.375288622860808
30
0
10
-24.822841326624591
20
19.276611277755769
30
0
10
-25.021401980154934
20
19.081546210565623
30
0
10
-25.297907619722903
20
19.051700423867995
30
0
10
-25.434537663869463
20
19.036952691559691
30
0
0
SPLINE
5
189
100
AcDbEntity
8
0
100
AcDbSpline
70
0
71
3
72
9
73
5
74
0
42
0.000000001
43
0.0000000001
44
0.0000000001
40
0
40
0
40
0
40
0
40
0.045504603190863427
40
0.092112465618570033
40
0.092112465618570033
40
0.092112465618570033
40
0.092112465618570033
10
-25.434537663869463
20
19.036952691559691
30
0
10
-25.58953513919181
20
19.052903795122681
30
0
10
-25.903288004076963
20
19.085192736800987
30
0
10
-26.138280662828741
20
19.295938551908101
30
0
10
-26.257184281758867
20
19.402573543076414
30
0
0
SPLINE
5
190
100
AcDbEntity
8
0
100
AcDbSpline
70
0
71
3
72
9
73
5
74
0
42
0.000000001
43
0.0000000001
44
0.0000000001
40
0
40
0
40
0
40
0
40
0.049129761842272968
40
0.10234670419005565
40
0.10234670419005565
40
0.10234670419005565
40
0.10234670419005565
10
-26.257184281758867
20
19.402573543076414
30
0
10
-26.357015844506225
20
19.536896250875838
30
0
10
-26.564984111361198
20
19.816716179278714
30
0
10
-26.587766742267377
20
20.16535710433012
30
0
10
-26.599612965993487
20
20.346638994698424
30
0
0
SPLINE
5
191
100
AcDbEntity
8
0
100
AcDbSpline
70
0
71
3
72
9
73
5
74
0
42
0.000000001
43
0.0000000001
44
0.0000000001
40
0
40
0
40
0
40
0
40
0.056048567021862963
40
0.10698058344540989
40
0.10698058344540989
40
0.10698058344540989
40
0.10698058344540989
10
-26.599612965993487
20
20.346638994698424
30
0
10
-26.587693339423634
20
20.537855493246511
30
0
10
-26.56494220281747
20
20.902832756110044
30
0
10
-26.344430824186979
20
21.193330301009379
30
0
10
-26.239448323659502
20
21.331632273678679
30
0
0
SPLINE
5
192
100
AcDbEntity
8
0
100
AcDbSpline
70
0
71
3
72
9
73
5
74
0
42
0.000000001
43
0.0000000001
44
0.0000000001
40
0
40
0
40
0
40
0
40
0.04966297543051687
40
0.1018582032824964
40
0.1018582032824964
40
0.1018582032824964
40
0.1018582032824964
10
-26.239448323659502
20
21.331632273678679
30
0
10
-26.108630631171454
20
21.439844388629155
30
0
10
-25.840325017202805
20
21.661786217661842
30
0
10
-25.492645754995227
20
21.688844465069678
30
0
10
-25.314484372548662
20
21.702709930424589
30
0
0
SPLINE
5
193
100
AcDbEntity
8
0
100
AcDbSpline
70
0
71
3
72
9
73
5
74
0
42
0.000000001
43
0.0000000001
44
0.0000000001
40
0
40
0
40
0
40
0
40
0.056424789624157375
40
0.11315263333492992
40
0.11315263333492992
40
0.11315263333492992
40
0.11315263333492992
10
-25.314484372548662
20
21.702709930424589
30
0
10
-25.121382452879914
20
21.68288938163586
30
0
10
-24.734141474967714
20
21.643141829105723
30
0
10
-24.457344535905612
20
21.369319437054763
30
0
10
-24.318575396947466
20
21.232041554932493
30
0
0
SPLINE
5
194
100
AcDbEntity
8
0
100
AcDbSpline
70
0
71
3
72
9
73
5
74
0
42
0.000000001
43
0.0000000001
44
0.0000000001
40
0
40
0
40
0
40
0
40
0.068656489606566201
40
0.16136074185046564
40
0.16136074185046564
40
0.16136074185046564
40
0.16136074185046564
10
-24.318575396947466
20
21.232041554932493
30
0
10
-24.205402333366493
20
21.029389344434549
30
0
10
-23.939415977210452
20
20.553103545219187
30
0
10
-23.932418679870906
20
20.004340393736157
30
0
10
-23.928398623876177
20
19.689067440514464
30
0
0
SPLINE
5
195
100
AcDbEntity
8
0
100
AcDbSpline
70
0
71
3
72
9
73
5
74
0
42
0.000000001
43
0.0000000001
44
0.0000000001
40
0
40
0
40
0
40
0
40
0.095155520992691756
40
0.165971463165482
40
0.165971463165482
40
0.165971463165482
40
0.165971463165482
10
-23.928398623876177
20
19.689067440514464
30
0
10
-23.932839711365141
20
19.365357036945042
30
0
10
-23.940585912330672
20
18.80073725701202
30
0
10
-24.217005962433866
20
18.312233841691441
30
0
10
-24.33494760077437
20
18.103801446442503
30
0
0
SPLINE
5
196
100
AcDbEntity
8
0
100
AcDbSpline
70
0
71
3
72
9
73
5
74
0
42
0.000000001
43
0.0000000001
44
0.0000000001
40
0
40
0
40
0
40
0
40
0.059246202887498364
40
0.11935302949477966
40
0.11935302949477966
40
0.11935302949477966
40
0.11935302949477966
10
-24.33494760077437
20
18.103801446442503
30
0
10
-24.481351615628299
20
17.962148229737384
30
0
10
-24.776286343111103
20
17.676784109718753
30
0
10
-25.185033549596128
20
17.637772545003777
30
0
10
-25.390880837850176
20
17.618126111512083
30
0
0
SPLINE
5
197
100
AcDbEntity
8
0
100
AcDbSpline
70
0
71
3
72
9
73
5
74
0
42
0.000000001
43
0.0000000001
44
0.0000000001
40
0
40
0
40
0
40
0
40
0.050269466673940985
40
0.096956895600336088
40
0.096956895600336088
40
0.096956895600336088
40
0.096956895600336088
10
-19.000705018453203
20
21.702709930424589
30
0
10
-18.829835700437133
20
21.691727093976837
30
0
10
-18.500272653038166
20
21.670544022078204
30
0
10
-18.23029669387504
20
21.48138194233081
30
0
10
-18.100295796804033
20
21.390295165066618
30
0
0
SPLINE
5
198
100
AcDbEntity
8
0
100
AcDbSpline
70
0
71
3
72
9
73
5
74
0
42
0.000000001
43
0.0000000001
44
0.0000000001
40
0
40
0
40
0
40
0
40
0.045794550134174446
40
0.093341662904571493
40
0.093341662904571493
40
0.093341662904571493
40
0.093341662904571493
10
-18.100295796804033
20
21.390295165066618
30
0
10
-17.993492488642808
20
21.276614886179594
30
0
10
-17.775798497583409
20
21.044903771217637
30
0
10
-17.716014933622713
20
20.732327975604214
30
0
10
-17.685561910085283
20
20.573105650429625
30
0
0
LINE
5
199
100
AcDbEntity
8
0
100
AcDbLine
10
-17.685561910085283
20
20.573105650429618
30
0
11
-18.427717223577105
21
20.483064787869353
31
0
0
SPLINE
5
200
100
AcDbEntity
8
0
100
AcDbSpline
70
0
71
3
72
9
73
5
74
0
42
0.000000001
43
0.0000000001
44
0.0000000001
40
0
40
0
40
0
40
0
40
0.025876364998678004
40
0.048107621634337322
40
0.048107621634337322
40
0.048107621634337322
40
0.048107621634337322
10
-18.427717223577105
20
20.483064787869353
30
0
10
-18.442319008789539
20
20.569807283387238
30
0
10
-18.469465679437505
20
20.731073178121903
30
0
10
-18.571542102470875
20
20.858166601514107
30
0
10
-18.618713155202471
20
20.916898386959929
30
0
0
SPLINE
5
201
100
AcDbEntity
8
0
100
AcDbSpline
70
0
71
3
72
9
73
5
74
0
42
0.000000001
43
0.0000000001
44
0.0000000001
40
0
40
0
40
0
40
0
40
0.02054655011653863
40
0.041351437051726628
40
0.041351437051726628
40
0.041351437051726628
40
0.041351437051726628
10
-18.618713155202471
20
20.916898386959929
30
0
10
-18.673510867515599
20
20.960667802745071
30
0
10
-18.783795277231228
20
21.048756957925111
30
0
10
-18.924470554723062
20
21.060871419041483
30
0
10
-18.995247617177569
20
21.066966491227049
30
0
0
SPLINE
5
202
100
AcDbEntity
8
0
100
AcDbSpline
70
0
71
3
72
9
73
5
74
0
42
0.000000001
43
0.0000000001
44
0.0000000001
40
0
40
0
40
0
40
0
40
0.022321005985059247
40
0.04491318692149289
40
0.04491318692149289
40
0.04491318692149289
40
0.04491318692149289
10
-18.995247617177569
20
21.066966491227049
30
0
10
-19.071409488152348
20
21.05928345256568
30
0
10
-19.224658510605487
20
21.043824035021757
30
0
10
-19.337975069901368
20
20.939407803706338
30
0
10
-19.394975438527666
20
20.886884468083281
30
0
0
SPLINE
5
203
100
AcDbEntity
8
0
100
AcDbSpline
70
0
71
3
72
9
73
5
74
0
42
0.000000001
43
0.0000000001
44
0.0000000001
40
0
40
0
40
0
40
0
40
0.024400981631138099
40
0.052121240647907047
40
0.052121240647907047
40
0.052121240647907047
40
0.052121240647907047
10
-19.394975438527666
20
20.886884468083281
30
0
10
-19.442275164241803
20
20.818732495541514
30
0
10
-19.54330882033786
20
20.673157804523917
30
0
10
-19.552456619056329
20
20.495627489204196
30
0
10
-19.557321801595293
20
20.401209431176085
30
0
0
SPLINE
5
204
100
AcDbEntity
8
0
100
AcDbSpline
70
0
71
3
72
9
73
5
74
0
42
0.000000001
43
0.0000000001
44
0.0000000001
40
0
40
0
40
0
40
0
40
0.026210855577046333
40
0.049293109748681813
40
0.049293109748681813
40
0.049293109748681813
40
0.049293109748681813
10
-19.557321801595293
20
20.401209431176085
30
0
10
-19.552654007704955
20
20.311879346915596
30
0
10
-19.543875580925089
20
20.143881868375924
30
0
10
-19.447109019592755
20
20.006943026227479
30
0
10
-19.401796594075762
20
19.942819314484495
30
0
0
SPLINE
5
205
100
AcDbEntity
8
0
100
AcDbSpline
70
0
71
3
72
9
73
5
74
0
42
0.000000001
43
0.0000000001
44
0.0000000001
40
0
40
0
40
0
40
0
40
0.021419781217216632
40
0.042516539187181637
40
0.042516539187181637
40
0.042516539187181637
40
0.042516539187181637
10
-19.401796594075762
20
19.942819314484495
30
0
10
-19.347400129040228
20
19.893479483829765
30
0
10
-19.239427530540084
20
19.795543896988441
30
0
10
-19.094464340845555
20
19.780911908274494
30
0
10
-19.022533431462847
20
19.773651497845549
30
0
0
SPLINE
5
206
100
AcDbEntity
8
0
100
AcDbSpline
70
0
71
3
72
9
73
5
74
0
42
0.000000001
43
0.0000000001
44
0.0000000001
40
0
40
0
40
0
40
0
40
0.016229789110182191
40
0.03574034602400545
40
0.03574034602400545
40
0.03574034602400545
40
0.03574034602400545
10
-19.022533431462847
20
19.773651497845549
30
0
10
-18.968391547171944
20
19.776805068275046
30
0
10
-18.849163277117928
20
19.783749687061906
30
0
10
-18.73362624185328
20
19.814282344773719
30
0
10
-18.670554891042315
20
19.83095003891458
30
0
0
LINE
5
207
100
AcDbEntity
8
0
100
AcDbLine
10
-18.670554891042315
20
19.83095003891458
30
0
11
-18.755138650350176
21
19.206120806221861
31
0
0
SPLINE
5
208
100
AcDbEntity
8
0
100
AcDbSpline
70
0
71
3
72
9
73
5
74
0
42
0.000000001
43
0.0000000001
44
0.0000000001
40
0
40
0
40
0
40
0
40
0.027581669273767033
40
0.050236779925148606
40
0.050236779925148606
40
0.050236779925148606
40
0.050236779925148606
10
-18.755138650350176
20
19.206120806221861
30
0
10
-18.849294588187618
20
19.205255455179721
30
0
10
-19.02078860041858
20
19.203679319615539
30
0
10
-19.164907542970134
20
19.112278211715847
30
0
10
-19.229900374822222
20
19.071059363369841
30
0
0
SPLINE
5
209
100
AcDbEntity
8
0
100
AcDbSpline
70
0
71
3
72
9
73
5
74
0
42
0.000000001
43
0.0000000001
44
0.0000000001
40
0
40
0
40
0
40
0
40
0.020710238119513721
40
0.042483099510828945
40
0.042483099510828945
40
0.042483099510828945
40
0.042483099510828945
10
-19.229900374822222
20
19.071059363369841
30
0
10
-19.277641125170362
20
19.018442084565809
30
0
10
-19.375572159862376
20
18.910507782771642
30
0
10
-19.387498279328156
20
18.76500345503376
30
0
10
-19.39361049216231
20
18.690431552414793
30
0
0
SPLINE
5
210
100
AcDbEntity
8
0
100
AcDbSpline
70
0
71
3
72
9
73
5
74
0
42
0.000000001
43
0.0000000001
44
0.0000000001
40
0
40
0
40
0
40
0
40
0.01839114563168031
40
0.035080312932884453
40
0.035080312932884453
40
0.035080312932884453
40
0.035080312932884453
10
-19.39361049216231
20
18.690431552414793
30
0
10
-19.38965339944188
20
18.627625599289605
30
0
10
-19.382105416639874
20
18.507825966694437
30
0
10
-19.308549584510864
20
18.413392951144331
30
0
10
-19.273556008748614
20
18.368467228894133
30
0
0
SPLINE
5
211
100
AcDbEntity
8
0
100
AcDbSpline
70
0
71
3
72
9
73
5
74
0
42
0.000000001
43
0.0000000001
44
0.0000000001
40
0
40
0
40
0
40
0
40
0.016631758142000724
40
0.034821015694907906
40
0.034821015694907906
40
0.034821015694907906
40
0.034821015694907906
10
-19.273556008748614
20
18.368467228894133
30
0
10
-19.228870582073768
20
18.333470373554125
30
0
10
-19.135315112453927
20
18.260199343596728
30
0
10
-19.016424764383327
20
18.252456850107784
30
0
10
-18.954320683888994
20
18.248412447457213
30
0
0
SPLINE
5
212
100
AcDbEntity
8
0
100
AcDbSpline
70
0
71
3
72
9
73
5
74
0
42
0.000000001
43
0.0000000001
44
0.0000000001
40
0
40
0
40
0
40
0
40
0.018529394487359175
40
0.036975319070502596
40
0.036975319070502596
40
0.036975319070502596
40
0.036975319070502596
10
-18.954320683888994
20
18.248412447457213
30
0
10
-18.891276618999175
20
18.254045389563299
30
0
10
-18.765472485658883
20
18.265285898896742
30
0
10
-18.667559253972637
20
18.345047479289452
30
0
10
-18.618713155202471
20
18.384838240628142
30
0
0
SPLINE
5
213
100
AcDbEntity
8
0
100
AcDbSpline
70
0
71
3
72
9
73
5
74
0
42
0.000000001
43
0.0000000001
44
0.0000000001
40
0
40
0
40
0
40
0
40
0.020167499796685497
40
0.043924750358909366
40
0.043924750358909366
40
0.043924750358909366
40
0.043924750358909366
10
-18.618713155202471
20
18.384838240628142
30
0
10
-18.576584797695713
20
18.438636353264361
30
0
10
-18.48482936915125
20
18.555808471332998
30
0
10
-18.461930679344011
20
18.703383380430097
30
0
10
-18.449545636586748
20
18.783201115612883
30
0
0
LINE
5
214
100
AcDbEntity
8
0
100
AcDbLine
10
-18.449545636586748
20
18.783201115612883
30
0
11
-17.742861047200762
21
18.663146632199187
31
0
0
SPLINE
5
215
100
AcDbEntity
8
0
100
AcDbSpline
70
0
71
3
72
9
73
5
74
0
42
0.000000001
43
0.0000000001
44
0.0000000001
40
0
40
0
40
0
40
0
40
0.033923272455613267
40
0.062401799617762939
40
0.062401799617762939
40
0.062401799617762939
40
0.062401799617762939
10
-17.742861047200762
20
18.663146632199187
30
0
10
-17.768020064037607
20
18.552123803510383
30
0
10
-17.814300030962581
20
18.347897506713675
30
0
10
-17.917936924833494
20
18.166240928577523
30
0
10
-17.965234055928789
20
18.083337681774992
30
0
0
SPLINE
5
216
100
AcDbEntity
8
0
100
AcDbSpline
70
0
71
3
72
9
73
5
74
0
42
0.000000001
43
0.0000000001
44
0.0000000001
40
0
40
0
40
0
40
0
40
0.026310798893240964
40
0.05419182451536958
40
0.05419182451536958
40
0.05419182451536958
40
0.05419182451536958
10
-17.965234055928789
20
18.083337681774992
30
0
10
-18.020910988836889
20
18.014338004672176
30
0
10
-18.135587650307812
20
17.872220754323937
30
0
10
-18.296949341723455
20
17.786417872669865
30
0
10
-18.379967942647539
20
17.742273347859282
30
0
0
SPLINE
5
217
100
AcDbEntity
8
0
100
AcDbSpline
70
0
71
3
72
9
73
5
74
0
42
0.000000001
43
0.0000000001
44
0.0000000001
40
0
40
0
40
0
40
0
40
0.029703201140831127
40
0.061268045996781262
40
0.061268045996781262
40
0.061268045996781262
40
0.061268045996781262
10
-18.379967942647539
20
17.742273347859282
30
0
10
-18.472894944428969
20
17.706073007290641
30
0
10
-18.664573134011739
20
17.63140347519062
30
0
10
-18.870206904683894
20
17.622640652864391
30
0
10
-18.976147904805742
20
17.618126111512083
30
0
0
SPLINE
5
218
100
AcDbEntity
8
0
100
AcDbSpline
70
0
71
3
72
9
73
5
74
0
42
0.000000001
43
0.0000000001
44
0.0000000001
40
0
40
0
40
0
40
0
40
0.051677337237113943
40
0.099695426376283064
40
0.099695426376283064
40
0.099695426376283064
40
0.099695426376283064
10
-18.976147904805742
20
17.618126111512083
30
0
10
-19.152821885997287
20
17.630803750815996
30
0
10
-19.493659646342195
20
17.655261331709717
30
0
10
-19.755769754210235
20
17.873281102784368
30
0
10
-19.882014527730547
20
17.978289859776396
30
0
0
SPLINE
5
219
100
AcDbEntity
8
0
100
AcDbSpline
70
0
71
3
72
9
73
5
74
0
42
0.000000001
43
0.0000000001
44
0.0000000001
40
0
40
0
40
0
40
0
40
0.037800053351374235
40
0.073692251048246282
40
0.073692251048246282
40
0.073692251048246282
40
0.073692251048246282
10
-19.882014527730547
20
17.978289859776396
30
0
10
-19.963967413297816
20
18.078017689100644
30
0
10
-20.123736833759011
20
18.272439854771797
30
0
10
-20.150174846873927
20
18.522334446960421
30
0
10
-20.163051619939409
20
18.64404691982736
30
0
0
SPLINE
5
220
100
AcDbEntity
8
0
100
AcDbSpline
70
0
71
3
72
9
73
5
74
0
42
0.000000001
43
0.0000000001
44
0.0000000001
40
0
40
0
40
0
40
0
40
0.049479310101520894
40
0.10614665243033097
40
0.10614665243033097
40
0.10614665243033097
40
0.10614665243033097
10
-20.163051619939409
20
18.64404691982736
30
0
10
-20.133184154013463
20
18.813729650019813
30
0
10
-20.069110271048814
20
19.177745513381947
30
0
10
-19.755016761373248
20
19.377687876255688
30
0
10
-19.587335124425493
20
19.484428899769682
30
0
0
SPLINE
5
221
100
AcDbEntity
8
0
100
AcDbSpline
70
0
71
3
72
9
73
5
74
0
42
0.000000001
43
0.0000000001
44
0.0000000001
40
0
40
0
40
0
40
0
40
0.033157783013302272
40
0.065133382100501264
40
0.065133382100501264
40
0.065133382100501264
40
0.065133382100501264
10
-19.587335124425493
20
19.484428899769682
30
0
10
-19.695541025039553
20
19.515803258473131
30
0
10
-19.908094930329195
20
19.577433376891179
30
0
10
-20.061714889126023
20
19.736492797192533
30
0
10
-20.137130752019488
20
19.814579027180571
30
0
0
SPLINE
5
222
100
AcDbEntity
8
0
100
AcDbSpline
70
0
71
3
72
9
73
5
74
0
42
0.000000001
43
0.0000000001
44
0.0000000001
40
0
40
0
40
0
40
0
40
0.032250057032027074
40
0.0662710647461211
40
0.0662710647461211
40
0.0662710647461211
40
0.0662710647461211
10
-20.137130752019488
20
19.814579027180571
30
0
10
-20.197202581447318
20
19.906044456443077
30
0
10
-20.320644970819721
20
20.093997965445176
30
0
10
-20.335504460389725
20
20.318632666281662
30
0
10
-20.343132749013506
20
20.433951454644102
30
0
0
SPLINE
5
223
100
AcDbEntity
8
0
100
AcDbSpline
70
0
71
3
72
9
73
5
74
0
42
0.000000001
43
0.0000000001
44
0.0000000001
40
0
40
0
40
0
40
0
40
0.04971149665479252
40
0.099843428943412416
40
0.099843428943412416
40
0.099843428943412416
40
0.099843428943412416
10
-20.343132749013506
20
20.433951454644102
30
0
10
-20.326834170678325
20
20.603263668384962
30
0
10
-20.29409916856828
20
20.943320056131203
30
0
10
-20.070622324234122
20
21.201832007574861
30
0
10
-19.958413377217852
20
21.331632273678679
30
0
0
SPLINE
5
224
100
AcDbEntity
8
0
100
AcDbSpline
70
0
71
3
72
9
73
5
74
0
42
0.000000001
43
0.0000000001
44
0.0000000001
40
0
40
0
40
0
40
0
40
0.051370816431570696
40
0.10477479614354243
40
0.10477479614354243
40
0.10477479614354243
40
0.10477479614354243
10
-19.958413377217852
20
21.331632273678679
30
0
10
-19.820540037901377
20
21.439851613545304
30
0
10
-19.539336583801013
20
21.660573417498302
30
0
10
-19.182556654568643
20
21.68848389112647
30
0
10
-19.000705018453203
20
21.702709930424589
30
0
0
SPLINE
5
225
100
AcDbEntity
8
0
100
AcDbSpline
70
0
71
3
72
9
73
5
74
0
42
0.000000001
43
0.0000000001
44
0.0000000001
40
0
40
0
40
0
40
0
40
0.05081967048042977
40
0.096654300431880696
40
0.096654300431880696
40
0.096654300431880696
40
0.096654300431880696
10
-15.936584010533892
20
21.702709930424589
30
0
10
-15.763857838240366
20
21.693082954381889
30
0
10
-15.435348676502763
20
21.674773338717621
30
0
10
-15.162727106569749
20
21.491983337935196
30
0
10
-15.033446684293352
20
21.405302124504942
30
0
0
SPLINE
5
226
100
AcDbEntity
8
0
100
AcDbSpline
70
0
71
3
72
9
73
5
74
0
42
0.000000001
43
0.0000000001
44
0.0000000001
40
0
40
0
40
0
40
0
40
0.044646946911773434
40
0.091814012546361054
40
0.091814012546361054
40
0.091814012546361054
40
0.091814012546361054
10
-15.033446684293352
20
21.405302124504942
30
0
10
-14.928461890508711
20
21.295452979154845
30
0
10
-14.712566384982475
20
21.069554199797963
30
0
10
-14.648761962665088
20
20.763219481566011
30
0
10
-14.615984096936785
20
20.605847971920866
30
0
0
LINE
5
227
100
AcDbEntity
8
0
100
AcDbLine
10
-14.615984096936783
20
20.605847971920866
30
0
11
-15.379967227391802
21
20.526721017842192
31
0
0
SPLINE
5
228
100
AcDbEntity
8
0
100
AcDbSpline
70
0
71
3
72
9
73
5
74
0
42
0.000000001
43
0.0000000001
44
0.0000000001
40
0
40
0
40
0
40
0
40
0.02411355748150646
40
0.046122384564590758
40
0.046122384564590758
40
0.046122384564590758
40
0.046122384564590758
10
-15.379967227391802
20
20.526721017842192
30
0
10
-15.394907069174495
20
20.607351799625128
30
0
10
-15.423482741949613
20
20.761575577182132
30
0
10
-15.525168922546866
20
20.880576777832808
30
0
10
-15.573691859654986
20
20.93736215162744
30
0
0
SPLINE
5
229
100
AcDbEntity
8
0
100
AcDbSpline
70
0
71
3
72
9
73
5
74
0
42
0.000000001
43
0.0000000001
44
0.0000000001
40
0
40
0
40
0
40
0
40
0.020716708261163043
40
0.040857535318890532
40
0.040857535318890532
40
0.040857535318890532
40
0.040857535318890532
10
-15.573691859654986
20
20.93736215162744
30
0
10
-15.628891822594788
20
20.981527520836131
30
0
10
-15.737757304841427
20
21.0686305542702
30
0
10
-15.876417307646085
20
21.082136711359425
30
0
10
-15.944770112447344
20
21.088794606213469
30
0
0
SPLINE
5
230
100
AcDbEntity
8
0
100
AcDbSpline
70
0
71
3
72
9
73
5
74
0
42
0.000000001
43
0.0000000001
44
0.0000000001
40
0
40
0
40
0
40
0
40
0.022699274064833599
40
0.04627477807384784
40
0.04627477807384784
40
0.04627477807384784
40
0.04627477807384784
10
-15.944770112447344
20
21.088794606213469
30
0
10
-16.022240278664363
20
21.080067283515127
30
0
10
-16.180171089085761
20
21.062275748865567
30
0
10
-16.293553316469964
20
20.950600733224533
30
0
10
-16.351317897252642
20
20.8937059216546
30
0
0
SPLINE
5
231
100
AcDbEntity
8
0
100
AcDbSpline
70
0
71
3
72
9
73
5
74
0
42
0.000000001
43
0.0000000001
44
0.0000000001
40
0
40
0
40
0
40
0
40
0.027456108298008607
40
0.062052397856261501
40
0.062052397856261501
40
0.062052397856261501
40
0.062052397856261501
10
-16.351317897252642
20
20.8937059216546
30
0
10
-16.399698206532705
20
20.814258293708512
30
0
10
-16.509040512706267
20
20.634702044711478
30
0
10
-16.514637435473929
20
20.423476679248282
30
0
10
-16.517757907323443
20
20.305711465363402
30
0
0
SPLINE
5
232
100
AcDbEntity
8
0
100
AcDbSpline
70
0
71
3
72
9
73
5
74
0
42
0.000000001
43
0.0000000001
44
0.0000000001
40
0
40
0
40
0
40
0
40
0.032493693190892389
40
0.058633408099276814
40
0.058633408099276814
40
0.058633408099276814
40
0.058633408099276814
10
-16.517757907323443
20
20.305711465363402
30
0
10
-16.514404637915835
20
20.194939523793369
30
0
10
-16.508353814068638
20
19.995056536720504
30
0
10
-16.400683844910866
20
19.827767551302035
30
0
10
-16.352682843617998
20
19.753187435154814
30
0
0
SPLINE
5
233
100
AcDbEntity
8
0
100
AcDbSpline
70
0
71
3
72
9
73
5
74
0
42
0.000000001
43
0.0000000001
44
0.0000000001
40
0
40
0
40
0
40
0
40
0.023488273301967184
40
0.047903172264339766
40
0.047903172264339766
40
0.047903172264339766
40
0.047903172264339766
10
-16.352682843617998
20
19.753187435154814
30
0
10
-16.292684116330921
20
19.69947554971802
30
0
10
-16.170319678046155
20
19.589932814598971
30
0
10
-16.006457593194149
20
19.576075593015439
30
0
10
-15.9229416994377
20
19.569012957100767
30
0
0
SPLINE
5
234
100
AcDbEntity
8
0
100
AcDbSpline
70
0
71
3
72
9
73
5
74
0
42
0.000000001
43
0.0000000001
44
0.0000000001
40
0
40
0
40
0
40
0
40
0.032149196192288169
40
0.067614725544963505
40
0.067614725544963505
40
0.067614725544963505
40
0.067614725544963505
10
-15.9229416994377
20
19.569012957100767
30
0
10
-15.813805740275409
20
19.583396770950966
30
0
10
-15.58427596037955
20
19.613648153285823
30
0
10
-15.418045838807902
20
19.77587291796468
30
0
10
-15.330854192189776
20
19.860963659768004
30
0
0
LINE
5
235
100
AcDbEntity
8
0
100
AcDbLine
10
-15.330854192189776
20
19.860963659768004
30
0
11
-14.708753362111651
21
19.770922797207731
31
0
0
LINE
5
236
100
AcDbEntity
8
0
100
AcDbLine
10
-14.708753362111651
20
19.770922797207731
30
0
11
-15.101658835820757
21
17.689067559723753
31
0
0
LINE
5
237
100
AcDbEntity
8
0
100
AcDbLine
10
-15.101658835820757
20
17.689067559723753
30
0
11
-17.128945126943194
21
17.689067559723753
31
0
0
LINE
5
238
100
AcDbEntity
8
0
100
AcDbLine
10
-17.128945126943194
20
17.689067559723753
30
0
11
-17.128945126943194
21
18.406666355614561
31
0
0
LINE
5
239
100
AcDbEntity
8
0
100
AcDbLine
10
-17.128945126943194
20
18.406666355614561
30
0
11
-15.682832732610308
21
18.406666355614561
31
0
0
LINE
5
240
100
AcDbEntity
8
0
100
AcDbLine
10
-15.682832732610308
20
18.406666355614561
30
0
11
-15.562778249196612
21
19.086066024784941
31
0
0
SPLINE
5
241
100
AcDbEntity
8
0
100
AcDbSpline
70
0
71
3
72
9
73
5
74
0
42
0.000000001
43
0.0000000001
44
0.0000000001
40
0
40
0
40
0
40
0
40
0.027647735933658338
40
0.054307814249764476
40
0.054307814249764476
40
0.054307814249764476
40
0.054307814249764476
10
-15.562778249196612
20
19.086066024784941
30
0
10
-15.647886153219584
20
19.048666294568296
30
0
10
-15.815061659161813
20
18.975202861379032
30
0
10
-15.997226861989995
20
18.963547655816026
30
0
10
-16.086653008870684
20
18.95782603550424
30
0
0
SPLINE
5
242
100
AcDbEntity
8
0
100
AcDbSpline
70
0
71
3
72
9
73
5
74
0
42
0.000000001
43
0.0000000001
44
0.0000000001
40
0
40
0
40
0
40
0
40
0.04803924894445525
40
0.09624375278058668
40
0.09624375278058668
40
0.09624375278058668
40
0.09624375278058668
10
-16.086653008870684
20
18.95782603550424
30
0
10
-16.250350900151702
20
18.973393524360272
30
0
10
-16.578309803034848
20
19.004582054193591
30
0
10
-16.82702192195552
20
19.220672800358386
30
0
10
-16.951591506414019
20
19.328903692250151
30
0
0
SPLINE
5
243
100
AcDbEntity
8
0
100
AcDbSpline
70
0
71
3
72
9
73
5
74
0
42
0.000000001
43
0.0000000001
44
0.0000000001
40
0
40
0
40
0
40
0
40
0.050252237408109066
40
0.10466320942070234
40
0.10466320942070234
40
0.10466320942070234
40
0.10466320942070234
10
-16.951591506414019
20
19.328903692250151
30
0
10
-17.055002116923021
20
19.465454379505228
30
0
10
-17.270381310811011
20
19.749856306938874
30
0
10
-17.294012483343245
20
20.106606252700814
30
0
10
-17.306297555379473
20
20.292068856243986
30
0
0
SPLINE
5
244
100
AcDbEntity
8
0
100
AcDbSpline
70
0
71
3
72
9
73
5
74
0
42
0.000000001
43
0.0000000001
44
0.0000000001
40
0
40
0
40
0
40
0
40
0.047271558972563077
40
0.093919997280424994
40
0.093919997280424994
40
0.093919997280424994
40
0.093919997280424994
10
-17.306297555379473
20
20.292068856243986
30
0
10
-17.294680302505029
20
20.451820902713127
30
0
10
-17.271598932182393
20
20.769219188194516
30
0
10
-17.103363756253426
20
21.039255833879118
30
0
10
-17.019804253987871
20
21.17337836552133
30
0
0
SPLINE
5
245
100
AcDbEntity
8
0
100
AcDbSpline
70
0
71
3
72
9
73
5
74
0
42
0.000000001
43
0.0000000001
44
0.0000000001
40
0
40
0
40
0
40
0
40
0.061209888681501019
40
0.12434497875302225
40
0.12434497875302225
40
0.12434497875302225
40
0.12434497875302225
10
-17.019804253987871
20
21.17337836552133
30
0
10
-16.875385942870771
20
21.327756399511458
30
0
10
-16.582007009920176
20
21.641368035963229
30
0
10
-16.15393425718128
20
21.682052662394675
30
0
10
-15.936584010533892
20
21.702709930424589
30
0
0
SPLINE
5
246
100
AcDbEntity
8
0
100
AcDbSpline
70
0
71
3
72
9
73
5
74
0
42
0.000000001
43
0.0000000001
44
0.0000000001
40
0
40
0
40
0
40
0
40
0.089957457082513362
40
0.17724922899129636
40
0.17724922899129636
40
0.17724922899129636
40
0.17724922899129636
10
-9.2694632558151113
20
19.942819016461272
30
0
10
-9.3848864609709572
20
19.664791266753436
30
0
10
-9.6123125664333706
20
19.116974488999297
30
0
10
-9.9612117099136306
20
18.637393494366911
30
0
10
-10.133037701062761
20
18.40120925236215
30
0
0
LINE
5
247
100
AcDbEntity
8
0
100
AcDbLine
10
-10.133037701062763
20
18.40120925236215
30
0
11
-8.3895177988334524
21
18.40120925236215
31
0
0
LINE
5
248
100
AcDbEntity
8
0
100
AcDbLine
10
-8.3895177988334524
20
18.40120925236215
30
0
11
-8.3895177988334524
21
17.689067559723753
31
0
0
LINE
5
249
100
AcDbEntity
8
0
100
AcDbLine
10
-8.3895177988334524
20
17.689067559723753
30
0
11
-11.011619105748736
21
17.689067559723753
31
0
0
LINE
5
250
100
AcDbEntity
8
0
100
AcDbLine
10
-11.011619105748736
20
17.689067559723753
30
0
11
-11.011619105748736
21
18.245684044842619
31
0
0
SPLINE
5
251
100
AcDbEntity
8
0
100
AcDbSpline
70
0
71
3
72
9
73
5
74
0
42
0.000000001
43
0.0000000001
44
0.0000000001
40
0
40
0
40
0
40
0
40
0.050831139095332413
40
0.11324568359359569
40
0.11324568359359569
40
0.11324568359359569
40
0.11324568359359569
10
-11.011619105748736
20
18.245684044842619
30
0
10
-10.898265282974748
20
18.372208569112004
30
0
10
-10.645726556193269
20
18.654090039746944
30
0
10
-10.455926040730713
20
18.981831776071033
30
0
10
-10.351318850926958
20
19.162464278225798
30
0
0
SPLINE
5
252
100
AcDbEntity
8
0
100
AcDbSpline
70
0
71
3
72
9
73
5
74
0
42
0.000000001
43
0.0000000001
44
0.0000000001
40
0
40
0
40
0
40
0
40
0.068357124646317574
40
0.13721137109919862
40
0.13721137109919862
40
0.13721137109919862
40
0.13721137109919862
10
-10.351318850926958
20
19.162464278225798
30
0
10
-10.245995157195098
20
19.365175506668226
30
0
10
-10.034581811461882
20
19.772072165000488
30
0
10
-9.9048321997162283
20
20.21188450451179
30
0
10
-9.8397223500533926
20
20.432587402348418
30
0
0
SPLINE
5
253
100
AcDbEntity
8
0
100
AcDbSpline
70
0
71
3
72
9
73
5
74
0
42
0.000000001
43
0.0000000001
44
0.0000000001
40
0
40
0
40
0
40
0
40
0.065016448800086307
40
0.12168625991097419
40
0.12168625991097419
40
0.12168625991097419
40
0.12168625991097419
10
-9.8397223500533926
20
20.432587402348418
30
0
10
-9.7885453608093478
20
20.643808698011163
30
0
10
-9.6927613472320981
20
21.039135264704782
30
0
10
-9.6748180504500407
20
21.445330381571452
30
0
10
-9.6664617804809438
20
21.634497182850737
30
0
0
LINE
5
254
100
AcDbEntity
8
0
100
AcDbLine
10
-9.6664617804809438
20
21.634497182850737
30
0
11
-8.9270348696037161
21
21.634497182850737
31
0
0
SPLINE
5
255
100
AcDbEntity
8
0
100
AcDbSpline
70
0
71
3
72
9
73
5
74
0
42
0.000000001
43
0.0000000001
44
0.0000000001
40
0
40
0
40
0
40
0
40
0.084304085082729741
40
0.17321424382321238
40
0.17321424382321238
40
0.17321424382321238
40
0.17321424382321238
10
-8.9270348696037161
20
21.634497182850737
30
0
10
-8.9474538901247662
20
21.353018524485545
30
0
10
-8.9894075534104001
20
20.774682220696072
30
0
10
-9.1744709669879398
20
20.22497927630549
30
0
10
-9.2694632558151113
20
19.942819016461272
30
0
0
ENDSEC
0
SECTION
2
OBJECTS
0
DICTIONARY
5
C
100
AcDbDictionary
3
ACAD_GROUP
350
D
3
ACAD_MLINESTYLE
350
17
0
DICTIONARY
5
D
100
AcDbDictionary
0
DICTIONARY
5
1A
330
C
100
AcDbDictionary
0
DICTIONARY
5
17
100
AcDbDictionary
0
ENDSEC
0
EOF
