0
SECTION
2
HEADER
9
$INSUNITS
70
4
9
$ACADVER
1
AC1014
9
$HANDSEED
5
FFFF
0
ENDSEC
0
SECTION
2
TABLES
0
TABLE
2
VPORT
5
8
100
AcDbSymbolTable
0
ENDTAB
0
TABLE
2
LTYPE
5
5
100
AcDbSymbolTable
0
LTYPE
5
14
100
AcDbSymbolTableRecord
100
AcDbLinetypeTableRecord
2
BYBLOCK
70
0
0
LTYPE
5
15
100
AcDbSymbolTableRecord
100
AcDbLinetypeTableRecord
2
BYLAYER
70
0
0
ENDTAB
0
TABLE
2
LAYER
5
2
100
AcDbSymbolTable
70
2
0
LAYER
5
50
100
AcDbSymbolTableRecord
100
AcDbLayerTableRecord
2
0
70
0
6
CONTINUOUS
0
ENDTAB
0
TABLE
2
STYLE
5
3
100
AcDbSymbolTable
70
1
0
STYLE
5
11
100
AcDbSymbolTableRecord
100
AcDbTextStyleTableRecord
2
STANDARD
70
0
0
ENDTAB
0
TABLE
2
VIEW
5
6
100
AcDbSymbolTable
70
0
0
ENDTAB
0
TABLE
2
UCS
5
7
100
AcDbSymbolTable
70
0
0
ENDTAB
0
TABLE
2
APPID
5
9
100
AcDbSymbolTable
70
2
0
APPID
5
12
100
AcDbSymbolTableRecord
100
AcDbRegAppTableRecord
2
ACAD
70
0
0
ENDTAB
0
TABLE
2
DIMSTYLE
5
A
100
AcDbSymbolTable
70
1
0
ENDTAB
0
TABLE
2
BLOCK_RECORD
5
1
100
AcDbSymbolTable
70
1
0
BLOCK_RECORD
5
1F
100
AcDbSymbolTableRecord
100
AcDbBlockTableRecord
2
*MODEL_SPACE
0
BLOCK_RECORD
5
1B
100
AcDbSymbolTableRecord
100
AcDbBlockTableRecord
2
*PAPER_SPACE
0
ENDTAB
0
ENDSEC
0
SECTION
2
BLOCKS
0
BLOCK
5
20
100
AcDbEntity
100
AcDbBlockBegin
2
*MODEL_SPACE
0
ENDBLK
5
21
100
AcDbEntity
100
AcDbBlockEnd
0
BLOCK
5
1C
100
AcDbEntity
100
AcDbBlockBegin
2
*PAPER_SPACE
0
ENDBLK
5
1D
100
AcDbEntity
100
AcDbBlockEnd
0
ENDSEC
0
SECTION
2
ENTITIES
0
LINE
5
100
100
AcDbEntity
8
0
100
AcDbLine
10
0
20
0
30
0
11
450
21
0
31
0
0
LINE
5
101
100
AcDbEntity
8
0
100
AcDbLine
10
450
20
0
30
0
11
450
21
-30
31
0
0
LINE
5
102
100
AcDbEntity
8
0
100
AcDbLine
10
450
20
-30
30
0
11
0
21
-30
31
0
0
LINE
5
103
100
AcDbEntity
8
0
100
AcDbLine
10
0
20
-30
30
0
11
0
21
0
31
0
0
LINE
5
104
100
AcDbEntity
8
0
100
AcDbLine
10
0
20
-58.833535861992097
30
0
11
450
21
-58.833535861992097
31
0
0
LINE
5
105
100
AcDbEntity
8
0
100
AcDbLine
10
450
20
-58.833535861992097
30
0
11
450
21
-88.83353586199209
31
0
0
LINE
5
106
100
AcDbEntity
8
0
100
AcDbLine
10
450
20
-88.83353586199209
30
0
11
0
21
-88.83353586199209
31
0
0
LINE
5
107
100
AcDbEntity
8
0
100
AcDbLine
10
0
20
-88.83353586199209
30
0
11
0
21
-58.833535861992097
31
0
0
LINE
5
108
100
AcDbEntity
8
0
100
AcDbLine
10
0
20
-88.83353586199209
30
0
11
18
21
-88.83353586199209
31
0
0
LINE
5
109
100
AcDbEntity
8
0
100
AcDbLine
10
18
20
-88.83353586199209
30
0
11
18
21
-78.83353586199209
31
0
0
LINE
5
110
100
AcDbEntity
8
0
100
AcDbLine
10
18
20
-78.83353586199209
30
0
11
0
21
-78.83353586199209
31
0
0
LINE
5
111
100
AcDbEntity
8
0
100
AcDbLine
10
0
20
-78.83353586199209
30
0
11
0
21
-68.83353586199209
31
0
0
LINE
5
112
100
AcDbEntity
8
0
100
AcDbLine
10
0
20
-68.83353586199209
30
0
11
18
21
-68.83353586199209
31
0
0
LINE
5
113
100
AcDbEntity
8
0
100
AcDbLine
10
18
20
-68.83353586199209
30
0
11
18
21
-58.833535861992097
31
0
0
LINE
5
114
100
AcDbEntity
8
0
100
AcDbLine
10
0
20
-30
30
0
11
18
21
-30
31
0
0
LINE
5
115
100
AcDbEntity
8
0
100
AcDbLine
10
18
20
-30
30
0
11
18
21
-20
31
0
0
LINE
5
116
100
AcDbEntity
8
0
100
AcDbLine
10
18
20
-20
30
0
11
0
21
-20
31
0
0
LINE
5
117
100
AcDbEntity
8
0
100
AcDbLine
10
18
20
-20
30
0
11
18
21
0
31
0
0
LINE
5
118
100
AcDbEntity
8
0
100
AcDbLine
10
18
20
0
30
0
11
18
21
-10
31
0
0
LINE
5
119
100
AcDbEntity
8
0
100
AcDbLine
10
18
20
-10
30
0
11
0
21
-10
31
0
0
LINE
5
120
100
AcDbEntity
8
0
100
AcDbLine
10
450
20
-88.83353586199209
30
0
11
432
21
-88.83353586199209
31
0
0
LINE
5
121
100
AcDbEntity
8
0
100
AcDbLine
10
432
20
-88.83353586199209
30
0
11
432
21
-78.83353586199209
31
0
0
LINE
5
122
100
AcDbEntity
8
0
100
AcDbLine
10
432
20
-78.83353586199209
30
0
11
450
21
-78.83353586199209
31
0
0
LINE
5
123
100
AcDbEntity
8
0
100
AcDbLine
10
450
20
-78.83353586199209
30
0
11
450
21
-68.83353586199209
31
0
0
LINE
5
124
100
AcDbEntity
8
0
100
AcDbLine
10
450
20
-68.83353586199209
30
0
11
432
21
-68.83353586199209
31
0
0
LINE
5
125
100
AcDbEntity
8
0
100
AcDbLine
10
432
20
-68.83353586199209
30
0
11
432
21
-58.833535861992097
31
0
0
LINE
5
126
100
AcDbEntity
8
0
100
AcDbLine
10
450
20
-30
30
0
11
432
21
-30
31
0
0
LINE
5
127
100
AcDbEntity
8
0
100
AcDbLine
10
432
20
-30
30
0
11
432
21
-20
31
0
0
LINE
5
128
100
AcDbEntity
8
0
100
AcDbLine
10
432
20
-20
30
0
11
450
21
-20
31
0
0
LINE
5
129
100
AcDbEntity
8
0
100
AcDbLine
10
450
20
-20
30
0
11
450
21
-10
31
0
0
LINE
5
130
100
AcDbEntity
8
0
100
AcDbLine
10
450
20
-10
30
0
11
432
21
-10
31
0
0
LINE
5
131
100
AcDbEntity
8
0
100
AcDbLine
10
432
20
-10
30
0
11
432
21
0
31
0
0
LINE
5
132
100
AcDbEntity
8
0
100
AcDbLine
10
18
20
-88.83353586199209
30
0
11
33
21
-88.83353586199209
31
0
0
LINE
5
133
100
AcDbEntity
8
0
100
AcDbLine
10
18
20
-30
30
0
11
33
21
-30
31
0
0
LWPOLYLINE
5
134
100
AcDbEntity
8
0
100
AcDbPolyline
90
5
70
1
43
0.0
10
234
20
-20
10
225
20
-20
10
215.99999999999997
20
-20
10
215.99999999999997
20
-10
10
234
20
-10
0
LINE
5
135
100
AcDbEntity
8
0
100
AcDbLine
10
432
20
-88.83353586199209
30
0
11
417
21
-88.83353586199209
31
0
0
LINE
5
136
100
AcDbEntity
8
0
100
AcDbLine
10
432
20
-30
30
0
11
417
21
-30
31
0
0
LWPOLYLINE
5
137
100
AcDbEntity
8
0
100
AcDbPolyline
90
14
70
1
43
0.0
10
155.9108395867315
20
-391.84269760507851
10
155.9108395867315
20
-121.84269760507854
10
145.9108395867315
20
-121.84269760507854
10
145.9108395867315
20
-139.84269760507854
10
135.9108395867315
20
-139.84269760507854
10
135.9108395867315
20
-121.84269760507854
10
125.9108395867315
20
-121.84269760507853
10
125.9108395867315
20
-391.84269760507851
10
125.9108395867315
20
-421.84269760507851
10
135.9108395867315
20
-421.84269760507851
10
135.9108395867315
20
-403.84269760507857
10
145.9108395867315
20
-403.84269760507857
10
145.9108395867315
20
-421.84269760507851
10
155.9108395867315
20
-421.84269760507851
0
LWPOLYLINE
5
138
100
AcDbEntity
8
0
100
AcDbPolyline
90
14
70
1
43
0.0
10
217.4753776464097
20
-391.84269760507851
10
217.4753776464097
20
-121.84269760507854
10
207.4753776464097
20
-121.84269760507854
10
207.4753776464097
20
-139.84269760507854
10
197.4753776464097
20
-139.84269760507854
10
197.4753776464097
20
-121.84269760507854
10
187.4753776464097
20
-121.84269760507853
10
187.4753776464097
20
-391.84269760507851
10
187.4753776464097
20
-421.84269760507851
10
197.4753776464097
20
-421.84269760507851
10
197.4753776464097
20
-403.84269760507857
10
207.4753776464097
20
-403.84269760507857
10
207.4753776464097
20
-421.84269760507851
10
217.4753776464097
20
-421.84269760507851
0
LWPOLYLINE
5
139
100
AcDbEntity
8
0
100
AcDbPolyline
90
8
70
1
43
0.0
10
277.65644294070188
20
-391.84269760507851
10
277.65644294070188
20
-139.84269760507854
10
267.65644294070188
20
-139.84269760507854
10
267.65644294070188
20
-121.84269760507854
10
257.65644294070188
20
-121.84269760507854
10
257.65644294070188
20
-139.84269760507854
10
247.65644294070188
20
-139.84269760507857
10
247.65644294070188
20
-391.84269760507851
0
LINE
5
140
100
AcDbEntity
8
0
100
AcDbLine
10
343.37139929653813
20
-139.84269760507854
30
0
11
343.37139929653813
21
-391.84269760507851
31
0
0
LINE
5
141
100
AcDbEntity
8
0
100
AcDbLine
10
313.37139929653819
20
-391.84269760507851
30
0
11
313.37139929653819
21
-139.84269760507854
31
0
0
LINE
5
142
100
AcDbEntity
8
0
100
AcDbLine
10
125.9108395867315
20
-121.84269760507854
30
0
11
125.9108395867315
21
-139.84269760507854
31
0
0
LINE
5
143
100
AcDbEntity
8
0
100
AcDbLine
10
187.4753776464097
20
-121.84269760507854
30
0
11
187.4753776464097
21
-139.84269760507854
31
0
0
LINE
5
144
100
AcDbEntity
8
0
100
AcDbLine
10
125.9108395867315
20
-391.84269760507851
30
0
11
125.9108395867315
21
-373.84269760507857
31
0
0
LINE
5
145
100
AcDbEntity
8
0
100
AcDbLine
10
187.4753776464097
20
-391.84269760507851
30
0
11
187.4753776464097
21
-373.84269760507857
31
0
0
LINE
5
146
100
AcDbEntity
8
0
100
AcDbLine
10
343.37139929653813
20
-262.84269760507857
30
0
11
343.37139929653813
21
-280.84269760507857
31
0
0
LINE
5
147
100
AcDbEntity
8
0
100
AcDbLine
10
225
20
-88.83353586199209
30
0
11
375
21
-88.83353586199209
31
0
0
LINE
5
148
100
AcDbEntity
8
0
100
AcDbLine
10
375
20
-88.83353586199209
30
0
11
375
21
-78.83353586199209
31
0
0
LINE
5
149
100
AcDbEntity
8
0
100
AcDbLine
10
375
20
-78.83353586199209
30
0
11
357
21
-78.83353586199209
31
0
0
LINE
5
150
100
AcDbEntity
8
0
100
AcDbLine
10
357
20
-78.83353586199209
30
0
11
357
21
-68.83353586199209
31
0
0
LINE
5
151
100
AcDbEntity
8
0
100
AcDbLine
10
357
20
-68.83353586199209
30
0
11
375
21
-68.83353586199209
31
0
0
LINE
5
152
100
AcDbEntity
8
0
100
AcDbLine
10
375
20
-68.83353586199209
30
0
11
375
21
-78.83353586199209
31
0
0
LINE
5
153
100
AcDbEntity
8
0
100
AcDbLine
10
375
20
-30
30
0
11
375
21
-20
31
0
0
LINE
5
154
100
AcDbEntity
8
0
100
AcDbLine
10
375
20
-20
30
0
11
357
21
-20
31
0
0
LINE
5
155
100
AcDbEntity
8
0
100
AcDbLine
10
357
20
-20
30
0
11
357
21
-10
31
0
0
LINE
5
156
100
AcDbEntity
8
0
100
AcDbLine
10
357
20
-10
30
0
11
375
21
-10
31
0
0
LINE
5
157
100
AcDbEntity
8
0
100
AcDbLine
10
225
20
-30
30
0
11
75
21
-30
31
0
0
LINE
5
158
100
AcDbEntity
8
0
100
AcDbLine
10
75
20
-30
30
0
11
75
21
-20
31
0
0
LINE
5
159
100
AcDbEntity
8
0
100
AcDbLine
10
75
20
-20
30
0
11
93
21
-20
31
0
0
LINE
5
160
100
AcDbEntity
8
0
100
AcDbLine
10
93
20
-20
30
0
11
93
21
-10
31
0
0
LINE
5
161
100
AcDbEntity
8
0
100
AcDbLine
10
93
20
-10
30
0
11
75
21
-10
31
0
0
LINE
5
162
100
AcDbEntity
8
0
100
AcDbLine
10
75
20
-10
30
0
11
75
21
-20
31
0
0
LINE
5
163
100
AcDbEntity
8
0
100
AcDbLine
10
75
20
-68.83353586199209
30
0
11
75
21
-78.83353586199209
31
0
0
LINE
5
164
100
AcDbEntity
8
0
100
AcDbLine
10
75
20
-88.83353586199209
30
0
11
93
21
-88.83353586199209
31
0
0
LINE
5
165
100
AcDbEntity
8
0
100
AcDbLine
10
93
20
-78.83353586199209
30
0
11
93
21
-58.833535861992097
31
0
0
LINE
5
166
100
AcDbEntity
8
0
100
AcDbLine
10
93
20
-68.83353586199209
30
0
11
75
21
-68.83353586199209
31
0
0
LINE
5
167
100
AcDbEntity
8
0
100
AcDbLine
10
75
20
-68.83353586199209
30
0
11
75
21
-78.83353586199209
31
0
0
LINE
5
168
100
AcDbEntity
8
0
100
AcDbLine
10
75
20
-78.83353586199209
30
0
11
93
21
-78.83353586199209
31
0
0
LINE
5
169
100
AcDbEntity
8
0
100
AcDbLine
10
375
20
-68.83353586199209
30
0
11
375
21
-58.833535861992097
31
0
0
LINE
5
170
100
AcDbEntity
8
0
100
AcDbLine
10
375
20
-30
30
0
11
375
21
0
31
0
0
LINE
5
171
100
AcDbEntity
8
0
100
AcDbLine
10
215.99999999999997
20
-20
30
0
11
215.99999999999997
21
-30
31
0
0
LINE
5
172
100
AcDbEntity
8
0
100
AcDbLine
10
215.99999999999997
20
-58.833535861992097
30
0
11
215.99999999999997
21
-88.83353586199209
31
0
0
LINE
5
173
100
AcDbEntity
8
0
100
AcDbLine
10
215.99999999999997
20
-88.83353586199209
30
0
11
234
21
-88.83353586199209
31
0
0
LINE
5
174
100
AcDbEntity
8
0
100
AcDbLine
10
234
20
-88.83353586199209
30
0
11
234
21
-58.833535861992097
31
0
0
LINE
5
175
100
AcDbEntity
8
0
100
AcDbLine
10
125.9108395867315
20
-421.84269760507851
30
0
11
125.9108395867315
21
-403.84269760507857
31
0
0
LINE
5
176
100
AcDbEntity
8
0
100
AcDbLine
10
187.4753776464097
20
-421.84269760507851
30
0
11
187.4753776464097
21
-403.84269760507857
31
0
0
LINE
5
177
100
AcDbEntity
8
0
100
AcDbLine
10
323.37139929653813
20
-121.84269760507854
30
0
11
333.37139929653813
21
-121.84269760507854
31
0
0
LINE
5
178
100
AcDbEntity
8
0
100
AcDbLine
10
323.37139929653813
20
-139.84269760507854
30
0
11
323.37139929653813
21
-121.84269760507854
31
0
0
LINE
5
179
100
AcDbEntity
8
0
100
AcDbLine
10
333.37139929653813
20
-139.84269760507854
30
0
11
333.37139929653813
21
-121.84269760507854
31
0
0
LINE
5
180
100
AcDbEntity
8
0
100
AcDbLine
10
155.9108395867315
20
-121.84269760507854
30
0
11
155.9108395867315
21
-139.84269760507854
31
0
0
LWPOLYLINE
5
181
100
AcDbEntity
8
0
100
AcDbPolyline
90
12
70
1
43
0.0
10
0
20
-421.84269760507851
10
0
20
-121.84269760507854
10
10
20
-121.84269760507854
10
10
20
-139.84269760507854
10
20
20
-139.84269760507854
10
20
20
-121.84269760507854
10
30
20
-121.84269760507853
10
30
20
-421.84269760507851
10
20
20
-421.84269760507851
10
20
20
-403.84269760507857
10
10
20
-403.84269760507857
10
10
20
-421.84269760507851
0
LWPOLYLINE
5
182
100
AcDbEntity
8
0
100
AcDbPolyline
90
12
70
1
43
0.0
10
106.42491896443332
20
-121.84269760507853
10
106.42491896443332
20
-421.84269760507851
10
96.424918964433317
20
-421.84269760507851
10
96.424918964433317
20
-403.84269760507857
10
86.424918964433317
20
-403.84269760507857
10
86.424918964433317
20
-421.84269760507851
10
76.424918964433317
20
-421.84269760507851
10
76.424918964433317
20
-121.84269760507854
10
86.424918964433317
20
-121.84269760507854
10
86.424918964433317
20
-139.84269760507854
10
96.424918964433317
20
-139.84269760507854
10
96.424918964433317
20
-121.84269760507854
0
LINE
5
183
100
AcDbEntity
8
0
100
AcDbLine
10
0
20
-121.84269760507854
30
0
11
0
21
-139.84269760507854
31
0
0
LINE
5
184
100
AcDbEntity
8
0
100
AcDbLine
10
0
20
-421.84269760507851
30
0
11
0
21
-403.84269760507857
31
0
0
LINE
5
185
100
AcDbEntity
8
0
100
AcDbLine
10
76.424918964433317
20
-121.84269760507854
30
0
11
86.424918964433317
21
-121.84269760507854
31
0
0
LINE
5
186
100
AcDbEntity
8
0
100
AcDbLine
10
10
20
-139.84269760507854
30
0
11
20
21
-139.84269760507854
31
0
0
LINE
5
187
100
AcDbEntity
8
0
100
AcDbLine
10
313.37139929653819
20
-391.84269760507851
30
0
11
343.37139929653813
21
-391.84269760507851
31
0
0
LWPOLYLINE
5
188
100
AcDbEntity
8
0
100
AcDbPolyline
90
8
70
1
43
0.0
10
365.73663422980241
20
-391.84269760507851
10
365.73663422980241
20
-139.84269760507854
10
375.73663422980241
20
-139.84269760507854
10
375.73663422980241
20
-121.84269760507854
10
385.73663422980241
20
-121.84269760507854
10
385.73663422980241
20
-139.84269760507854
10
395.73663422980241
20
-139.84269760507857
10
395.73663422980241
20
-391.84269760507851
0
LWPOLYLINE
5
189
100
AcDbEntity
8
0
100
AcDbPolyline
90
8
70
1
43
0.0
10
416.64156384349354
20
-139.84269760507857
10
416.64156384349354
20
-391.84269760507851
10
446.64156384349354
20
-391.84269760507851
10
446.64156384349354
20
-139.84269760507854
10
436.64156384349354
20
-139.84269760507854
10
436.64156384349354
20
-121.84269760507854
10
426.64156384349354
20
-121.84269760507854
10
426.64156384349354
20
-139.84269760507854
0
LINE
5
190
100
AcDbEntity
8
0
100
AcDbLine
10
426.64156384349354
20
-121.84269760507854
30
0
11
436.64156384349354
21
-121.84269760507854
31
0
0
LINE
5
191
100
AcDbEntity
8
0
100
AcDbLine
10
365.73663422980241
20
-121.84269760507854
30
0
11
375.73663422980241
21
-121.84269760507854
31
0
0
LINE
5
192
100
AcDbEntity
8
0
100
AcDbLine
10
436.64156384349354
20
-121.84269760507854
30
0
11
426.64156384349354
21
-121.84269760507854
31
0
0
LINE
5
193
100
AcDbEntity
8
0
100
AcDbLine
10
385.73663422980241
20
-121.84269760507854
30
0
11
375.73663422980241
21
-121.84269760507854
31
0
0
LINE
5
194
100
AcDbEntity
8
0
100
AcDbLine
10
375.73663422980241
20
-121.84269760507854
30
0
11
385.73663422980241
21
-121.84269760507854
31
0
0
LINE
5
195
100
AcDbEntity
8
0
100
AcDbLine
10
313.37139929653819
20
-139.84269760507854
30
0
11
313.37139929653819
21
-169.84269760507857
31
0
0
LWPOLYLINE
5
196
100
AcDbEntity
8
0
100
AcDbPolyline
90
4
70
1
43
0.0
10
247.65644294070188
20
-187.84269760507857
10
247.65644294070188
20
-169.84269760507857
10
257.65644294070188
20
-169.84269760507857
10
257.65644294070188
20
-187.84269760507857
0
LINE
5
197
100
AcDbEntity
8
0
100
AcDbLine
10
446.64156384349354
20
-169.84269760507857
30
0
11
446.64156384349354
21
-279.84269760507857
31
0
0
LINE
5
198
100
AcDbEntity
8
0
100
AcDbLine
10
247.65644294070188
20
-279.84269760507857
30
0
11
247.65644294070188
21
-297.84269760507857
31
0
0
LINE
5
199
100
AcDbEntity
8
0
100
AcDbLine
10
247.65644294070188
20
-297.84269760507857
30
0
11
277.65644294070188
21
-297.84269760507857
31
0
0
LINE
5
200
100
AcDbEntity
8
0
100
AcDbLine
10
277.65644294070188
20
-279.84269760507851
30
0
11
247.65644294070188
21
-279.84269760507857
31
0
0
LINE
5
201
100
AcDbEntity
8
0
100
AcDbLine
10
416.64156384349354
20
-187.84269760507857
30
0
11
426.64156384349354
21
-187.84269760507857
31
0
0
LINE
5
202
100
AcDbEntity
8
0
100
AcDbLine
10
436.64156384349354
20
-187.84269760507857
30
0
11
446.64156384349354
21
-187.84269760507857
31
0
0
LINE
5
203
100
AcDbEntity
8
0
100
AcDbLine
10
416.64156384349354
20
-169.84269760507854
30
0
11
426.64156384349354
21
-169.84269760507854
31
0
0
LINE
5
204
100
AcDbEntity
8
0
100
AcDbLine
10
436.64156384349354
20
-169.84269760507857
30
0
11
446.64156384349354
21
-169.84269760507857
31
0
0
LINE
5
205
100
AcDbEntity
8
0
100
AcDbLine
10
446.64156384349354
20
-279.84269760507857
30
0
11
436.64156384349354
21
-279.84269760507857
31
0
0
LINE
5
206
100
AcDbEntity
8
0
100
AcDbLine
10
426.64156384349354
20
-279.84269760507857
30
0
11
416.64156384349354
21
-279.84269760507857
31
0
0
LINE
5
207
100
AcDbEntity
8
0
100
AcDbLine
10
416.64156384349354
20
-297.84269760507863
30
0
11
426.64156384349354
21
-297.84269760507857
31
0
0
LINE
5
208
100
AcDbEntity
8
0
100
AcDbLine
10
436.64156384349354
20
-297.84269760507857
30
0
11
446.64156384349354
21
-297.84269760507857
31
0
0
LINE
5
209
100
AcDbEntity
8
0
100
AcDbLine
10
426.64156384349354
20
-169.84269760507854
30
0
11
426.64156384349354
21
-187.84269760507857
31
0
0
LINE
5
210
100
AcDbEntity
8
0
100
AcDbLine
10
426.64156384349354
20
-279.84269760507857
30
0
11
426.64156384349354
21
-297.84269760507857
31
0
0
LINE
5
211
100
AcDbEntity
8
0
100
AcDbLine
10
436.64156384349354
20
-169.84269760507857
30
0
11
436.64156384349354
21
-187.84269760507857
31
0
0
LINE
5
212
100
AcDbEntity
8
0
100
AcDbLine
10
436.64156384349354
20
-279.84269760507857
30
0
11
436.64156384349354
21
-297.84269760507857
31
0
0
LINE
5
213
100
AcDbEntity
8
0
100
AcDbLine
10
385.73663422980241
20
-169.84269760507857
30
0
11
385.73663422980241
21
-187.84269760507857
31
0
0
LINE
5
214
100
AcDbEntity
8
0
100
AcDbLine
10
385.73663422980241
20
-279.84269760507857
30
0
11
385.73663422980241
21
-297.84269760507857
31
0
0
LINE
5
215
100
AcDbEntity
8
0
100
AcDbLine
10
375.73663422980241
20
-169.84269760507857
30
0
11
375.73663422980241
21
-187.84269760507857
31
0
0
LINE
5
216
100
AcDbEntity
8
0
100
AcDbLine
10
375.73663422980241
20
-279.84269760507857
30
0
11
375.73663422980241
21
-297.84269760507857
31
0
0
LINE
5
217
100
AcDbEntity
8
0
100
AcDbLine
10
395.73663422980241
20
-279.84269760507857
30
0
11
385.73663422980241
21
-279.84269760507857
31
0
0
LINE
5
218
100
AcDbEntity
8
0
100
AcDbLine
10
375.73663422980241
20
-279.84269760507857
30
0
11
365.73663422980241
21
-279.84269760507857
31
0
0
LINE
5
219
100
AcDbEntity
8
0
100
AcDbLine
10
365.73663422980241
20
-297.84269760507863
30
0
11
375.73663422980241
21
-297.84269760507857
31
0
0
LINE
5
220
100
AcDbEntity
8
0
100
AcDbLine
10
385.73663422980241
20
-297.84269760507857
30
0
11
395.73663422980241
21
-297.84269760507863
31
0
0
LINE
5
221
100
AcDbEntity
8
0
100
AcDbLine
10
343.37139929653813
20
-279.84269760507857
30
0
11
333.37139929653813
21
-279.84269760507857
31
0
0
LINE
5
222
100
AcDbEntity
8
0
100
AcDbLine
10
323.37139929653813
20
-279.84269760507857
30
0
11
313.37139929653819
21
-279.84269760507857
31
0
0
LINE
5
223
100
AcDbEntity
8
0
100
AcDbLine
10
313.37139929653819
20
-297.84269760507863
30
0
11
323.37139929653813
21
-297.84269760507857
31
0
0
LINE
5
224
100
AcDbEntity
8
0
100
AcDbLine
10
333.37139929653813
20
-297.84269760507857
30
0
11
343.37139929653813
21
-297.84269760507863
31
0
0
LINE
5
225
100
AcDbEntity
8
0
100
AcDbLine
10
323.37139929653813
20
-169.84269760507857
30
0
11
323.37139929653813
21
-187.84269760507857
31
0
0
LINE
5
226
100
AcDbEntity
8
0
100
AcDbLine
10
323.37139929653813
20
-279.84269760507857
30
0
11
323.37139929653813
21
-297.84269760507857
31
0
0
LINE
5
227
100
AcDbEntity
8
0
100
AcDbLine
10
333.37139929653813
20
-169.84269760507857
30
0
11
333.37139929653813
21
-187.84269760507857
31
0
0
LINE
5
228
100
AcDbEntity
8
0
100
AcDbLine
10
333.37139929653813
20
-279.84269760507857
30
0
11
333.37139929653813
21
-297.84269760507857
31
0
0
LINE
5
229
100
AcDbEntity
8
0
100
AcDbLine
10
313.37139929653819
20
-187.84269760507857
30
0
11
323.37139929653813
21
-187.84269760507857
31
0
0
LINE
5
230
100
AcDbEntity
8
0
100
AcDbLine
10
333.37139929653813
20
-187.84269760507857
30
0
11
343.37139929653813
21
-187.84269760507857
31
0
0
LINE
5
231
100
AcDbEntity
8
0
100
AcDbLine
10
313.37139929653819
20
-169.84269760507857
30
0
11
323.37139929653813
21
-169.84269760507857
31
0
0
LINE
5
232
100
AcDbEntity
8
0
100
AcDbLine
10
333.37139929653813
20
-169.84269760507857
30
0
11
343.37139929653813
21
-169.84269760507857
31
0
0
LINE
5
233
100
AcDbEntity
8
0
100
AcDbLine
10
277.65644294070188
20
-169.84269760507857
30
0
11
267.65644294070188
21
-169.84269760507857
31
0
0
LINE
5
234
100
AcDbEntity
8
0
100
AcDbLine
10
267.65644294070188
20
-187.84269760507857
30
0
11
277.65644294070188
21
-187.84269760507857
31
0
0
LINE
5
235
100
AcDbEntity
8
0
100
AcDbLine
10
257.65644294070188
20
-279.84269760507857
30
0
11
257.65644294070188
21
-391.84269760507851
31
0
0
LINE
5
236
100
AcDbEntity
8
0
100
AcDbLine
10
267.65644294070188
20
-169.84269760507857
30
0
11
267.65644294070188
21
-187.84269760507857
31
0
0
LINE
5
237
100
AcDbEntity
8
0
100
AcDbLine
10
267.65644294070188
20
-279.84269760507851
30
0
11
267.65644294070188
21
-391.84269760507851
31
0
0
LINE
5
238
100
AcDbEntity
8
0
100
AcDbLine
10
313.37139929653819
20
-139.84269760507854
30
0
11
323.37139929653813
21
-139.84269760507854
31
0
0
LINE
5
239
100
AcDbEntity
8
0
100
AcDbLine
10
333.37139929653813
20
-139.84269760507854
30
0
11
343.37139929653813
21
-139.84269760507854
31
0
0
LINE
5
240
100
AcDbEntity
8
0
100
AcDbLine
10
365.73663422980241
20
-169.84269760507857
30
0
11
375.73663422980241
21
-169.84269760507857
31
0
0
LINE
5
241
100
AcDbEntity
8
0
100
AcDbLine
10
385.73663422980241
20
-169.84269760507857
30
0
11
395.73663422980241
21
-169.84269760507857
31
0
0
LINE
5
242
100
AcDbEntity
8
0
100
AcDbLine
10
365.73663422980241
20
-187.84269760507857
30
0
11
375.73663422980241
21
-187.84269760507857
31
0
0
LINE
5
243
100
AcDbEntity
8
0
100
AcDbLine
10
385.73663422980241
20
-187.84269760507857
30
0
11
395.73663422980241
21
-187.84269760507857
31
0
0
LINE
5
244
100
AcDbEntity
8
0
100
AcDbLine
10
86.424918964433317
20
-121.84269760507854
30
0
11
76.424918964433317
21
-121.84269760507854
31
0
0
LINE
5
245
100
AcDbEntity
8
0
100
AcDbLine
10
10
20
-121.84269760507854
30
0
11
0
21
-121.84269760507854
31
0
0
LINE
5
246
100
AcDbEntity
8
0
100
AcDbLine
10
0
20
-121.84269760507854
30
0
11
10
21
-121.84269760507854
31
0
0
LINE
5
247
100
AcDbEntity
8
0
100
AcDbLine
10
20
20
-121.84269760507854
30
0
11
30
21
-121.84269760507854
31
0
0
LINE
5
248
100
AcDbEntity
8
0
100
AcDbLine
10
0
20
-421.84269760507851
30
0
11
10
21
-421.84269760507851
31
0
0
LINE
5
249
100
AcDbEntity
8
0
100
AcDbLine
10
76.424918964433317
20
-421.84269760507851
30
0
11
86.424918964433317
21
-421.84269760507851
31
0
0
ENDSEC
0
SECTION
2
OBJECTS
0
DICTIONARY
5
C
100
AcDbDictionary
3
ACAD_GROUP
350
D
3
ACAD_MLINESTYLE
350
17
0
DICTIONARY
5
D
100
AcDbDictionary
0
DICTIONARY
5
1A
330
C
100
AcDbDictionary
0
DICTIONARY
5
17
100
AcDbDictionary
0
ENDSEC
0
EOF
