999
"DXF R12 Output" (www.mydxf.blogspot.com)
 0 
SECTION
 2 
HEADER
 9 
$ACADVER
 1 
AC1009
 9 
$EXTMIN
 10 
 0 
 20 
 0 
 9 
$EXTMAX
 10 
 8.5 
 20 
 11 
 0 
ENDSEC
 0 
SECTION
 2 
ENTITIES
0
LINE
8
Image
10
16.588400
20
-61.071300
11
13.209240
21
-60.618150
0
LINE
8
Image
10
13.209240
20
-60.618150
11
9.840404
21
-60.156074
0
LINE
8
Image
10
9.840404
20
-60.156074
11
7.327010
21
-59.608080
0
LINE
8
Image
10
7.327010
20
-59.608080
11
4.573620
21
-58.823356
0
LINE
8
Image
10
4.573620
20
-58.823356
11
1.907560
21
-57.936708
0
LINE
8
Image
10
1.907560
20
-57.936708
11
0.840360
21
-57.583022
0
LINE
8
Image
10
0.840360
20
-57.583022
11
0.127264
21
-57.341494
0
LINE
8
Image
10
0.127264
20
-57.341494
11
-1.558916
21
-56.578967
0
LINE
8
Image
10
-1.558916
20
-56.578967
11
-3.893514
21
-55.514780
0
LINE
8
Image
10
-3.893514
20
-55.514780
11
-6.294884
21
-54.246838
0
LINE
8
Image
10
-6.294884
20
-54.246838
11
-11.108926
21
-51.230491
0
LINE
8
Image
10
-11.108926
20
-51.230491
11
-15.623014
21
-47.791532
0
LINE
8
Image
10
-15.623014
20
-47.791532
11
-17.649440
21
-45.995325
0
LINE
8
Image
10
-17.649440
20
-45.995325
11
-19.459116
21
-44.191567
0
LINE
8
Image
10
-19.459116
20
-44.191567
11
-22.647994
21
-40.563590
0
LINE
8
Image
10
-22.647994
20
-40.563590
11
-25.446496
21
-36.910936
0
LINE
8
Image
10
-25.446496
20
-36.910936
11
-27.779608
21
-33.339197
0
LINE
8
Image
10
-27.779608
20
-33.339197
11
-29.572316
21
-29.953967
0
LINE
8
Image
10
-29.572316
20
-29.953967
11
-31.708776
21
-25.168127
0
LINE
8
Image
10
-31.708776
20
-25.168127
11
-32.677154
21
-22.431758
0
LINE
8
Image
10
-32.677154
20
-22.431758
11
-33.623109
21
-19.025413
0
LINE
8
Image
10
-33.623109
20
-19.025413
11
-34.432702
21
-15.405125
0
LINE
8
Image
10
-34.432702
20
-15.405125
11
-34.991996
21
-12.026927
0
LINE
8
Image
10
-34.991996
20
-12.026927
11
-35.148270
21
-9.187356
0
LINE
8
Image
10
-35.148270
20
-9.187356
11
-35.194915
21
-4.936786
0
LINE
8
Image
10
-35.194915
20
-4.936786
11
-35.134272
21
-0.695687
0
LINE
8
Image
10
-35.134272
20
-0.695687
11
-34.968685
21
2.115473
0
LINE
8
Image
10
-34.968685
20
2.115473
11
-34.095629
21
7.159354
0
LINE
8
Image
10
-34.095629
20
7.159354
11
-33.223965
21
10.625933
0
LINE
8
Image
10
-33.223965
20
10.625933
11
-32.843375
21
11.752313
0
LINE
8
Image
10
-32.843375
20
11.752313
11
-32.221968
21
13.739749
0
LINE
8
Image
10
-32.221968
20
13.739749
11
-31.322677
21
16.030288
0
LINE
8
Image
10
-31.322677
20
16.030288
11
-28.955691
21
21.013427
0
LINE
8
Image
10
-28.955691
20
21.013427
11
-26.272903
21
25.687234
0
LINE
8
Image
10
-26.272903
20
25.687234
11
-24.978862
21
27.591108
0
LINE
8
Image
10
-24.978862
20
27.591108
11
-23.804805
21
29.037213
0
LINE
8
Image
10
-23.804805
20
29.037213
11
-23.210520
21
29.975529
0
LINE
8
Image
10
-23.210520
20
29.975529
11
-21.951548
21
31.462515
0
LINE
8
Image
10
-21.951548
20
31.462515
11
-19.089992
21
34.399514
0
LINE
8
Image
10
-19.089992
20
34.399514
11
-15.998887
21
37.413806
0
LINE
8
Image
10
-15.998887
20
37.413806
11
-14.051270
21
39.132669
0
LINE
8
Image
10
-14.051270
20
39.132669
11
-11.696360
21
40.791149
0
LINE
8
Image
10
-11.696360
20
40.791149
11
-8.076497
21
43.158444
0
LINE
8
Image
10
-8.076497
20
43.158444
11
-4.187130
21
45.283639
0
LINE
8
Image
10
-4.187130
20
45.283639
11
-1.350880
21
46.682039
0
LINE
8
Image
10
-1.350880
20
46.682039
11
-0.349650
21
47.054168
0
LINE
8
Image
10
-0.349650
20
47.054168
11
0.944180
21
47.546290
0
LINE
8
Image
10
0.944180
20
47.546290
11
2.368680
21
48.038412
0
LINE
8
Image
10
2.368680
20
48.038412
11
2.926325
21
48.264334
0
LINE
8
Image
10
2.926325
20
48.264334
11
4.078415
21
48.644502
0
LINE
8
Image
10
4.078415
20
48.644502
11
5.523235
21
49.042726
0
LINE
8
Image
10
5.523235
20
49.042726
11
8.896098
21
49.906351
0
LINE
8
Image
10
8.896098
20
49.906351
11
14.210495
21
50.802306
0
LINE
8
Image
10
14.210495
20
50.802306
11
16.833886
21
50.961943
0
LINE
8
Image
10
16.833886
20
50.961943
11
20.654145
21
51.017458
0
LINE
8
Image
10
20.654145
20
51.017458
11
24.506580
21
50.967939
0
LINE
8
Image
10
24.506580
20
50.967939
11
27.226495
21
50.812477
0
LINE
8
Image
10
27.226495
20
50.812477
11
32.422977
21
49.973496
0
LINE
8
Image
10
32.422977
20
49.973496
11
36.237575
21
49.056687
0
LINE
8
Image
10
36.237575
20
49.056687
11
38.615496
21
48.290865
0
LINE
8
Image
10
38.615496
20
48.290865
11
40.743116
21
47.559684
0
LINE
8
Image
10
40.743116
20
47.559684
11
42.495266
21
46.803485
0
LINE
8
Image
10
42.495266
20
46.803485
11
46.901400
21
44.751030
0
LINE
8
Image
10
46.901400
20
44.751030
11
51.334952
21
42.108710
0
LINE
8
Image
10
51.334952
20
42.108710
11
55.597160
21
39.007803
0
LINE
8
Image
10
55.597160
20
39.007803
11
59.489266
21
35.579585
0
LINE
8
Image
10
59.489266
20
35.579585
11
61.935354
21
33.069619
0
LINE
8
Image
10
61.935354
20
33.069619
11
64.325453
21
30.406324
0
LINE
8
Image
10
64.325453
20
30.406324
11
66.300266
21
28.006472
0
LINE
8
Image
10
66.300266
20
28.006472
11
67.500495
21
26.286835
0
LINE
8
Image
10
67.500495
20
26.286835
11
68.879096
21
23.982405
0
LINE
8
Image
10
68.879096
20
23.982405
11
70.763182
21
20.585545
0
LINE
8
Image
10
70.763182
20
20.585545
11
72.397226
21
17.133875
0
LINE
8
Image
10
72.397226
20
17.133875
11
73.166718
21
15.447695
0
LINE
8
Image
10
73.166718
20
15.447695
11
73.408246
21
14.734601
0
LINE
8
Image
10
73.408246
20
14.734601
11
73.767698
21
13.667401
0
LINE
8
Image
10
73.767698
20
13.667401
11
74.485407
21
11.648199
0
LINE
8
Image
10
74.485407
20
11.648199
11
75.248279
21
8.805340
0
LINE
8
Image
10
75.248279
20
8.805340
11
75.930065
21
5.661962
0
LINE
8
Image
10
75.930065
20
5.661962
11
76.404518
21
2.741201
0
LINE
8
Image
10
76.404518
20
2.741201
11
77.069864
21
-3.779392
0
LINE
8
Image
10
77.069864
20
-3.779392
11
77.089134
21
-5.896890
0
LINE
8
Image
10
77.089134
20
-5.896890
11
76.934483
21
-7.959499
0
LINE
8
Image
10
76.934483
20
-7.959499
11
76.143440
21
-14.629317
0
LINE
8
Image
10
76.143440
20
-14.629317
11
75.418883
21
-18.284699
0
LINE
8
Image
10
75.418883
20
-18.284699
11
73.761933
21
-23.704149
0
LINE
8
Image
10
73.761933
20
-23.704149
11
73.408247
21
-24.771349
0
LINE
8
Image
10
73.408247
20
-24.771349
11
73.166719
21
-25.484445
0
LINE
8
Image
10
73.166719
20
-25.484445
11
72.406365
21
-27.170625
0
LINE
8
Image
10
72.406365
20
-27.170625
11
70.801546
21
-30.565013
0
LINE
8
Image
10
70.801546
20
-30.565013
11
68.741152
21
-34.205507
0
LINE
8
Image
10
68.741152
20
-34.205507
11
66.422304
21
-37.767886
0
LINE
8
Image
10
66.422304
20
-37.767886
11
64.042125
21
-40.927925
0
LINE
8
Image
10
64.042125
20
-40.927925
11
61.752151
21
-43.469135
0
LINE
8
Image
10
61.752151
20
-43.469135
11
58.995653
21
-46.148688
0
LINE
8
Image
10
58.995653
20
-46.148688
11
56.057917
21
-48.704303
0
LINE
8
Image
10
56.057917
20
-48.704303
11
53.224225
21
-50.873695
0
LINE
8
Image
10
53.224225
20
-50.873695
11
50.384576
21
-52.718930
0
LINE
8
Image
10
50.384576
20
-52.718930
11
47.215525
21
-54.551066
0
LINE
8
Image
10
47.215525
20
-54.551066
11
44.274698
21
-56.064739
0
LINE
8
Image
10
44.274698
20
-56.064739
11
42.119725
21
-56.954585
0
LINE
8
Image
10
42.119725
20
-56.954585
11
41.243646
21
-57.332960
0
LINE
8
Image
10
41.243646
20
-57.332960
11
39.241186
21
-58.078591
0
LINE
8
Image
10
39.241186
20
-58.078591
11
36.988416
21
-58.838488
0
LINE
8
Image
10
36.988416
20
-58.838488
11
33.299863
21
-59.815097
0
LINE
8
Image
10
33.299863
20
-59.815097
11
28.477956
21
-60.602678
0
LINE
8
Image
10
28.477956
20
-60.602678
11
24.833426
21
-61.094921
0
LINE
8
Image
10
24.833426
20
-61.094921
11
23.078536
21
-61.253549
0
LINE
8
Image
10
23.078536
20
-61.253549
11
20.697928
21
-61.301271
0
LINE
8
Image
10
20.697928
20
-61.301271
11
18.323796
21
-61.239897
0
LINE
8
Image
10
18.323796
20
-61.239897
11
16.588336
21
-61.071242
0
LINE
8
Image
10
16.588336
20
-61.071242
11
16.588400
21
-61.071300
0
LINE
8
Image
10
25.974940
20
-56.574460
11
31.498356
21
-55.698422
0
LINE
8
Image
10
31.498356
20
-55.698422
11
33.967060
21
-55.178406
0
LINE
8
Image
10
33.967060
20
-55.178406
11
35.236330
21
-54.796490
0
LINE
8
Image
10
35.236330
20
-54.796490
11
36.354500
21
-54.451776
0
LINE
8
Image
10
36.354500
20
-54.451776
11
37.606040
21
-54.066986
0
LINE
8
Image
10
37.606040
20
-54.066986
11
39.616720
21
-53.301157
0
LINE
8
Image
10
39.616720
20
-53.301157
11
41.687097
21
-52.457274
0
LINE
8
Image
10
41.687097
20
-52.457274
11
44.143492
21
-51.270534
0
LINE
8
Image
10
44.143492
20
-51.270534
11
48.919640
21
-48.532197
0
LINE
8
Image
10
48.919640
20
-48.532197
11
52.079039
21
-46.321094
0
LINE
8
Image
10
52.079039
20
-46.321094
11
53.592240
21
-45.005057
0
LINE
8
Image
10
53.592240
20
-45.005057
11
53.971459
21
-44.817329
0
LINE
8
Image
10
53.971459
20
-44.817329
11
55.215193
21
-43.827313
0
LINE
8
Image
10
55.215193
20
-43.827313
11
57.572138
21
-41.457651
0
LINE
8
Image
10
57.572138
20
-41.457651
11
60.184672
21
-38.608924
0
LINE
8
Image
10
60.184672
20
-38.608924
11
62.195169
21
-36.181709
0
LINE
8
Image
10
62.195169
20
-36.181709
11
64.023959
21
-33.566198
0
LINE
8
Image
10
64.023959
20
-33.566198
11
65.683845
21
-30.875844
0
LINE
8
Image
10
65.683845
20
-30.875844
11
67.153473
21
-28.147623
0
LINE
8
Image
10
67.153473
20
-28.147623
11
68.411489
21
-25.418509
0
LINE
8
Image
10
68.411489
20
-25.418509
11
69.296275
21
-23.378219
0
LINE
8
Image
10
69.296275
20
-23.378219
11
69.653647
21
-22.239319
0
LINE
8
Image
10
69.653647
20
-22.239319
11
69.869372
21
-21.651380
0
LINE
8
Image
10
69.869372
20
-21.651380
11
70.237737
21
-20.752824
0
LINE
8
Image
10
70.237737
20
-20.752824
11
70.756291
21
-18.912537
0
LINE
8
Image
10
70.756291
20
-18.912537
11
71.795002
21
-14.154660
0
LINE
8
Image
10
71.795002
20
-14.154660
11
72.435789
21
-8.985868
0
LINE
8
Image
10
72.435789
20
-8.985868
11
72.557443
21
-3.705243
0
LINE
8
Image
10
72.557443
20
-3.705243
11
72.162035
21
1.607150
0
LINE
8
Image
10
72.162035
20
1.607150
11
71.251632
21
6.871240
0
LINE
8
Image
10
71.251632
20
6.871240
11
70.667015
21
9.124010
0
LINE
8
Image
10
70.667015
20
9.124010
11
70.021300
21
11.126470
0
LINE
8
Image
10
70.021300
20
11.126470
11
69.096490
21
13.754700
0
LINE
8
Image
10
69.096490
20
13.754700
11
67.191266
21
18.033802
0
LINE
8
Image
10
67.191266
20
18.033802
11
66.114170
21
19.970670
0
LINE
8
Image
10
66.114170
20
19.970670
11
65.899035
21
20.341196
0
LINE
8
Image
10
65.899035
20
20.341196
11
65.225774
21
21.742911
0
LINE
8
Image
10
65.225774
20
21.742911
11
63.526750
21
24.284474
0
LINE
8
Image
10
63.526750
20
24.284474
11
61.283098
21
27.289071
0
LINE
8
Image
10
61.283098
20
27.289071
11
58.975955
21
30.079886
0
LINE
8
Image
10
58.975955
20
30.079886
11
57.180734
21
31.960396
0
LINE
8
Image
10
57.180734
20
31.960396
11
55.160220
21
33.815924
0
LINE
8
Image
10
55.160220
20
33.815924
11
52.953461
21
35.619370
0
LINE
8
Image
10
52.953461
20
35.619370
11
50.599507
21
37.343636
0
LINE
8
Image
10
50.599507
20
37.343636
11
48.137405
21
38.961621
0
LINE
8
Image
10
48.137405
20
38.961621
11
45.606204
21
40.446226
0
LINE
8
Image
10
45.606204
20
40.446226
11
43.044953
21
41.770353
0
LINE
8
Image
10
43.044953
20
41.770353
11
40.492700
21
42.906900
0
LINE
8
Image
10
40.492700
20
42.906900
11
39.116010
21
43.514636
0
LINE
8
Image
10
39.116010
20
43.514636
11
36.863240
21
44.272057
0
LINE
8
Image
10
36.863240
20
44.272057
11
34.360160
21
45.051767
0
LINE
8
Image
10
34.360160
20
45.051767
11
31.466730
21
45.716489
0
LINE
8
Image
10
31.466730
20
45.716489
11
25.974850
21
46.571327
0
LINE
8
Image
10
25.974850
20
46.571327
11
22.268925
21
46.787708
0
LINE
8
Image
10
22.268925
20
46.787708
11
17.659284
21
46.636305
0
LINE
8
Image
10
17.659284
20
46.636305
11
12.952200
21
46.170528
0
LINE
8
Image
10
12.952200
20
46.170528
11
8.953950
21
45.443787
0
LINE
8
Image
10
8.953950
20
45.443787
11
6.200560
21
44.780014
0
LINE
8
Image
10
6.200560
20
44.780014
11
4.711230
21
44.265826
0
LINE
8
Image
10
4.711230
20
44.265826
11
4.085459
21
44.040350
0
LINE
8
Image
10
4.085459
20
44.040350
11
2.980519
21
43.664888
0
LINE
8
Image
10
2.980519
20
43.664888
11
2.028133
21
43.290968
0
LINE
8
Image
10
2.028133
20
43.290968
11
0.789865
21
42.850701
0
LINE
8
Image
10
0.789865
20
42.850701
11
-1.527106
21
41.759434
0
LINE
8
Image
10
-1.527106
20
41.759434
11
-6.620587
21
39.001118
0
LINE
8
Image
10
-6.620587
20
39.001118
11
-10.026192
21
36.679036
0
LINE
8
Image
10
-10.026192
20
36.679036
11
-13.319497
21
33.969293
0
LINE
8
Image
10
-13.319497
20
33.969293
11
-16.446627
21
30.937675
0
LINE
8
Image
10
-16.446627
20
30.937675
11
-19.353709
21
27.649971
0
LINE
8
Image
10
-19.353709
20
27.649971
11
-21.986870
21
24.171965
0
LINE
8
Image
10
-21.986870
20
24.171965
11
-24.292236
21
20.569447
0
LINE
8
Image
10
-24.292236
20
20.569447
11
-26.215933
21
16.908202
0
LINE
8
Image
10
-26.215933
20
16.908202
11
-27.704087
21
13.254018
0
LINE
8
Image
10
-27.704087
20
13.254018
11
-28.472381
21
11.126408
0
LINE
8
Image
10
-28.472381
20
11.126408
11
-29.413618
21
7.997218
0
LINE
8
Image
10
-29.413618
20
7.997218
11
-30.419981
21
2.991408
0
LINE
8
Image
10
-30.419981
20
2.991408
11
-30.747728
21
-0.447939
0
LINE
8
Image
10
-30.747728
20
-0.447939
11
-30.856977
21
-5.018431
0
LINE
8
Image
10
-30.856977
20
-5.018431
11
-30.747728
21
-9.588928
0
LINE
8
Image
10
-30.747728
20
-9.588928
11
-30.419981
21
-13.028292
0
LINE
8
Image
10
-30.419981
20
-13.028292
11
-29.163694
21
-18.957394
0
LINE
8
Image
10
-29.163694
20
-18.957394
11
-28.466243
21
-21.347569
0
LINE
8
Image
10
-28.466243
20
-21.347569
11
-27.706581
21
-23.416092
0
LINE
8
Image
10
-27.706581
20
-23.416092
11
-25.408235
21
-28.457177
0
LINE
8
Image
10
-25.408235
20
-28.457177
11
-22.888442
21
-32.909334
0
LINE
8
Image
10
-22.888442
20
-32.909334
11
-19.995444
21
-37.012445
0
LINE
8
Image
10
-19.995444
20
-37.012445
11
-16.577481
21
-41.006392
0
LINE
8
Image
10
-16.577481
20
-41.006392
11
-14.044991
21
-43.416114
0
LINE
8
Image
10
-14.044991
20
-43.416114
11
-10.819862
21
-46.057109
0
LINE
8
Image
10
-10.819862
20
-46.057109
11
-7.501143
21
-48.467004
0
LINE
8
Image
10
-7.501143
20
-48.467004
11
-4.687881
21
-50.183422
0
LINE
8
Image
10
-4.687881
20
-50.183422
11
0.736419
21
-52.835722
0
LINE
8
Image
10
0.736419
20
-52.835722
11
1.945279
21
-53.327847
0
LINE
8
Image
10
1.945279
20
-53.327847
11
3.334489
21
-53.819969
0
LINE
8
Image
10
3.334489
20
-53.819969
11
3.960257
21
-54.044183
0
LINE
8
Image
10
3.960257
20
-54.044183
11
5.437780
21
-54.605563
0
LINE
8
Image
10
5.437780
20
-54.605563
11
8.387668
21
-55.342506
0
LINE
8
Image
10
8.387668
20
-55.342506
11
11.936675
21
-56.059633
0
LINE
8
Image
10
11.936675
20
-56.059633
11
15.211557
21
-56.561563
0
LINE
8
Image
10
15.211557
20
-56.561563
11
20.551037
21
-56.783915
0
LINE
8
Image
10
20.551037
20
-56.783915
11
25.974757
21
-56.574517
0
LINE
8
Image
10
25.974757
20
-56.574517
11
25.974940
21
-56.574460
0
LINE
8
Image
10
-21.464400
20
-19.568800
11
-22.050960
21
-18.775325
0
LINE
8
Image
10
-22.050960
20
-18.775325
11
-22.209326
21
-17.850580
0
LINE
8
Image
10
-22.209326
20
-17.850580
11
-21.985215
21
-16.793911
0
LINE
8
Image
10
-21.985215
20
-16.793911
11
-21.349601
21
-15.983432
0
LINE
8
Image
10
-21.349601
20
-15.983432
11
-20.357565
21
-15.464146
0
LINE
8
Image
10
-20.357565
20
-15.464146
11
-19.064186
21
-15.281050
0
LINE
8
Image
10
-19.064186
20
-15.281050
11
-18.204400
21
-15.281000
0
LINE
8
Image
10
-18.204400
20
-15.281000
11
-18.204400
21
-5.167050
0
LINE
8
Image
10
-18.204400
20
-5.167050
11
-18.204400
21
4.946930
0
LINE
8
Image
10
-18.204400
20
4.946930
11
-19.505500
21
5.125879
0
LINE
8
Image
10
-19.505500
20
5.125879
11
-20.544417
21
5.414177
0
LINE
8
Image
10
-20.544417
20
5.414177
11
-21.350184
21
5.920522
0
LINE
8
Image
10
-21.350184
20
5.920522
11
-21.909469
21
6.582018
0
LINE
8
Image
10
-21.909469
20
6.582018
11
-22.208937
21
7.335769
0
LINE
8
Image
10
-22.208937
20
7.335769
11
-22.235257
21
8.118878
0
LINE
8
Image
10
-22.235257
20
8.118878
11
-21.975094
21
8.868450
0
LINE
8
Image
10
-21.975094
20
8.868450
11
-21.415116
21
9.521589
0
LINE
8
Image
10
-21.415116
20
9.521589
11
-20.541990
21
10.015399
0
LINE
8
Image
10
-20.541990
20
10.015399
11
-17.910885
21
10.190545
0
LINE
8
Image
10
-17.910885
20
10.190545
11
-12.803360
21
10.244559
0
LINE
8
Image
10
-12.803360
20
10.244559
11
-7.531926
21
10.179831
0
LINE
8
Image
10
-7.531926
20
10.179831
11
-4.409090
21
9.998748
0
LINE
8
Image
10
-4.409090
20
9.998748
11
-2.554519
21
9.476233
0
LINE
8
Image
10
-2.554519
20
9.476233
11
-0.911188
21
8.662616
0
LINE
8
Image
10
-0.911188
20
8.662616
11
0.492964
21
7.596513
0
LINE
8
Image
10
0.492964
20
7.596513
11
1.629996
21
6.316539
0
LINE
8
Image
10
1.629996
20
6.316539
11
2.471970
21
4.861310
0
LINE
8
Image
10
2.471970
20
4.861310
11
2.990945
21
3.269442
0
LINE
8
Image
10
2.990945
20
3.269442
11
3.158981
21
1.579549
0
LINE
8
Image
10
3.158981
20
1.579549
11
2.948140
21
-0.169752
0
LINE
8
Image
10
2.948140
20
-0.169752
11
2.252261
21
-2.110781
0
LINE
8
Image
10
2.252261
20
-2.110781
11
0.947110
21
-4.177052
0
LINE
8
Image
10
0.947110
20
-4.177052
11
0.891795
21
-4.531199
0
LINE
8
Image
10
0.891795
20
-4.531199
11
1.296856
21
-4.930545
0
LINE
8
Image
10
1.296856
20
-4.930545
11
3.052152
21
-6.447133
0
LINE
8
Image
10
3.052152
20
-6.447133
11
4.344496
21
-8.326165
0
LINE
8
Image
10
4.344496
20
-8.326165
11
4.814818
21
-9.252951
0
LINE
8
Image
10
4.814818
20
-9.252951
11
5.069280
21
-10.018223
0
LINE
8
Image
10
5.069280
20
-10.018223
11
5.190304
21
-12.277325
0
LINE
8
Image
10
5.190304
20
-12.277325
11
5.072311
21
-14.460939
0
LINE
8
Image
10
5.072311
20
-14.460939
11
4.527079
21
-15.906785
0
LINE
8
Image
10
4.527079
20
-15.906785
11
3.872062
21
-16.978965
0
LINE
8
Image
10
3.872062
20
-16.978965
11
3.107506
21
-17.840939
0
LINE
8
Image
10
3.107506
20
-17.840939
11
2.125706
21
-18.592204
0
LINE
8
Image
10
2.125706
20
-18.592204
11
0.818959
21
-19.332255
0
LINE
8
Image
10
0.818959
20
-19.332255
11
-0.808041
21
-20.162019
0
LINE
8
Image
10
-0.808041
20
-20.162019
11
-10.763771
21
-20.237855
0
LINE
8
Image
10
-10.763771
20
-20.237855
11
-20.719501
21
-20.313688
0
LINE
8
Image
10
-20.719501
20
-20.313688
11
-21.464428
21
-19.568763
0
LINE
8
Image
10
-21.464428
20
-19.568763
11
-21.464400
21
-19.568800
0
LINE
8
Image
10
-1.173900
20
-14.717860
11
-0.499954
21
-14.298258
0
LINE
8
Image
10
-0.499954
20
-14.298258
11
0.003521
21
-13.810994
0
LINE
8
Image
10
0.003521
20
-13.810994
11
0.335423
21
-13.265443
0
LINE
8
Image
10
0.335423
20
-13.265443
11
0.494647
21
-12.670981
0
LINE
8
Image
10
0.494647
20
-12.670981
11
0.480089
21
-12.036984
0
LINE
8
Image
10
0.480089
20
-12.036984
11
0.290645
21
-11.372826
0
LINE
8
Image
10
0.290645
20
-11.372826
11
-0.617316
21
-9.991530
0
LINE
8
Image
10
-0.617316
20
-9.991530
11
-1.545767
21
-9.119628
0
LINE
8
Image
10
-1.545767
20
-9.119628
11
-2.572326
21
-8.485869
0
LINE
8
Image
10
-2.572326
20
-8.485869
11
-3.780940
21
-8.050085
0
LINE
8
Image
10
-3.780940
20
-8.050085
11
-5.255556
21
-7.772110
0
LINE
8
Image
10
-5.255556
20
-7.772110
11
-9.693002
21
-7.536500
0
LINE
8
Image
10
-9.693002
20
-7.536500
11
-11.866623
21
-7.553862
0
LINE
8
Image
10
-11.866623
20
-7.553862
11
-13.052586
21
-7.673451
0
LINE
8
Image
10
-13.052586
20
-7.673451
11
-13.255933
21
-7.883725
0
LINE
8
Image
10
-13.255933
20
-7.883725
11
-13.376315
21
-8.447074
0
LINE
8
Image
10
-13.376315
20
-8.447074
11
-13.448519
21
-11.386351
0
LINE
8
Image
10
-13.448519
20
-11.386351
11
-13.281647
21
-15.114181
0
LINE
8
Image
10
-13.281647
20
-15.114181
11
-7.702757
21
-15.281056
0
LINE
8
Image
10
-7.702757
20
-15.281056
11
-2.916134
21
-15.199053
0
LINE
8
Image
10
-2.916134
20
-15.199053
11
-1.920066
21
-15.030404
0
LINE
8
Image
10
-1.920066
20
-15.030404
11
-1.173897
21
-14.717862
0
LINE
8
Image
10
-1.173897
20
-14.717862
11
-1.173900
21
-14.717860
0
LINE
8
Image
10
-4.841810
20
-2.004010
11
-3.589593
21
-1.360341
0
LINE
8
Image
10
-3.589593
20
-1.360341
11
-2.550930
21
-0.469650
0
LINE
8
Image
10
-2.550930
20
-0.469650
11
-1.782439
21
0.590823
0
LINE
8
Image
10
-1.782439
20
0.590823
11
-1.749149
21
1.827990
0
LINE
8
Image
10
-1.749149
20
1.827990
11
-2.017900
21
3.019010
0
LINE
8
Image
10
-2.017900
20
3.019010
11
-2.808089
21
3.912100
0
LINE
8
Image
10
-2.808089
20
3.912100
11
-3.680538
21
4.513234
0
LINE
8
Image
10
-3.680538
20
4.513234
11
-4.821435
21
4.843400
0
LINE
8
Image
10
-4.821435
20
4.843400
11
-6.645839
21
4.965966
0
LINE
8
Image
10
-6.645839
20
4.965966
11
-9.568809
21
4.944300
0
LINE
8
Image
10
-9.568809
20
4.944300
11
-13.323429
21
4.868746
0
LINE
8
Image
10
-13.323429
20
4.868746
11
-13.378187
21
1.489596
0
LINE
8
Image
10
-13.378187
20
1.489596
11
-13.323466
21
-2.202444
0
LINE
8
Image
10
-13.323466
20
-2.202444
11
-13.087457
21
-2.348442
0
LINE
8
Image
10
-13.087457
20
-2.348442
11
-12.453494
21
-2.445206
0
LINE
8
Image
10
-12.453494
20
-2.445206
11
-9.711216
21
-2.515329
0
LINE
8
Image
10
-9.711216
20
-2.515329
11
-6.610032
21
-2.419203
0
LINE
8
Image
10
-6.610032
20
-2.419203
11
-4.841816
21
-2.004008
0
LINE
8
Image
10
-4.841816
20
-2.004008
11
-4.841810
21
-2.004010
0
LINE
8
Image
10
8.578490
20
-19.970910
11
8.041284
21
-19.472775
0
LINE
8
Image
10
8.041284
20
-19.472775
11
7.641981
21
-18.702610
0
LINE
8
Image
10
7.641981
20
-18.702610
11
7.499473
21
-18.011691
0
LINE
8
Image
10
7.499473
20
-18.011691
11
7.531112
21
-17.368789
0
LINE
8
Image
10
7.531112
20
-17.368789
11
7.724754
21
-16.787499
0
LINE
8
Image
10
7.724754
20
-16.787499
11
8.068259
21
-16.281414
0
LINE
8
Image
10
8.068259
20
-16.281414
11
8.549484
21
-15.864128
0
LINE
8
Image
10
8.549484
20
-15.864128
11
9.156287
21
-15.549236
0
LINE
8
Image
10
9.156287
20
-15.549236
11
10.698061
21
-15.281010
0
LINE
8
Image
10
10.698061
20
-15.281010
11
11.582200
21
-15.281000
0
LINE
8
Image
10
11.582200
20
-15.281000
11
11.582200
21
-5.200830
0
LINE
8
Image
10
11.582200
20
-5.200830
11
11.582200
21
4.879360
0
LINE
8
Image
10
11.582200
20
4.879360
11
10.067090
21
5.167294
0
LINE
8
Image
10
10.067090
20
5.167294
11
8.983968
21
5.416460
0
LINE
8
Image
10
8.983968
20
5.416460
11
8.298511
21
5.721385
0
LINE
8
Image
10
8.298511
20
5.721385
11
7.875009
21
6.174882
0
LINE
8
Image
10
7.875009
20
6.174882
11
7.577750
21
6.869764
0
LINE
8
Image
10
7.577750
20
6.869764
11
7.435765
21
7.719032
0
LINE
8
Image
10
7.435765
20
7.719032
11
7.681094
21
8.610904
0
LINE
8
Image
10
7.681094
20
8.610904
11
7.940947
21
9.148390
0
LINE
8
Image
10
7.940947
20
9.148390
11
8.281731
21
9.556617
0
LINE
8
Image
10
8.281731
20
9.556617
11
8.806790
21
9.851775
0
LINE
8
Image
10
8.806790
20
9.851775
11
9.619465
21
10.050053
0
LINE
8
Image
10
9.619465
20
10.050053
11
12.521038
21
10.220724
0
LINE
8
Image
10
12.521038
20
10.220724
11
17.813194
21
10.198144
0
LINE
8
Image
10
17.813194
20
10.198144
11
24.825490
21
10.039513
0
LINE
8
Image
10
24.825490
20
10.039513
11
26.215027
21
9.853927
0
LINE
8
Image
10
26.215027
20
9.853927
11
27.226404
21
9.523461
0
LINE
8
Image
10
27.226404
20
9.523461
11
28.778680
21
8.670654
0
LINE
8
Image
10
28.778680
20
8.670654
11
30.257984
21
7.420747
0
LINE
8
Image
10
30.257984
20
7.420747
11
31.495121
21
5.943600
0
LINE
8
Image
10
31.495121
20
5.943600
11
32.320894
21
4.409071
0
LINE
8
Image
10
32.320894
20
4.409071
11
32.784185
21
2.448096
0
LINE
8
Image
10
32.784185
20
2.448096
11
32.767604
21
0.437611
0
LINE
8
Image
10
32.767604
20
0.437611
11
32.287182
21
-1.495196
0
LINE
8
Image
10
32.287182
20
-1.495196
11
31.358949
21
-3.223139
0
LINE
8
Image
10
31.358949
20
-3.223139
11
30.620769
21
-4.453059
0
LINE
8
Image
10
30.620769
20
-4.453059
11
31.714449
21
-5.519039
0
LINE
8
Image
10
31.714449
20
-5.519039
11
32.576246
21
-6.318518
0
LINE
8
Image
10
32.576246
20
-6.318518
11
33.321297
21
-7.213519
0
LINE
8
Image
10
33.321297
20
-7.213519
11
34.431085
21
-9.214830
0
LINE
8
Image
10
34.431085
20
-9.214830
11
34.983655
21
-11.372466
0
LINE
8
Image
10
34.983655
20
-11.372466
11
35.032184
21
-12.462872
0
LINE
8
Image
10
35.032184
20
-12.462872
11
34.918849
21
-13.535919
0
LINE
8
Image
10
34.918849
20
-13.535919
11
34.365362
21
-15.506276
0
LINE
8
Image
10
34.365362
20
-15.506276
11
33.474522
21
-17.072104
0
LINE
8
Image
10
33.474522
20
-17.072104
11
32.170488
21
-18.331009
0
LINE
8
Image
10
32.170488
20
-18.331009
11
30.377419
21
-19.380599
0
LINE
8
Image
10
30.377419
20
-19.380599
11
28.728239
21
-20.162043
0
LINE
8
Image
10
28.728239
20
-20.162043
11
18.966239
21
-20.228207
0
LINE
8
Image
10
18.966239
20
-20.228207
11
11.106861
21
-20.213248
0
LINE
8
Image
10
11.106861
20
-20.213248
11
9.338911
21
-20.124546
0
LINE
8
Image
10
9.338911
20
-20.124546
11
8.578439
21
-19.970948
0
LINE
8
Image
10
8.578439
20
-19.970948
11
8.578490
21
-19.970910
0
LINE
8
Image
10
27.877400
20
-14.996700
11
28.661981
21
-14.626664
0
LINE
8
Image
10
28.661981
20
-14.626664
11
29.369303
21
-14.099078
0
LINE
8
Image
10
29.369303
20
-14.099078
11
29.914845
21
-13.490583
0
LINE
8
Image
10
29.914845
20
-13.490583
11
30.214090
21
-12.877820
0
LINE
8
Image
10
30.214090
20
-12.877820
11
30.255111
21
-12.357051
0
LINE
8
Image
10
30.255111
20
-12.357051
11
30.146406
21
-11.778760
0
LINE
8
Image
10
30.146406
20
-11.778760
11
29.546159
21
-10.548784
0
LINE
8
Image
10
29.546159
20
-10.548784
11
28.546031
21
-9.386246
0
LINE
8
Image
10
28.546031
20
-9.386246
11
27.278700
21
-8.489500
0
LINE
8
Image
10
27.278700
20
-8.489500
11
26.009997
21
-8.062085
0
LINE
8
Image
10
26.009997
20
-8.062085
11
24.173489
21
-7.756568
0
LINE
8
Image
10
24.173489
20
-7.756568
11
21.905339
21
-7.588650
0
LINE
8
Image
10
21.905339
20
-7.588650
11
19.341710
21
-7.574037
0
LINE
8
Image
10
19.341710
20
-7.574037
11
16.463170
21
-7.646678
0
LINE
8
Image
10
16.463170
20
-7.646678
11
16.394071
21
-11.463868
0
LINE
8
Image
10
16.394071
20
-11.463868
11
16.324977
21
-15.281058
0
LINE
8
Image
10
16.324977
20
-15.281058
11
21.675800
21
-15.281000
0
LINE
8
Image
10
21.675800
20
-15.281000
11
25.826252
21
-15.205147
0
LINE
8
Image
10
25.826252
20
-15.205147
11
27.877440
21
-14.996633
0
LINE
8
Image
10
27.877440
20
-14.996633
11
27.877400
21
-14.996700
0
LINE
8
Image
10
24.612090
20
-2.135000
11
25.925995
21
-1.520940
0
LINE
8
Image
10
25.925995
20
-1.520940
11
26.936017
21
-0.744499
0
LINE
8
Image
10
26.936017
20
-0.744499
11
27.631388
21
0.143454
0
LINE
8
Image
10
27.631388
20
0.143454
11
28.001339
21
1.092050
0
LINE
8
Image
10
28.001339
20
1.092050
11
28.035099
21
2.050420
0
LINE
8
Image
10
28.035099
20
2.050420
11
27.721901
21
2.967696
0
LINE
8
Image
10
27.721901
20
2.967696
11
27.050974
21
3.793009
0
LINE
8
Image
10
27.050974
20
3.793009
11
26.011550
21
4.475490
0
LINE
8
Image
10
26.011550
20
4.475490
11
25.308810
21
4.751663
0
LINE
8
Image
10
25.308810
20
4.751663
11
24.406663
21
4.908167
0
LINE
8
Image
10
24.406663
20
4.908167
11
20.639370
21
4.993864
0
LINE
8
Image
10
20.639370
20
4.993864
11
16.338000
21
4.993910
0
LINE
8
Image
10
16.338000
20
4.993910
11
16.338000
21
1.239290
0
LINE
8
Image
10
16.338000
20
1.239290
11
16.338000
21
-2.515330
0
LINE
8
Image
10
16.338000
20
-2.515330
11
19.936000
21
-2.515330
0
LINE
8
Image
10
19.936000
20
-2.515330
11
22.951384
21
-2.427388
0
LINE
8
Image
10
22.951384
20
-2.427388
11
24.612080
21
-2.134957
0
LINE
8
Image
10
24.612080
20
-2.134957
11
24.612090
21
-2.135000
0
LINE
8
Image
10
38.454490
20
-20.046000
11
37.968159
21
-19.763136
0
LINE
8
Image
10
37.968159
20
-19.763136
11
37.589261
21
-19.379121
0
LINE
8
Image
10
37.589261
20
-19.379121
11
37.170194
21
-18.402463
0
LINE
8
Image
10
37.170194
20
-18.402463
11
37.230137
21
-17.305679
0
LINE
8
Image
10
37.230137
20
-17.305679
11
37.801936
21
-16.278420
0
LINE
8
Image
10
37.801936
20
-16.278420
11
38.617564
21
-15.639888
0
LINE
8
Image
10
38.617564
20
-15.639888
11
39.804396
21
-15.363527
0
LINE
8
Image
10
39.804396
20
-15.363527
11
41.118516
21
-15.211347
0
LINE
8
Image
10
41.118516
20
-15.211347
11
41.118500
21
-5.132180
0
LINE
8
Image
10
41.118500
20
-5.132180
11
41.118500
21
4.946930
0
LINE
8
Image
10
41.118500
20
4.946930
11
39.817400
21
5.125879
0
LINE
8
Image
10
39.817400
20
5.125879
11
38.937393
21
5.334586
0
LINE
8
Image
10
38.937393
20
5.334586
11
38.215332
21
5.681733
0
LINE
8
Image
10
38.215332
20
5.681733
11
37.662713
21
6.142962
0
LINE
8
Image
10
37.662713
20
6.142962
11
37.291034
21
6.693913
0
LINE
8
Image
10
37.291034
20
6.693913
11
37.111791
21
7.310229
0
LINE
8
Image
10
37.111791
20
7.310229
11
37.136481
21
7.967549
0
LINE
8
Image
10
37.136481
20
7.967549
11
37.376602
21
8.641515
0
LINE
8
Image
10
37.376602
20
8.641515
11
37.843650
21
9.307769
0
LINE
8
Image
10
37.843650
20
9.307769
11
38.573724
21
10.125219
0
LINE
8
Image
10
38.573724
20
10.125219
11
46.166384
21
10.202401
0
LINE
8
Image
10
46.166384
20
10.202401
11
51.360564
21
10.200401
0
LINE
8
Image
10
51.360564
20
10.200401
11
54.667491
21
10.007305
0
LINE
8
Image
10
54.667491
20
10.007305
11
56.793615
21
9.536829
0
LINE
8
Image
10
56.793615
20
9.536829
11
58.445384
21
8.702691
0
LINE
8
Image
10
58.445384
20
8.702691
11
59.922425
21
7.545420
0
LINE
8
Image
10
59.922425
20
7.545420
11
61.077740
21
6.177101
0
LINE
8
Image
10
61.077740
20
6.177101
11
61.902066
21
4.647768
0
LINE
8
Image
10
61.902066
20
4.647768
11
62.386138
21
3.007460
0
LINE
8
Image
10
62.386138
20
3.007460
11
62.520692
21
1.306212
0
LINE
8
Image
10
62.520692
20
1.306212
11
62.296466
21
-0.405940
0
LINE
8
Image
10
62.296466
20
-0.405940
11
61.704194
21
-2.078959
0
LINE
8
Image
10
61.704194
20
-2.078959
11
60.734614
21
-3.662809
0
LINE
8
Image
10
60.734614
20
-3.662809
11
60.209339
21
-4.477223
0
LINE
8
Image
10
60.209339
20
-4.477223
11
60.267846
21
-4.665095
0
LINE
8
Image
10
60.267846
20
-4.665095
11
60.516967
21
-4.832989
0
LINE
8
Image
10
60.516967
20
-4.832989
11
61.355887
21
-5.438967
0
LINE
8
Image
10
61.355887
20
-5.438967
11
62.264641
21
-6.311422
0
LINE
8
Image
10
62.264641
20
-6.311422
11
63.108105
21
-7.306350
0
LINE
8
Image
10
63.108105
20
-7.306350
11
63.751157
21
-8.279749
0
LINE
8
Image
10
63.751157
20
-8.279749
11
64.326561
21
-9.702239
0
LINE
8
Image
10
64.326561
20
-9.702239
11
64.580630
21
-11.510809
0
LINE
8
Image
10
64.580630
20
-11.510809
11
64.597558
21
-12.851468
0
LINE
8
Image
10
64.597558
20
-12.851468
11
64.455909
21
-14.083191
0
LINE
8
Image
10
64.455909
20
-14.083191
11
64.154097
21
-15.208803
0
LINE
8
Image
10
64.154097
20
-15.208803
11
63.690540
21
-16.231126
0
LINE
8
Image
10
63.690540
20
-16.231126
11
63.063654
21
-17.152987
0
LINE
8
Image
10
63.063654
20
-17.152987
11
62.271855
21
-17.977208
0
LINE
8
Image
10
62.271855
20
-17.977208
11
61.313558
21
-18.706614
0
LINE
8
Image
10
61.313558
20
-18.706614
11
60.187180
21
-19.344029
0
LINE
8
Image
10
60.187180
20
-19.344029
11
58.514880
21
-20.162072
0
LINE
8
Image
10
58.514880
20
-20.162072
11
48.752880
21
-20.215756
0
LINE
8
Image
10
48.752880
20
-20.215756
11
41.700892
21
-20.188035
0
LINE
8
Image
10
41.700892
20
-20.188035
11
38.454480
21
-20.045997
0
LINE
8
Image
10
38.454480
20
-20.045997
11
38.454490
21
-20.046000
0
LINE
8
Image
10
58.057390
20
-14.795930
11
58.906958
21
-14.283343
0
LINE
8
Image
10
58.906958
20
-14.283343
11
59.492388
21
-13.655419
0
LINE
8
Image
10
59.492388
20
-13.655419
11
59.815860
21
-12.938840
0
LINE
8
Image
10
59.815860
20
-12.938840
11
59.879556
21
-12.160287
0
LINE
8
Image
10
59.879556
20
-12.160287
11
59.685658
21
-11.346443
0
LINE
8
Image
10
59.685658
20
-11.346443
11
59.236347
21
-10.523987
0
LINE
8
Image
10
59.236347
20
-10.523987
11
58.533805
21
-9.719602
0
LINE
8
Image
10
58.533805
20
-9.719602
11
57.580212
21
-8.959970
0
LINE
8
Image
10
57.580212
20
-8.959970
11
56.430347
21
-8.319943
0
LINE
8
Image
10
56.430347
20
-8.319943
11
55.080372
21
-7.933910
0
LINE
8
Image
10
55.080372
20
-7.933910
11
53.180250
21
-7.739337
0
LINE
8
Image
10
53.180250
20
-7.739337
11
50.379942
21
-7.673690
0
LINE
8
Image
10
50.379942
20
-7.673690
11
46.249862
21
-7.646681
0
LINE
8
Image
10
46.249862
20
-7.646681
11
46.124708
21
-11.360511
0
LINE
8
Image
10
46.124708
20
-11.360511
11
46.103852
21
-15.177701
0
LINE
8
Image
10
46.103852
20
-15.177701
11
51.610622
21
-15.275565
0
LINE
8
Image
10
51.610622
20
-15.275565
11
56.274003
21
-15.190586
0
LINE
8
Image
10
56.274003
20
-15.190586
11
57.331296
21
-15.046430
0
LINE
8
Image
10
57.331296
20
-15.046430
11
58.057392
21
-14.795923
0
LINE
8
Image
10
58.057392
20
-14.795923
11
58.057390
21
-14.795930
0
LINE
8
Image
10
55.365180
20
-1.639430
11
56.394677
21
-0.952618
0
LINE
8
Image
10
56.394677
20
-0.952618
11
57.100681
21
-0.197245
0
LINE
8
Image
10
57.100681
20
-0.197245
11
57.507122
21
0.661408
0
LINE
8
Image
10
57.507122
20
0.661408
11
57.637930
21
1.658060
0
LINE
8
Image
10
57.637930
20
1.658060
11
57.487647
21
2.648985
0
LINE
8
Image
10
57.487647
20
2.648985
11
56.962209
21
3.506830
0
LINE
8
Image
10
56.962209
20
3.506830
11
56.131770
21
4.297453
0
LINE
8
Image
10
56.131770
20
4.297453
11
55.036050
21
4.746585
0
LINE
8
Image
10
55.036050
20
4.746585
11
53.263067
21
4.947595
0
LINE
8
Image
10
53.263067
20
4.947595
11
50.400839
21
4.993850
0
LINE
8
Image
10
50.400839
20
4.993850
11
46.150400
21
4.993910
0
LINE
8
Image
10
46.150400
20
4.993910
11
46.074965
21
1.342820
0
LINE
8
Image
10
46.074965
20
1.342820
11
46.124678
21
-2.432660
0
LINE
8
Image
10
46.124678
20
-2.432660
11
50.129598
21
-2.473602
0
LINE
8
Image
10
50.129598
20
-2.473602
11
53.666960
21
-2.299625
0
LINE
8
Image
10
53.666960
20
-2.299625
11
54.521468
21
-2.066047
0
LINE
8
Image
10
54.521468
20
-2.066047
11
55.365148
21
-1.639357
0
LINE
8
Image
10
55.365148
20
-1.639357
11
55.365180
21
-1.639430
 0 
ENDSEC
 0 
EOF