0
SECTION
2
HEADER
9
$INSUNITS
70
4
9
$ACADVER
1
AC1014
9
$HANDSEED
5
FFFF
0
ENDSEC
0
SECTION
2
TABLES
0
TABLE
2
VPORT
5
8
100
AcDbSymbolTable
0
ENDTAB
0
TABLE
2
LTYPE
5
5
100
AcDbSymbolTable
0
LTYPE
5
14
100
AcDbSymbolTableRecord
100
AcDbLinetypeTableRecord
2
BYBLOCK
70
0
0
LTYPE
5
15
100
AcDbSymbolTableRecord
100
AcDbLinetypeTableRecord
2
BYLAYER
70
0
0
ENDTAB
0
TABLE
2
LAYER
5
2
100
AcDbSymbolTable
70
2
0
LAYER
5
50
100
AcDbSymbolTableRecord
100
AcDbLayerTableRecord
2
0
70
0
6
CONTINUOUS
0
ENDTAB
0
TABLE
2
STYLE
5
3
100
AcDbSymbolTable
70
1
0
STYLE
5
11
100
AcDbSymbolTableRecord
100
AcDbTextStyleTableRecord
2
STANDARD
70
0
0
ENDTAB
0
TABLE
2
VIEW
5
6
100
AcDbSymbolTable
70
0
0
ENDTAB
0
TABLE
2
UCS
5
7
100
AcDbSymbolTable
70
0
0
ENDTAB
0
TABLE
2
APPID
5
9
100
AcDbSymbolTable
70
2
0
APPID
5
12
100
AcDbSymbolTableRecord
100
AcDbRegAppTableRecord
2
ACAD
70
0
0
ENDTAB
0
TABLE
2
DIMSTYLE
5
A
100
AcDbSymbolTable
70
1
0
ENDTAB
0
TABLE
2
BLOCK_RECORD
5
1
100
AcDbSymbolTable
70
1
0
BLOCK_RECORD
5
1F
100
AcDbSymbolTableRecord
100
AcDbBlockTableRecord
2
*MODEL_SPACE
0
BLOCK_RECORD
5
1B
100
AcDbSymbolTableRecord
100
AcDbBlockTableRecord
2
*PAPER_SPACE
0
ENDTAB
0
ENDSEC
0
SECTION
2
BLOCKS
0
BLOCK
5
20
100
AcDbEntity
100
AcDbBlockBegin
2
*MODEL_SPACE
0
ENDBLK
5
21
100
AcDbEntity
100
AcDbBlockEnd
0
BLOCK
5
1C
100
AcDbEntity
100
AcDbBlockBegin
2
*PAPER_SPACE
0
ENDBLK
5
1D
100
AcDbEntity
100
AcDbBlockEnd
0
ENDSEC
0
SECTION
2
ENTITIES
0
LWPOLYLINE
5
100
100
AcDbEntity
8
0
100
AcDbPolyline
90
8
70
1
43
0.0
10
370.54646360927882
20
69.980989006362989
10
399.83578549062406
20
-0.72968911229177813
10
370.54646360927882
20
-71.440367230946563
10
299.835785490624
20
-100.72968911229181
10
229.12510737196925
20
-71.440367230946521
10
199.835785490624
20
-0.72968911229175148
10
229.12510737196928
20
69.980989006363004
10
299.83578549062406
20
99.270310887708263
0
LINE
5
101
100
AcDbEntity
8
0
100
AcDbLine
10
301.13578549062402
20
90
30
0
11
301.13578549062402
21
98.731833256623247
31
0
0
LINE
5
102
100
AcDbEntity
8
0
100
AcDbLine
10
298.53578549062405
20
98.731833256623247
30
0
11
298.53578549062405
21
90
31
0
0
LINE
5
103
100
AcDbEntity
8
0
100
AcDbLine
10
298.53578549062405
20
90
30
0
11
301.13578549062402
21
90
31
0
0
LINE
5
104
100
AcDbEntity
8
0
100
AcDbLine
10
228.58662974088421
20
68.680989006363006
30
0
11
234.76096824883271
21
62.50665049841448
31
0
0
LINE
5
105
100
AcDbEntity
8
0
100
AcDbLine
10
234.76096824883271
20
62.50665049841448
30
0
11
236.59944587991774
21
64.3451281294995
31
0
0
LINE
5
106
100
AcDbEntity
8
0
100
AcDbLine
10
236.59944587991774
20
64.3451281294995
30
0
11
230.42510737196923
21
70.519466637448033
31
0
0
LINE
5
107
100
AcDbEntity
8
0
100
AcDbLine
10
200.37426312170905
20
-2.0296891122917415
30
0
11
209.1060963783323
21
-2.0296891122917415
31
0
0
LINE
5
108
100
AcDbEntity
8
0
100
AcDbLine
10
209.1060963783323
20
-2.0296891122917415
30
0
11
209.1060963783323
21
0.57031088770823857
31
0
0
LINE
5
109
100
AcDbEntity
8
0
100
AcDbLine
10
209.1060963783323
20
0.57031088770823857
30
0
11
200.37426312170905
21
0.57031088770823857
31
0
0
LINE
5
110
100
AcDbEntity
8
0
100
AcDbLine
10
230.4251073719692
20
-71.978844862031622
30
0
11
236.59944587991774
21
-65.804506354083102
31
0
0
LINE
5
111
100
AcDbEntity
8
0
100
AcDbLine
10
236.59944587991774
20
-65.804506354083102
30
0
11
234.76096824883271
21
-63.966028722998075
31
0
0
LINE
5
112
100
AcDbEntity
8
0
100
AcDbLine
10
234.76096824883271
20
-63.966028722998075
30
0
11
228.58662974088418
21
-70.140367230946595
31
0
0
LINE
5
113
100
AcDbEntity
8
0
100
AcDbLine
10
301.13578549062402
20
-100.19121148120681
30
0
11
301.13578549062402
21
-91.45937822458356
31
0
0
LINE
5
114
100
AcDbEntity
8
0
100
AcDbLine
10
301.13578549062402
20
-91.45937822458356
30
0
11
298.53578549062405
21
-91.45937822458356
31
0
0
LINE
5
115
100
AcDbEntity
8
0
100
AcDbLine
10
298.53578549062405
20
-91.45937822458356
30
0
11
298.53578549062405
21
-100.19121148120681
31
0
0
LINE
5
116
100
AcDbEntity
8
0
100
AcDbLine
10
371.08494124036383
20
-70.140367230946595
30
0
11
364.91060273241538
21
-63.96602872299809
31
0
0
LINE
5
117
100
AcDbEntity
8
0
100
AcDbLine
10
364.91060273241538
20
-63.96602872299809
30
0
11
363.07212510133036
21
-65.804506354083117
31
0
0
LINE
5
118
100
AcDbEntity
8
0
100
AcDbLine
10
363.07212510133036
20
-65.804506354083117
30
0
11
369.24646360927881
21
-71.978844862031622
31
0
0
LINE
5
119
100
AcDbEntity
8
0
100
AcDbLine
10
399.29730785953905
20
0.57031088770816751
30
0
11
390.56547460291586
21
0.57031088770816751
31
0
0
LINE
5
120
100
AcDbEntity
8
0
100
AcDbLine
10
390.56547460291586
20
0.57031088770816751
30
0
11
390.56547460291586
21
-2.0296891122918126
31
0
0
LINE
5
121
100
AcDbEntity
8
0
100
AcDbLine
10
390.56547460291586
20
-2.0296891122918126
30
0
11
399.29730785953905
21
-2.0296891122918126
31
0
0
LINE
5
122
100
AcDbEntity
8
0
100
AcDbLine
10
369.24646360927886
20
70.519466637448033
30
0
11
363.07212510133036
21
64.345128129499528
31
0
0
LINE
5
123
100
AcDbEntity
8
0
100
AcDbLine
10
363.07212510133036
20
64.345128129499528
30
0
11
364.91060273241538
21
62.506650498414501
31
0
0
LINE
5
124
100
AcDbEntity
8
0
100
AcDbLine
10
364.91060273241538
20
62.506650498414501
30
0
11
371.08494124036389
21
68.680989006363006
31
0
0
CIRCLE
5
125
100
AcDbEntity
8
0
100
AcDbCircle
10
299.83578549062406
20
-0.72968911229177325
30
0
40
7.5
210
0
220
0
230
1
0
ENDSEC
0
SECTION
2
OBJECTS
0
DICTIONARY
5
C
100
AcDbDictionary
3
ACAD_GROUP
350
D
3
ACAD_MLINESTYLE
350
17
0
DICTIONARY
5
D
100
AcDbDictionary
0
DICTIONARY
5
1A
330
C
100
AcDbDictionary
0
DICTIONARY
5
17
100
AcDbDictionary
0
ENDSEC
0
EOF
