  0
SECTION
  2
HEADER
  9
$ACADVER
  1
AC1024
  9
$ACADMAINTVER
 70
     6
  9
$DWGCODEPAGE
  3
ANSI_1252
  9
$INSBASE
 10
0.0
 20
0.0
 30
0.0
  9
$EXTMIN
 10
1.000000000000000E+20
 20
1.000000000000000E+20
 30
1.000000000000000E+20
  9
$EXTMAX
 10
-1.000000000000000E+20
 20
-1.000000000000000E+20
 30
-1.000000000000000E+20
  9
$LIMMIN
 10
0.0
 20
0.0
  9
$LIMMAX
 10
12.0
 20
9.0
  9
$ORTHOMODE
 70
     0
  9
$REGENMODE
 70
     1
  9
$FILLMODE
 70
     1
  9
$QTEXTMODE
 70
     0
  9
$MIRRTEXT
 70
     1
  9
$LTSCALE
 40
1.0
  9
$ATTMODE
 70
     1
  9
$TEXTSIZE
 40
0.2
  9
$TRACEWID
 40
0.05
  9
$TEXTSTYLE
  7
Standard
  9
$CLAYER
  8
0
  9
$CELTYPE
  6
ByLayer
  9
$CECOLOR
 62
   256
  9
$CELTSCALE
 40
1.0
  9
$DISPSILH
 70
     0
  9
$DIMSCALE
 40
1.0
  9
$DIMASZ
 40
0.18
  9
$DIMEXO
 40
0.0625
  9
$DIMDLI
 40
0.38
  9
$DIMRND
 40
0.0
  9
$DIMDLE
 40
0.0
  9
$DIMEXE
 40
0.18
  9
$DIMTP
 40
0.0
  9
$DIMTM
 40
0.0
  9
$DIMTXT
 40
0.18
  9
$DIMCEN
 40
0.09
  9
$DIMTSZ
 40
0.0
  9
$DIMTOL
 70
     0
  9
$DIMLIM
 70
     0
  9
$DIMTIH
 70
     1
  9
$DIMTOH
 70
     1
  9
$DIMSE1
 70
     0
  9
$DIMSE2
 70
     0
  9
$DIMTAD
 70
     0
  9
$DIMZIN
 70
     0
  9
$DIMBLK
  1

  9
$DIMASO
 70
     1
  9
$DIMSHO
 70
     1
  9
$DIMPOST
  1

  9
$DIMAPOST
  1

  9
$DIMALT
 70
     0
  9
$DIMALTD
 70
     2
  9
$DIMALTF
 40
25.4
  9
$DIMLFAC
 40
1.0
  9
$DIMTOFL
 70
     0
  9
$DIMTVP
 40
0.0
  9
$DIMTIX
 70
     0
  9
$DIMSOXD
 70
     0
  9
$DIMSAH
 70
     0
  9
$DIMBLK1
  1

  9
$DIMBLK2
  1

  9
$DIMSTYLE
  2
Standard
  9
$DIMCLRD
 70
     0
  9
$DIMCLRE
 70
     0
  9
$DIMCLRT
 70
     0
  9
$DIMTFAC
 40
1.0
  9
$DIMGAP
 40
0.09
  9
$DIMJUST
 70
     0
  9
$DIMSD1
 70
     0
  9
$DIMSD2
 70
     0
  9
$DIMTOLJ
 70
     1
  9
$DIMTZIN
 70
     0
  9
$DIMALTZ
 70
     0
  9
$DIMALTTZ
 70
     0
  9
$DIMUPT
 70
     0
  9
$DIMDEC
 70
     4
  9
$DIMTDEC
 70
     4
  9
$DIMALTU
 70
     2
  9
$DIMALTTD
 70
     2
  9
$DIMTXSTY
  7
Standard
  9
$DIMAUNIT
 70
     0
  9
$DIMADEC
 70
     0
  9
$DIMALTRND
 40
0.0
  9
$DIMAZIN
 70
     0
  9
$DIMDSEP
 70
    46
  9
$DIMATFIT
 70
     3
  9
$DIMFRAC
 70
     0
  9
$DIMLDRBLK
  1

  9
$DIMLUNIT
 70
     2
  9
$DIMLWD
 70
    -2
  9
$DIMLWE
 70
    -2
  9
$DIMTMOVE
 70
     0
  9
$DIMFXL
 40
1.0
  9
$DIMFXLON
 70
     0
  9
$DIMJOGANG
 40
0.7853981633974483
  9
$DIMTFILL
 70
     0
  9
$DIMTFILLCLR
 70
     0
  9
$DIMARCSYM
 70
     0
  9
$DIMLTYPE
  6

  9
$DIMLTEX1
  6

  9
$DIMLTEX2
  6

  9
$DIMTXTDIRECTION
 70
     0
  9
$LUNITS
 70
     2
  9
$LUPREC
 70
     4
  9
$SKETCHINC
 40
0.1
  9
$FILLETRAD
 40
0.5
  9
$AUNITS
 70
     0
  9
$AUPREC
 70
     0
  9
$MENU
  1
.
  9
$ELEVATION
 40
0.0
  9
$PELEVATION
 40
0.0
  9
$THICKNESS
 40
0.0
  9
$LIMCHECK
 70
     0
  9
$CHAMFERA
 40
0.5
  9
$CHAMFERB
 40
0.5
  9
$CHAMFERC
 40
1.0
  9
$CHAMFERD
 40
0.0
  9
$SKPOLY
 70
     0
  9
$TDCREATE
 40
2459258.659585868
  9
$TDUCREATE
 40
2459258.867919201
  9
$TDUPDATE
 40
2459258.659586111
  9
$TDUUPDATE
 40
2459258.867919445
  9
$TDINDWG
 40
0.0000000116
  9
$TDUSRTIMER
 40
0.0000000116
  9
$USRTIMER
 70
     1
  9
$ANGBASE
 50
0.0
  9
$ANGDIR
 70
     0
  9
$PDMODE
 70
     0
  9
$PDSIZE
 40
0.0
  9
$PLINEWID
 40
0.0
  9
$SPLFRAME
 70
     0
  9
$SPLINETYPE
 70
     6
  9
$SPLINESEGS
 70
     8
  9
$HANDSEED
  5
15A
  9
$SURFTAB1
 70
     6
  9
$SURFTAB2
 70
     6
  9
$SURFTYPE
 70
     6
  9
$SURFU
 70
     6
  9
$SURFV
 70
     6
  9
$UCSBASE
  2

  9
$UCSNAME
  2

  9
$UCSORG
 10
0.0
 20
0.0
 30
0.0
  9
$UCSXDIR
 10
1.0
 20
0.0
 30
0.0
  9
$UCSYDIR
 10
0.0
 20
1.0
 30
0.0
  9
$UCSORTHOREF
  2

  9
$UCSORTHOVIEW
 70
     0
  9
$UCSORGTOP
 10
0.0
 20
0.0
 30
0.0
  9
$UCSORGBOTTOM
 10
0.0
 20
0.0
 30
0.0
  9
$UCSORGLEFT
 10
0.0
 20
0.0
 30
0.0
  9
$UCSORGRIGHT
 10
0.0
 20
0.0
 30
0.0
  9
$UCSORGFRONT
 10
0.0
 20
0.0
 30
0.0
  9
$UCSORGBACK
 10
0.0
 20
0.0
 30
0.0
  9
$PUCSBASE
  2

  9
$PUCSNAME
  2

  9
$PUCSORG
 10
0.0
 20
0.0
 30
0.0
  9
$PUCSXDIR
 10
1.0
 20
0.0
 30
0.0
  9
$PUCSYDIR
 10
0.0
 20
1.0
 30
0.0
  9
$PUCSORTHOREF
  2

  9
$PUCSORTHOVIEW
 70
     0
  9
$PUCSORGTOP
 10
0.0
 20
0.0
 30
0.0
  9
$PUCSORGBOTTOM
 10
0.0
 20
0.0
 30
0.0
  9
$PUCSORGLEFT
 10
0.0
 20
0.0
 30
0.0
  9
$PUCSORGRIGHT
 10
0.0
 20
0.0
 30
0.0
  9
$PUCSORGFRONT
 10
0.0
 20
0.0
 30
0.0
  9
$PUCSORGBACK
 10
0.0
 20
0.0
 30
0.0
  9
$USERI1
 70
     0
  9
$USERI2
 70
     0
  9
$USERI3
 70
     0
  9
$USERI4
 70
     0
  9
$USERI5
 70
     0
  9
$USERR1
 40
0.0
  9
$USERR2
 40
0.0
  9
$USERR3
 40
0.0
  9
$USERR4
 40
0.0
  9
$USERR5
 40
0.0
  9
$WORLDVIEW
 70
     1
  9
$SHADEDGE
 70
     3
  9
$SHADEDIF
 70
    70
  9
$TILEMODE
 70
     1
  9
$MAXACTVP
 70
    64
  9
$PINSBASE
 10
0.0
 20
0.0
 30
0.0
  9
$PLIMCHECK
 70
     0
  9
$PEXTMIN
 10
1.000000000000000E+20
 20
1.000000000000000E+20
 30
1.000000000000000E+20
  9
$PEXTMAX
 10
-1.000000000000000E+20
 20
-1.000000000000000E+20
 30
-1.000000000000000E+20
  9
$PLIMMIN
 10
0.0
 20
0.0
  9
$PLIMMAX
 10
12.0
 20
9.0
  9
$UNITMODE
 70
     0
  9
$VISRETAIN
 70
     1
  9
$PLINEGEN
 70
     0
  9
$PSLTSCALE
 70
     1
  9
$TREEDEPTH
 70
  3020
  9
$CMLSTYLE
  2
Standard
  9
$CMLJUST
 70
     0
  9
$CMLSCALE
 40
1.0
  9
$PROXYGRAPHICS
 70
     1
  9
$MEASUREMENT
 70
     0
  9
$CELWEIGHT
370
    -1
  9
$ENDCAPS
280
     0
  9
$JOINSTYLE
280
     0
  9
$LWDISPLAY
290
     1
  9
$INSUNITS
 70
     1
  9
$HYPERLINKBASE
  1

  9
$STYLESHEET
  1

  9
$XEDIT
290
     1
  9
$CEPSNTYPE
380
     0
  9
$PSTYLEMODE
290
     1
  9
$FINGERPRINTGUID
  2
{7EDB2151-AE9A-406C-B0DA-6CFEC8855FF9}
  9
$VERSIONGUID
  2
{FAEB1C32-E019-11D5-929B-00C0DF256EC4}
  9
$EXTNAMES
290
     1
  9
$PSVPSCALE
 40
0.0
  9
$OLESTARTUP
290
     0
  9
$SORTENTS
280
   127
  9
$INDEXCTL
280
     0
  9
$HIDETEXT
280
     1
  9
$XCLIPFRAME
280
     2
  9
$HALOGAP
280
     0
  9
$OBSCOLOR
 70
   257
  9
$OBSLTYPE
280
     0
  9
$INTERSECTIONDISPLAY
280
     0
  9
$INTERSECTIONCOLOR
 70
   257
  9
$DIMASSOC
280
     2
  9
$PROJECTNAME
  1

  9
$CAMERADISPLAY
290
     0
  9
$LENSLENGTH
 40
50.0
  9
$CAMERAHEIGHT
 40
0.0
  9
$STEPSPERSEC
 40
2.0
  9
$STEPSIZE
 40
6.0
  9
$3DDWFPREC
 40
2.0
  9
$PSOLWIDTH
 40
0.25
  9
$PSOLHEIGHT
 40
4.0
  9
$LOFTANG1
 40
1.570796326794897
  9
$LOFTANG2
 40
1.570796326794897
  9
$LOFTMAG1
 40
0.0
  9
$LOFTMAG2
 40
0.0
  9
$LOFTPARAM
 70
     7
  9
$LOFTNORMALS
280
     1
  9
$LATITUDE
 40
37.795
  9
$LONGITUDE
 40
-122.394
  9
$NORTHDIRECTION
 40
0.0
  9
$TIMEZONE
 70
 -8000
  9
$LIGHTGLYPHDISPLAY
280
     1
  9
$TILEMODELIGHTSYNCH
280
     1
  9
$CMATERIAL
347
3C
  9
$SOLIDHIST
280
     1
  9
$SHOWHIST
280
     1
  9
$DWFFRAME
280
     2
  9
$DGNFRAME
280
     2
  9
$REALWORLDSCALE
290
     1
  9
$INTERFERECOLOR
 62
   256
  9
$CSHADOW
280
     0
  9
$SHADOWPLANELOCATION
 40
0.0
  0
ENDSEC
  0
SECTION
  2
CLASSES
  0
CLASS
  1
ACDBDICTIONARYWDFLT
  2
AcDbDictionaryWithDefault
  3
ObjectDBX Classes
 90
        0
 91
        4
280
     0
281
     0
  0
CLASS
  1
VISUALSTYLE
  2
AcDbVisualStyle
  3
ObjectDBX Classes
 90
     4095
 91
        4
280
     0
281
     0
  0
CLASS
  1
MATERIAL
  2
AcDbMaterial
  3
ObjectDBX Classes
 90
     1153
 91
        4
280
     0
281
     0
  0
CLASS
  1
SUN
  2
AcDbSun
  3
SCENEOE
 90
     1024
 91
        4
280
     0
281
     0
  0
ENDSEC
  0
SECTION
  2
TABLES
  0
TABLE
  2
VPORT
  5
8
330
0
100
AcDbSymbolTable
 70
     1
  0
VPORT
  5
29
330
8
100
AcDbSymbolTableRecord
100
AcDbViewportTableRecord
  2
*Active
 70
     0
 10
0.0
 20
0.0
 11
1.0
 21
1.0
 12
0.0
 22
0.0
 13
0.0
 23
0.0
 14
0.5
 24
0.5
 15
0.5
 25
0.5
 16
0.0
 26
0.0
 36
1.0
 17
300.0004582583332
 27
0.0
 37
0.0
 40
289.9999999275002
 41
0.7241379310344824
 42
50.0
 43
0.0
 44
0.0
 50
0.0
 51
0.0
 71
     0
 72
   100
 73
     1
 74
     3
 75
     0
 76
     0
 77
     0
 78
     0
281
     0
 65
     1
110
0.0
120
0.0
130
0.0
111
1.0
121
0.0
131
0.0
112
0.0
122
1.0
132
0.0
 79
     0
146
0.0
 60
     3
 61
     5
292
     1
282
     1
141
0.0
142
0.0
 63
   250
361
3F
  0
ENDTAB
  0
TABLE
  2
LTYPE
  5
5
330
0
100
AcDbSymbolTable
 70
     1
  0
LTYPE
  5
14
330
5
100
AcDbSymbolTableRecord
100
AcDbLinetypeTableRecord
  2
ByBlock
 70
     0
  3

 72
    65
 73
     0
 40
0.0
  0
LTYPE
  5
15
330
5
100
AcDbSymbolTableRecord
100
AcDbLinetypeTableRecord
  2
ByLayer
 70
     0
  3

 72
    65
 73
     0
 40
0.0
  0
LTYPE
  5
16
330
5
100
AcDbSymbolTableRecord
100
AcDbLinetypeTableRecord
  2
Continuous
 70
     0
  3
Solid line
 72
    65
 73
     0
 40
0.0
  0
ENDTAB
  0
TABLE
  2
LAYER
  5
2
330
0
100
AcDbSymbolTable
 70
     3
  0
LAYER
  5
10
330
2
100
AcDbSymbolTableRecord
100
AcDbLayerTableRecord
  2
0
 70
     0
 62
     7
  6
Continuous
370
    -3
390
F
347
3E
  0
LAYER
  5
40
330
2
100
AcDbSymbolTableRecord
100
AcDbLayerTableRecord
  2
Originals
 70
     0
 62
     7
  6
Continuous
370
    -3
390
F
347
3E
  0
LAYER
  5
41
330
2
100
AcDbSymbolTableRecord
100
AcDbLayerTableRecord
  2
CutTest
 70
     0
 62
     7
  6
Continuous
370
    -3
390
F
347
3E
  0
ENDTAB
  0
TABLE
  2
STYLE
  5
3
330
0
100
AcDbSymbolTable
 70
     1
  0
STYLE
  5
11
330
3
100
AcDbSymbolTableRecord
100
AcDbTextStyleTableRecord
  2
Standard
 70
     0
 40
0.0
 41
1.0
 50
0.0
 71
     0
 42
0.2
  3
txt
  4

  0
ENDTAB
  0
TABLE
  2
VIEW
  5
6
330
0
100
AcDbSymbolTable
 70
     0
  0
ENDTAB
  0
TABLE
  2
UCS
  5
7
330
0
100
AcDbSymbolTable
 70
     0
  0
ENDTAB
  0
TABLE
  2
APPID
  5
9
330
0
100
AcDbSymbolTable
 70
     1
  0
APPID
  5
12
330
9
100
AcDbSymbolTableRecord
100
AcDbRegAppTableRecord
  2
ACAD
 70
     0
  0
ENDTAB
  0
TABLE
  2
DIMSTYLE
  5
A
330
0
100
AcDbSymbolTable
 70
     1
100
AcDbDimStyleTable
  0
DIMSTYLE
105
27
330
A
100
AcDbSymbolTableRecord
100
AcDbDimStyleTableRecord
  2
Standard
 70
     0
178
     0
340
11
  0
ENDTAB
  0
TABLE
  2
BLOCK_RECORD
  5
1
330
0
100
AcDbSymbolTable
 70
    38
  0
BLOCK_RECORD
  5
1F
330
1
100
AcDbSymbolTableRecord
100
AcDbBlockTableRecord
  2
*Model_Space
340
22
 70
     0
280
     1
281
     0
  0
BLOCK_RECORD
  5
1B
330
1
100
AcDbSymbolTableRecord
100
AcDbBlockTableRecord
  2
*Paper_Space
340
1E
 70
     0
280
     1
281
     0
  0
BLOCK_RECORD
  5
23
330
1
100
AcDbSymbolTableRecord
100
AcDbBlockTableRecord
  2
*Paper_Space0
340
26
 70
     0
280
     1
281
     0
  0
BLOCK_RECORD
  5
42
330
1
100
AcDbSymbolTableRecord
100
AcDbBlockTableRecord
  2
block 2
340
0
102
{BLKREFS
331
43
102
}
 70
     0
280
     1
281
     0
  0
BLOCK_RECORD
  5
47
330
1
100
AcDbSymbolTableRecord
100
AcDbBlockTableRecord
  2
block 3
340
0
102
{BLKREFS
331
48
102
}
 70
     0
280
     1
281
     0
  0
BLOCK_RECORD
  5
4F
330
1
100
AcDbSymbolTableRecord
100
AcDbBlockTableRecord
  2
block 4
340
0
102
{BLKREFS
331
50
102
}
 70
     0
280
     1
281
     0
  0
BLOCK_RECORD
  5
57
330
1
100
AcDbSymbolTableRecord
100
AcDbBlockTableRecord
  2
block 5
340
0
102
{BLKREFS
331
58
102
}
 70
     0
280
     1
281
     0
  0
BLOCK_RECORD
  5
5F
330
1
100
AcDbSymbolTableRecord
100
AcDbBlockTableRecord
  2
block 6
340
0
102
{BLKREFS
331
60
102
}
 70
     0
280
     1
281
     0
  0
BLOCK_RECORD
  5
67
330
1
100
AcDbSymbolTableRecord
100
AcDbBlockTableRecord
  2
block 7
340
0
102
{BLKREFS
331
68
102
}
 70
     0
280
     1
281
     0
  0
BLOCK_RECORD
  5
6F
330
1
100
AcDbSymbolTableRecord
100
AcDbBlockTableRecord
  2
block 8
340
0
102
{BLKREFS
331
70
102
}
 70
     0
280
     1
281
     0
  0
BLOCK_RECORD
  5
77
330
1
100
AcDbSymbolTableRecord
100
AcDbBlockTableRecord
  2
block 9
340
0
102
{BLKREFS
331
78
102
}
 70
     0
280
     1
281
     0
  0
BLOCK_RECORD
  5
7F
330
1
100
AcDbSymbolTableRecord
100
AcDbBlockTableRecord
  2
block 10
340
0
102
{BLKREFS
331
80
102
}
 70
     0
280
     1
281
     0
  0
BLOCK_RECORD
  5
87
330
1
100
AcDbSymbolTableRecord
100
AcDbBlockTableRecord
  2
block 11
340
0
102
{BLKREFS
331
88
102
}
 70
     0
280
     1
281
     0
  0
BLOCK_RECORD
  5
8F
330
1
100
AcDbSymbolTableRecord
100
AcDbBlockTableRecord
  2
block 12
340
0
102
{BLKREFS
331
90
102
}
 70
     0
280
     1
281
     0
  0
BLOCK_RECORD
  5
97
330
1
100
AcDbSymbolTableRecord
100
AcDbBlockTableRecord
  2
block 13
340
0
102
{BLKREFS
331
98
102
}
 70
     0
280
     1
281
     0
  0
BLOCK_RECORD
  5
9F
330
1
100
AcDbSymbolTableRecord
100
AcDbBlockTableRecord
  2
block 14
340
0
102
{BLKREFS
331
A0
102
}
 70
     0
280
     1
281
     0
  0
BLOCK_RECORD
  5
A7
330
1
100
AcDbSymbolTableRecord
100
AcDbBlockTableRecord
  2
block 15
340
0
102
{BLKREFS
331
A8
102
}
 70
     0
280
     1
281
     0
  0
BLOCK_RECORD
  5
AF
330
1
100
AcDbSymbolTableRecord
100
AcDbBlockTableRecord
  2
block 16
340
0
102
{BLKREFS
331
B0
102
}
 70
     0
280
     1
281
     0
  0
BLOCK_RECORD
  5
B7
330
1
100
AcDbSymbolTableRecord
100
AcDbBlockTableRecord
  2
block 17
340
0
102
{BLKREFS
331
B8
102
}
 70
     0
280
     1
281
     0
  0
BLOCK_RECORD
  5
BF
330
1
100
AcDbSymbolTableRecord
100
AcDbBlockTableRecord
  2
block 18
340
0
102
{BLKREFS
331
C0
102
}
 70
     0
280
     1
281
     0
  0
BLOCK_RECORD
  5
C7
330
1
100
AcDbSymbolTableRecord
100
AcDbBlockTableRecord
  2
block 19
340
0
102
{BLKREFS
331
C8
102
}
 70
     0
280
     1
281
     0
  0
BLOCK_RECORD
  5
CF
330
1
100
AcDbSymbolTableRecord
100
AcDbBlockTableRecord
  2
block 20
340
0
102
{BLKREFS
331
D0
102
}
 70
     0
280
     1
281
     0
  0
BLOCK_RECORD
  5
D7
330
1
100
AcDbSymbolTableRecord
100
AcDbBlockTableRecord
  2
block 21
340
0
102
{BLKREFS
331
D8
102
}
 70
     0
280
     1
281
     0
  0
BLOCK_RECORD
  5
DF
330
1
100
AcDbSymbolTableRecord
100
AcDbBlockTableRecord
  2
block 22
340
0
102
{BLKREFS
331
E0
102
}
 70
     0
280
     1
281
     0
  0
BLOCK_RECORD
  5
E7
330
1
100
AcDbSymbolTableRecord
100
AcDbBlockTableRecord
  2
block 23
340
0
102
{BLKREFS
331
E8
102
}
 70
     0
280
     1
281
     0
  0
BLOCK_RECORD
  5
EF
330
1
100
AcDbSymbolTableRecord
100
AcDbBlockTableRecord
  2
block 24
340
0
102
{BLKREFS
331
F0
102
}
 70
     0
280
     1
281
     0
  0
BLOCK_RECORD
  5
F7
330
1
100
AcDbSymbolTableRecord
100
AcDbBlockTableRecord
  2
block 25
340
0
102
{BLKREFS
331
F8
102
}
 70
     0
280
     1
281
     0
  0
BLOCK_RECORD
  5
FF
330
1
100
AcDbSymbolTableRecord
100
AcDbBlockTableRecord
  2
block 26
340
0
102
{BLKREFS
331
100
102
}
 70
     0
280
     1
281
     0
  0
BLOCK_RECORD
  5
107
330
1
100
AcDbSymbolTableRecord
100
AcDbBlockTableRecord
  2
block 27
340
0
102
{BLKREFS
331
108
102
}
 70
     0
280
     1
281
     0
  0
BLOCK_RECORD
  5
10F
330
1
100
AcDbSymbolTableRecord
100
AcDbBlockTableRecord
  2
block 28
340
0
102
{BLKREFS
331
110
102
}
 70
     0
280
     1
281
     0
  0
BLOCK_RECORD
  5
117
330
1
100
AcDbSymbolTableRecord
100
AcDbBlockTableRecord
  2
block 29
340
0
102
{BLKREFS
331
118
102
}
 70
     0
280
     1
281
     0
  0
BLOCK_RECORD
  5
11F
330
1
100
AcDbSymbolTableRecord
100
AcDbBlockTableRecord
  2
block 30
340
0
102
{BLKREFS
331
120
102
}
 70
     0
280
     1
281
     0
  0
BLOCK_RECORD
  5
127
330
1
100
AcDbSymbolTableRecord
100
AcDbBlockTableRecord
  2
block 31
340
0
102
{BLKREFS
331
128
102
}
 70
     0
280
     1
281
     0
  0
BLOCK_RECORD
  5
12F
330
1
100
AcDbSymbolTableRecord
100
AcDbBlockTableRecord
  2
block 32
340
0
102
{BLKREFS
331
130
102
}
 70
     0
280
     1
281
     0
  0
BLOCK_RECORD
  5
137
330
1
100
AcDbSymbolTableRecord
100
AcDbBlockTableRecord
  2
block 33
340
0
102
{BLKREFS
331
138
102
}
 70
     0
280
     1
281
     0
  0
BLOCK_RECORD
  5
13F
330
1
100
AcDbSymbolTableRecord
100
AcDbBlockTableRecord
  2
block 34
340
0
102
{BLKREFS
331
140
102
}
 70
     0
280
     1
281
     0
  0
BLOCK_RECORD
  5
144
330
1
100
AcDbSymbolTableRecord
100
AcDbBlockTableRecord
  2
block 35
340
0
102
{BLKREFS
331
145
102
}
 70
     0
280
     1
281
     0
  0
BLOCK_RECORD
  5
149
330
1
100
AcDbSymbolTableRecord
100
AcDbBlockTableRecord
  2
block 36
340
0
102
{BLKREFS
331
14A
102
}
 70
     0
280
     1
281
     0
  0
BLOCK_RECORD
  5
14E
330
1
100
AcDbSymbolTableRecord
100
AcDbBlockTableRecord
  2
block 37
340
0
102
{BLKREFS
331
14F
102
}
 70
     0
280
     1
281
     0
  0
BLOCK_RECORD
  5
153
330
1
100
AcDbSymbolTableRecord
100
AcDbBlockTableRecord
  2
block 38
340
0
102
{BLKREFS
331
154
102
}
 70
     0
280
     1
281
     0
  0
ENDTAB
  0
ENDSEC
  0
SECTION
  2
BLOCKS
  0
BLOCK
  5
20
330
1F
100
AcDbEntity
  8
0
100
AcDbBlockBegin
  2
*Model_Space
 70
     0
 10
0.0
 20
0.0
 30
0.0
  3
*Model_Space
  1

  0
ENDBLK
  5
21
330
1F
100
AcDbEntity
  8
0
100
AcDbBlockEnd
  0
BLOCK
  5
1C
330
1B
100
AcDbEntity
 67
     1
  8
0
100
AcDbBlockBegin
  2
*Paper_Space
 70
     0
 10
0.0
 20
0.0
 30
0.0
  3
*Paper_Space
  1

  0
ENDBLK
  5
1D
330
1B
100
AcDbEntity
 67
     1
  8
0
100
AcDbBlockEnd
  0
BLOCK
  5
24
330
23
100
AcDbEntity
  8
0
100
AcDbBlockBegin
  2
*Paper_Space0
 70
     0
 10
0.0
 20
0.0
 30
0.0
  3
*Paper_Space0
  1

  0
ENDBLK
  5
25
330
23
100
AcDbEntity
  8
0
100
AcDbBlockEnd
  0
BLOCK
  5
44
330
42
100
AcDbEntity
  8
0
100
AcDbBlockBegin
  2
block 2
 70
     0
 10
0.0
 20
0.0
 30
0.0
  3
block 2
  1

  0
SPLINE
  5
46
330
42
100
AcDbEntity
  8
CutTest
 62
     7
420
 16777215
370
    25
100
AcDbSpline
210
0.0
220
0.0
230
1.0
 70
    11
 71
     3
 72
   125
 73
   121
 74
     0
 42
0.0000000001
 43
0.0000000001
 12
1.0
 22
0.0
 32
0.0
 13
1.0
 23
0.0
 33
0.0
 40
0.0
 40
0.0
 40
0.0
 40
0.0
 40
1.0
 40
1.0
 40
1.0
 40
2.0
 40
2.0
 40
2.0
 40
3.0
 40
3.0
 40
3.0
 40
4.0
 40
4.0
 40
4.0
 40
5.0
 40
5.0
 40
5.0
 40
6.0
 40
6.0
 40
6.0
 40
7.0
 40
7.0
 40
7.0
 40
8.0
 40
8.0
 40
8.0
 40
9.0
 40
9.0
 40
9.0
 40
10.0
 40
10.0
 40
10.0
 40
11.0
 40
11.0
 40
11.0
 40
12.0
 40
12.0
 40
12.0
 40
13.0
 40
13.0
 40
13.0
 40
14.0
 40
14.0
 40
14.0
 40
15.0
 40
15.0
 40
15.0
 40
16.0
 40
16.0
 40
16.0
 40
17.0
 40
17.0
 40
17.0
 40
18.0
 40
18.0
 40
18.0
 40
19.0
 40
19.0
 40
19.0
 40
20.0
 40
20.0
 40
20.0
 40
21.0
 40
21.0
 40
21.0
 40
22.0
 40
22.0
 40
22.0
 40
23.0
 40
23.0
 40
23.0
 40
24.0
 40
24.0
 40
24.0
 40
25.0
 40
25.0
 40
25.0
 40
26.0
 40
26.0
 40
26.0
 40
27.0
 40
27.0
 40
27.0
 40
28.0
 40
28.0
 40
28.0
 40
29.0
 40
29.0
 40
29.0
 40
30.0
 40
30.0
 40
30.0
 40
31.0
 40
31.0
 40
31.0
 40
32.0
 40
32.0
 40
32.0
 40
33.0
 40
33.0
 40
33.0
 40
34.0
 40
34.0
 40
34.0
 40
35.0
 40
35.0
 40
35.0
 40
36.0
 40
36.0
 40
36.0
 40
37.0
 40
37.0
 40
37.0
 40
38.0
 40
38.0
 40
38.0
 40
39.0
 40
39.0
 40
39.0
 40
40.0
 40
40.0
 40
40.0
 40
40.0
 10
405.3379582504662
 20
144.9257777478208
 30
0.0
 10
405.3379582504662
 20
144.9257777478208
 30
0.0
 10
305.3379582241286
 20
144.9257777478211
 30
0.0
 10
305.3379582241286
 20
144.9257777478211
 30
0.0
 10
305.3379582241286
 20
144.9257777478211
 30
0.0
 10
305.3379582351972
 20
137.4257777470832
 30
0.0
 10
305.3379582351972
 20
137.4257777470832
 30
0.0
 10
305.3379582356047
 20
137.1496353724559
 30
0.0
 10
305.5618158605699
 20
136.9257777478209
 30
0.0
 10
305.8379582351969
 20
136.9257777478209
 30
0.0
 10
305.8379582351969
 20
136.9257777478212
 30
0.0
 10
313.7379582374659
 20
136.9257777478209
 30
0.0
 10
313.7379582374659
 20
136.9257777478209
 30
0.0
 10
313.7379582374659
 20
136.9257777478209
 30
0.0
 10
313.7379582374621
 20
134.1257777478208
 30
0.0
 10
313.7379582374621
 20
134.1257777478208
 30
0.0
 10
313.7379582374621
 20
134.1257777478208
 30
0.0
 10
305.8379582872079
 20
134.1257777478208
 30
0.0
 10
305.8379582872079
 20
134.1257777478208
 30
0.0
 10
305.5618159122928
 20
134.1257777478208
 30
0.0
 10
305.3379582872076
 20
133.9019201227369
 30
0.0
 10
305.3379582872063
 20
133.6257777478217
 30
0.0
 10
305.3379582872063
 20
133.6257777478217
 30
0.0
 10
305.3379582871787
 20
121.7257777470997
 30
0.0
 10
305.3379582871787
 20
121.7257777470997
 30
0.0
 10
305.3379582871768
 20
121.4496353721833
 30
0.0
 10
305.5618159122607
 20
121.2257777470961
 30
0.0
 10
305.8379582871771
 20
121.2257777470939
 30
0.0
 10
305.8379582871784
 20
121.2257777470939
 30
0.0
 10
313.737958237446
 20
121.2257777470891
 30
0.0
 10
313.737958237446
 20
121.2257777470891
 30
0.0
 10
313.737958237446
 20
121.2257777470897
 30
0.0
 10
313.737958237446
 20
118.4257777470896
 30
0.0
 10
313.737958237446
 20
118.4257777470896
 30
0.0
 10
313.737958237446
 20
118.4257777470896
 30
0.0
 10
305.8379582871476
 20
118.4257777470723
 30
0.0
 10
305.8379582871476
 20
118.4257777470723
 30
0.0
 10
305.5618159122325
 20
118.4257777470717
 30
0.0
 10
305.3379582871473
 20
118.2019201219865
 30
0.0
 10
305.3379582871473
 20
117.9257777470707
 30
0.0
 10
305.3379582871473
 20
117.9257777470707
 30
0.0
 10
305.3379582871473
 20
106.0257777463487
 30
0.0
 10
305.3379582871473
 20
106.0257777463487
 30
0.0
 10
305.3379582871473
 20
105.7496353714329
 30
0.0
 10
305.5618159122318
 20
105.5257777463483
 30
0.0
 10
305.8379582871476
 20
105.5257777463483
 30
0.0
 10
305.8379582871476
 20
105.5257777463483
 30
0.0
 10
313.7379582894115
 20
105.5257777463503
 30
0.0
 10
313.7379582894115
 20
105.5257777463503
 30
0.0
 10
313.7379582894115
 20
105.5257777463503
 30
0.0
 10
313.7379582895578
 20
102.7257777463502
 30
0.0
 10
313.7379582895578
 20
102.7257777463502
 30
0.0
 10
313.7379582895578
 20
102.7257777463502
 30
0.0
 10
305.8379582871348
 20
102.725777746148
 30
0.0
 10
305.8379582871348
 20
102.725777746148
 30
0.0
 10
305.5618159131655
 20
102.725777746141
 30
0.0
 10
305.3379582884788
 20
102.5019201225278
 30
0.0
 10
305.3379582871473
 20
102.2257777485592
 30
0.0
 10
305.3379582871473
 20
102.2257777485592
 30
0.0
 10
305.337958250983
 20
94.72577774782128
 30
0.0
 10
305.337958250983
 20
94.72577774782128
 30
0.0
 10
305.337958250983
 20
94.72577774782128
 30
0.0
 10
405.3379582517842
 20
94.72577774782128
 30
0.0
 10
405.3379582517842
 20
94.72577774782128
 30
0.0
 10
405.3379582517842
 20
94.72577774782128
 30
0.0
 10
405.3379582515159
 20
102.2257777486952
 30
0.0
 10
405.3379582515159
 20
102.2257777486952
 30
0.0
 10
405.3379582515057
 20
102.5019201236001
 30
0.0
 10
405.1141006264295
 20
102.7257777486725
 30
0.0
 10
404.8379582515246
 20
102.7257777486776
 30
0.0
 10
404.8379582515246
 20
102.7257777486776
 30
0.0
 10
396.9379582482417
 20
102.7257777488188
 30
0.0
 10
396.9379582482417
 20
102.7257777488188
 30
0.0
 10
396.9379582482417
 20
102.7257777488188
 30
0.0
 10
396.9379582482417
 20
105.5257777488189
 30
0.0
 10
396.9379582482417
 20
105.5257777488189
 30
0.0
 10
396.9379582482417
 20
105.5257777488189
 30
0.0
 10
404.8379582505043
 20
105.5257777488291
 30
0.0
 10
404.8379582505043
 20
105.5257777488291
 30
0.0
 10
405.1141006254194
 20
105.5257777488298
 30
0.0
 10
405.3379582505046
 20
105.7496353739143
 30
0.0
 10
405.3379582505034
 20
106.0257777488301
 30
0.0
 10
405.3379582505034
 20
106.0257777488301
 30
0.0
 10
405.3379582504867
 20
117.9257777469866
 30
0.0
 10
405.3379582504867
 20
117.9257777469866
 30
0.0
 10
405.3379582504854
 20
118.2019201219005
 30
0.0
 10
405.1141006254028
 20
118.4257777469844
 30
0.0
 10
404.8379582504889
 20
118.4257777469863
 30
0.0
 10
404.8379582504889
 20
118.4257777469863
 30
0.0
 10
396.9379582627338
 20
118.4257777470409
 30
0.0
 10
396.9379582627338
 20
118.4257777470409
 30
0.0
 10
396.9379582627338
 20
118.4257777470409
 30
0.0
 10
396.9379582627146
 20
121.225777747041
 30
0.0
 10
396.9379582627146
 20
121.225777747041
 30
0.0
 10
396.9379582627146
 20
121.225777747041
 30
0.0
 10
404.8379582504658
 20
121.225777747041
 30
0.0
 10
404.8379582504658
 20
121.225777747041
 30
0.0
 10
405.114100625381
 20
121.225777747041
 30
0.0
 10
405.3379582504662
 20
121.4496353721252
 30
0.0
 10
405.3379582504662
 20
121.7257777470407
 30
0.0
 10
405.3379582504662
 20
121.7257777470407
 30
0.0
 10
405.3379582504662
 20
133.6257777474874
 30
0.0
 10
405.3379582504662
 20
133.6257777474874
 30
0.0
 10
405.3379582504662
 20
133.9019201224016
 30
0.0
 10
405.1141006253835
 20
134.1257777474855
 30
0.0
 10
404.8379582504697
 20
134.1257777474877
 30
0.0
 10
404.8379582504697
 20
134.1257777474877
 30
0.0
 10
396.9379582627492
 20
134.1257777475403
 30
0.0
 10
396.9379582627492
 20
134.1257777475403
 30
0.0
 10
396.9379582627492
 20
134.1257777475403
 30
0.0
 10
396.9379582627595
 20
136.9257777475404
 30
0.0
 10
396.9379582627595
 20
136.9257777475404
 30
0.0
 10
396.9379582627595
 20
136.9257777475404
 30
0.0
 10
404.8379582650234
 20
136.9257777475141
 30
0.0
 10
404.8379582650234
 20
136.9257777475141
 30
0.0
 10
405.1141006399386
 20
136.9257777475128
 30
0.0
 10
405.3379582650237
 20
137.1496353725967
 30
0.0
 10
405.337958265025
 20
137.4257777475125
 30
0.0
 10
405.337958265025
 20
137.4257777484844
 30
0.0
 10
405.3379582504662
 20
144.9257777478208
 30
0.0
 10
405.3379582504662
 20
144.9257777478208
 30
0.0
  0
ENDBLK
  5
45
330
42
100
AcDbEntity
  8
0
100
AcDbBlockEnd
  0
BLOCK
  5
49
330
47
100
AcDbEntity
  8
0
100
AcDbBlockBegin
  2
block 3
 70
     0
 10
0.0
 20
0.0
 30
0.0
  3
block 3
  1

  0
POLYLINE
  5
4B
330
47
100
AcDbEntity
  8
CutTest
 62
     7
420
 16777215
370
    25
100
AcDb2dPolyline
 66
     1
 10
0.0
 20
0.0
 30
0.0
  0
VERTEX
  5
4C
330
4B
100
AcDbEntity
  8
CutTest
 62
     7
420
 16777215
370
    25
100
AcDbVertex
100
AcDb2dVertex
 10
325.3379582582484
 20
140.925777747821
 30
0.0
  0
VERTEX
  5
4D
330
4B
100
AcDbEntity
  8
CutTest
 62
     7
420
 16777215
370
    25
100
AcDbVertex
100
AcDb2dVertex
 10
325.337958258249
 20
98.72577774782079
 30
0.0
  0
SEQEND
  5
4E
330
4B
100
AcDbEntity
  8
CutTest
 62
     7
420
 16777215
370
    25
  0
ENDBLK
  5
4A
330
47
100
AcDbEntity
  8
0
100
AcDbBlockEnd
  0
BLOCK
  5
51
330
4F
100
AcDbEntity
  8
0
100
AcDbBlockBegin
  2
block 4
 70
     0
 10
0.0
 20
0.0
 30
0.0
  3
block 4
  1

  0
POLYLINE
  5
53
330
4F
100
AcDbEntity
  8
CutTest
 62
     7
420
 16777215
370
    25
100
AcDb2dPolyline
 66
     1
 10
0.0
 20
0.0
 30
0.0
  0
VERTEX
  5
54
330
53
100
AcDbEntity
  8
CutTest
 62
     7
420
 16777215
370
    25
100
AcDbVertex
100
AcDb2dVertex
 10
328.3379582582543
 20
144.9257777478211
 30
0.0
  0
VERTEX
  5
55
330
53
100
AcDbEntity
  8
CutTest
 62
     7
420
 16777215
370
    25
100
AcDbVertex
100
AcDb2dVertex
 10
328.3379582582543
 20
121.8257777478219
 30
0.0
  0
SEQEND
  5
56
330
53
100
AcDbEntity
  8
CutTest
 62
     7
420
 16777215
370
    25
  0
ENDBLK
  5
52
330
4F
100
AcDbEntity
  8
0
100
AcDbBlockEnd
  0
BLOCK
  5
59
330
57
100
AcDbEntity
  8
0
100
AcDbBlockBegin
  2
block 5
 70
     0
 10
0.0
 20
0.0
 30
0.0
  3
block 5
  1

  0
POLYLINE
  5
5B
330
57
100
AcDbEntity
  8
CutTest
 62
     7
420
 16777215
370
    25
100
AcDb2dPolyline
 66
     1
 10
0.0
 20
0.0
 30
0.0
  0
VERTEX
  5
5C
330
5B
100
AcDbEntity
  8
CutTest
 62
     7
420
 16777215
370
    25
100
AcDbVertex
100
AcDb2dVertex
 10
328.3379582582479
 20
117.8257777478205
 30
0.0
  0
VERTEX
  5
5D
330
5B
100
AcDbEntity
  8
CutTest
 62
     7
420
 16777215
370
    25
100
AcDbVertex
100
AcDb2dVertex
 10
328.3379582582427
 20
94.72577774782128
 30
0.0
  0
SEQEND
  5
5E
330
5B
100
AcDbEntity
  8
CutTest
 62
     7
420
 16777215
370
    25
  0
ENDBLK
  5
5A
330
57
100
AcDbEntity
  8
0
100
AcDbBlockEnd
  0
BLOCK
  5
61
330
5F
100
AcDbEntity
  8
0
100
AcDbBlockBegin
  2
block 6
 70
     0
 10
0.0
 20
0.0
 30
0.0
  3
block 6
  1

  0
POLYLINE
  5
63
330
5F
100
AcDbEntity
  8
CutTest
 62
     7
420
 16777215
370
    25
100
AcDb2dPolyline
 66
     1
 10
0.0
 20
0.0
 30
0.0
  0
VERTEX
  5
64
330
63
100
AcDbEntity
  8
CutTest
 62
     7
420
 16777215
370
    25
100
AcDbVertex
100
AcDb2dVertex
 10
331.337958258248
 20
140.925777747821
 30
0.0
  0
VERTEX
  5
65
330
63
100
AcDbEntity
  8
CutTest
 62
     7
420
 16777215
370
    25
100
AcDbVertex
100
AcDb2dVertex
 10
331.3379582582486
 20
98.72577774782079
 30
0.0
  0
SEQEND
  5
66
330
63
100
AcDbEntity
  8
CutTest
 62
     7
420
 16777215
370
    25
  0
ENDBLK
  5
62
330
5F
100
AcDbEntity
  8
0
100
AcDbBlockEnd
  0
BLOCK
  5
69
330
67
100
AcDbEntity
  8
0
100
AcDbBlockBegin
  2
block 7
 70
     0
 10
0.0
 20
0.0
 30
0.0
  3
block 7
  1

  0
POLYLINE
  5
6B
330
67
100
AcDbEntity
  8
CutTest
 62
     7
420
 16777215
370
    25
100
AcDb2dPolyline
 66
     1
 10
0.0
 20
0.0
 30
0.0
  0
VERTEX
  5
6C
330
6B
100
AcDbEntity
  8
CutTest
 62
     7
420
 16777215
370
    25
100
AcDbVertex
100
AcDb2dVertex
 10
334.3379582582545
 20
144.9257777478211
 30
0.0
  0
VERTEX
  5
6D
330
6B
100
AcDbEntity
  8
CutTest
 62
     7
420
 16777215
370
    25
100
AcDbVertex
100
AcDb2dVertex
 10
334.3379582582545
 20
121.8257777478219
 30
0.0
  0
SEQEND
  5
6E
330
6B
100
AcDbEntity
  8
CutTest
 62
     7
420
 16777215
370
    25
  0
ENDBLK
  5
6A
330
67
100
AcDbEntity
  8
0
100
AcDbBlockEnd
  0
BLOCK
  5
71
330
6F
100
AcDbEntity
  8
0
100
AcDbBlockBegin
  2
block 8
 70
     0
 10
0.0
 20
0.0
 30
0.0
  3
block 8
  1

  0
POLYLINE
  5
73
330
6F
100
AcDbEntity
  8
CutTest
 62
     7
420
 16777215
370
    25
100
AcDb2dPolyline
 66
     1
 10
0.0
 20
0.0
 30
0.0
  0
VERTEX
  5
74
330
73
100
AcDbEntity
  8
CutTest
 62
     7
420
 16777215
370
    25
100
AcDbVertex
100
AcDb2dVertex
 10
334.3379582582481
 20
117.8257777478205
 30
0.0
  0
VERTEX
  5
75
330
73
100
AcDbEntity
  8
CutTest
 62
     7
420
 16777215
370
    25
100
AcDbVertex
100
AcDb2dVertex
 10
334.337958258243
 20
94.72577774782128
 30
0.0
  0
SEQEND
  5
76
330
73
100
AcDbEntity
  8
CutTest
 62
     7
420
 16777215
370
    25
  0
ENDBLK
  5
72
330
6F
100
AcDbEntity
  8
0
100
AcDbBlockEnd
  0
BLOCK
  5
79
330
77
100
AcDbEntity
  8
0
100
AcDbBlockBegin
  2
block 9
 70
     0
 10
0.0
 20
0.0
 30
0.0
  3
block 9
  1

  0
POLYLINE
  5
7B
330
77
100
AcDbEntity
  8
CutTest
 62
     7
420
 16777215
370
    25
100
AcDb2dPolyline
 66
     1
 10
0.0
 20
0.0
 30
0.0
  0
VERTEX
  5
7C
330
7B
100
AcDbEntity
  8
CutTest
 62
     7
420
 16777215
370
    25
100
AcDbVertex
100
AcDb2dVertex
 10
337.3379582582482
 20
140.925777747821
 30
0.0
  0
VERTEX
  5
7D
330
7B
100
AcDbEntity
  8
CutTest
 62
     7
420
 16777215
370
    25
100
AcDbVertex
100
AcDb2dVertex
 10
337.3379582582488
 20
98.72577774782079
 30
0.0
  0
SEQEND
  5
7E
330
7B
100
AcDbEntity
  8
CutTest
 62
     7
420
 16777215
370
    25
  0
ENDBLK
  5
7A
330
77
100
AcDbEntity
  8
0
100
AcDbBlockEnd
  0
BLOCK
  5
81
330
7F
100
AcDbEntity
  8
0
100
AcDbBlockBegin
  2
block 10
 70
     0
 10
0.0
 20
0.0
 30
0.0
  3
block 10
  1

  0
POLYLINE
  5
83
330
7F
100
AcDbEntity
  8
CutTest
 62
     7
420
 16777215
370
    25
100
AcDb2dPolyline
 66
     1
 10
0.0
 20
0.0
 30
0.0
  0
VERTEX
  5
84
330
83
100
AcDbEntity
  8
CutTest
 62
     7
420
 16777215
370
    25
100
AcDbVertex
100
AcDb2dVertex
 10
340.3379582582541
 20
144.9257777478211
 30
0.0
  0
VERTEX
  5
85
330
83
100
AcDbEntity
  8
CutTest
 62
     7
420
 16777215
370
    25
100
AcDbVertex
100
AcDb2dVertex
 10
340.3379582582547
 20
121.8257777478219
 30
0.0
  0
SEQEND
  5
86
330
83
100
AcDbEntity
  8
CutTest
 62
     7
420
 16777215
370
    25
  0
ENDBLK
  5
82
330
7F
100
AcDbEntity
  8
0
100
AcDbBlockEnd
  0
BLOCK
  5
89
330
87
100
AcDbEntity
  8
0
100
AcDbBlockBegin
  2
block 11
 70
     0
 10
0.0
 20
0.0
 30
0.0
  3
block 11
  1

  0
POLYLINE
  5
8B
330
87
100
AcDbEntity
  8
CutTest
 62
     7
420
 16777215
370
    25
100
AcDb2dPolyline
 66
     1
 10
0.0
 20
0.0
 30
0.0
  0
VERTEX
  5
8C
330
8B
100
AcDbEntity
  8
CutTest
 62
     7
420
 16777215
370
    25
100
AcDbVertex
100
AcDb2dVertex
 10
340.3379582582483
 20
117.8257777478205
 30
0.0
  0
VERTEX
  5
8D
330
8B
100
AcDbEntity
  8
CutTest
 62
     7
420
 16777215
370
    25
100
AcDbVertex
100
AcDb2dVertex
 10
340.3379582582432
 20
94.72577774782128
 30
0.0
  0
SEQEND
  5
8E
330
8B
100
AcDbEntity
  8
CutTest
 62
     7
420
 16777215
370
    25
  0
ENDBLK
  5
8A
330
87
100
AcDbEntity
  8
0
100
AcDbBlockEnd
  0
BLOCK
  5
91
330
8F
100
AcDbEntity
  8
0
100
AcDbBlockBegin
  2
block 12
 70
     0
 10
0.0
 20
0.0
 30
0.0
  3
block 12
  1

  0
POLYLINE
  5
93
330
8F
100
AcDbEntity
  8
CutTest
 62
     7
420
 16777215
370
    25
100
AcDb2dPolyline
 66
     1
 10
0.0
 20
0.0
 30
0.0
  0
VERTEX
  5
94
330
93
100
AcDbEntity
  8
CutTest
 62
     7
420
 16777215
370
    25
100
AcDbVertex
100
AcDb2dVertex
 10
343.3379582582477
 20
140.925777747821
 30
0.0
  0
VERTEX
  5
95
330
93
100
AcDbEntity
  8
CutTest
 62
     7
420
 16777215
370
    25
100
AcDbVertex
100
AcDb2dVertex
 10
343.337958258249
 20
98.72577774782079
 30
0.0
  0
SEQEND
  5
96
330
93
100
AcDbEntity
  8
CutTest
 62
     7
420
 16777215
370
    25
  0
ENDBLK
  5
92
330
8F
100
AcDbEntity
  8
0
100
AcDbBlockEnd
  0
BLOCK
  5
99
330
97
100
AcDbEntity
  8
0
100
AcDbBlockBegin
  2
block 13
 70
     0
 10
0.0
 20
0.0
 30
0.0
  3
block 13
  1

  0
POLYLINE
  5
9B
330
97
100
AcDbEntity
  8
CutTest
 62
     7
420
 16777215
370
    25
100
AcDb2dPolyline
 66
     1
 10
0.0
 20
0.0
 30
0.0
  0
VERTEX
  5
9C
330
9B
100
AcDbEntity
  8
CutTest
 62
     7
420
 16777215
370
    25
100
AcDbVertex
100
AcDb2dVertex
 10
346.3379582582537
 20
144.9257777478211
 30
0.0
  0
VERTEX
  5
9D
330
9B
100
AcDbEntity
  8
CutTest
 62
     7
420
 16777215
370
    25
100
AcDbVertex
100
AcDb2dVertex
 10
346.337958258255
 20
121.8257777478219
 30
0.0
  0
SEQEND
  5
9E
330
9B
100
AcDbEntity
  8
CutTest
 62
     7
420
 16777215
370
    25
  0
ENDBLK
  5
9A
330
97
100
AcDbEntity
  8
0
100
AcDbBlockEnd
  0
BLOCK
  5
A1
330
9F
100
AcDbEntity
  8
0
100
AcDbBlockBegin
  2
block 14
 70
     0
 10
0.0
 20
0.0
 30
0.0
  3
block 14
  1

  0
POLYLINE
  5
A3
330
9F
100
AcDbEntity
  8
CutTest
 62
     7
420
 16777215
370
    25
100
AcDb2dPolyline
 66
     1
 10
0.0
 20
0.0
 30
0.0
  0
VERTEX
  5
A4
330
A3
100
AcDbEntity
  8
CutTest
 62
     7
420
 16777215
370
    25
100
AcDbVertex
100
AcDb2dVertex
 10
346.3379582582485
 20
117.8257777478205
 30
0.0
  0
VERTEX
  5
A5
330
A3
100
AcDbEntity
  8
CutTest
 62
     7
420
 16777215
370
    25
100
AcDbVertex
100
AcDb2dVertex
 10
346.3379582582434
 20
94.72577774782128
 30
0.0
  0
SEQEND
  5
A6
330
A3
100
AcDbEntity
  8
CutTest
 62
     7
420
 16777215
370
    25
  0
ENDBLK
  5
A2
330
9F
100
AcDbEntity
  8
0
100
AcDbBlockEnd
  0
BLOCK
  5
A9
330
A7
100
AcDbEntity
  8
0
100
AcDbBlockBegin
  2
block 15
 70
     0
 10
0.0
 20
0.0
 30
0.0
  3
block 15
  1

  0
POLYLINE
  5
AB
330
A7
100
AcDbEntity
  8
CutTest
 62
     7
420
 16777215
370
    25
100
AcDb2dPolyline
 66
     1
 10
0.0
 20
0.0
 30
0.0
  0
VERTEX
  5
AC
330
AB
100
AcDbEntity
  8
CutTest
 62
     7
420
 16777215
370
    25
100
AcDbVertex
100
AcDb2dVertex
 10
349.337958258248
 20
140.925777747821
 30
0.0
  0
VERTEX
  5
AD
330
AB
100
AcDbEntity
  8
CutTest
 62
     7
420
 16777215
370
    25
100
AcDbVertex
100
AcDb2dVertex
 10
349.3379582582493
 20
98.72577774782079
 30
0.0
  0
SEQEND
  5
AE
330
AB
100
AcDbEntity
  8
CutTest
 62
     7
420
 16777215
370
    25
  0
ENDBLK
  5
AA
330
A7
100
AcDbEntity
  8
0
100
AcDbBlockEnd
  0
BLOCK
  5
B1
330
AF
100
AcDbEntity
  8
0
100
AcDbBlockBegin
  2
block 16
 70
     0
 10
0.0
 20
0.0
 30
0.0
  3
block 16
  1

  0
POLYLINE
  5
B3
330
AF
100
AcDbEntity
  8
CutTest
 62
     7
420
 16777215
370
    25
100
AcDb2dPolyline
 66
     1
 10
0.0
 20
0.0
 30
0.0
  0
VERTEX
  5
B4
330
B3
100
AcDbEntity
  8
CutTest
 62
     7
420
 16777215
370
    25
100
AcDbVertex
100
AcDb2dVertex
 10
352.3379582582539
 20
144.9257777478211
 30
0.0
  0
VERTEX
  5
B5
330
B3
100
AcDbEntity
  8
CutTest
 62
     7
420
 16777215
370
    25
100
AcDbVertex
100
AcDb2dVertex
 10
352.3379582582545
 20
121.8257777478219
 30
0.0
  0
SEQEND
  5
B6
330
B3
100
AcDbEntity
  8
CutTest
 62
     7
420
 16777215
370
    25
  0
ENDBLK
  5
B2
330
AF
100
AcDbEntity
  8
0
100
AcDbBlockEnd
  0
BLOCK
  5
B9
330
B7
100
AcDbEntity
  8
0
100
AcDbBlockBegin
  2
block 17
 70
     0
 10
0.0
 20
0.0
 30
0.0
  3
block 17
  1

  0
POLYLINE
  5
BB
330
B7
100
AcDbEntity
  8
CutTest
 62
     7
420
 16777215
370
    25
100
AcDb2dPolyline
 66
     1
 10
0.0
 20
0.0
 30
0.0
  0
VERTEX
  5
BC
330
BB
100
AcDbEntity
  8
CutTest
 62
     7
420
 16777215
370
    25
100
AcDbVertex
100
AcDb2dVertex
 10
352.3379582582481
 20
117.8257777478205
 30
0.0
  0
VERTEX
  5
BD
330
BB
100
AcDbEntity
  8
CutTest
 62
     7
420
 16777215
370
    25
100
AcDbVertex
100
AcDb2dVertex
 10
352.337958258243
 20
94.72577774782128
 30
0.0
  0
SEQEND
  5
BE
330
BB
100
AcDbEntity
  8
CutTest
 62
     7
420
 16777215
370
    25
  0
ENDBLK
  5
BA
330
B7
100
AcDbEntity
  8
0
100
AcDbBlockEnd
  0
BLOCK
  5
C1
330
BF
100
AcDbEntity
  8
0
100
AcDbBlockBegin
  2
block 18
 70
     0
 10
0.0
 20
0.0
 30
0.0
  3
block 18
  1

  0
POLYLINE
  5
C3
330
BF
100
AcDbEntity
  8
CutTest
 62
     7
420
 16777215
370
    25
100
AcDb2dPolyline
 66
     1
 10
0.0
 20
0.0
 30
0.0
  0
VERTEX
  5
C4
330
C3
100
AcDbEntity
  8
CutTest
 62
     7
420
 16777215
370
    25
100
AcDbVertex
100
AcDb2dVertex
 10
355.3379582582482
 20
140.925777747821
 30
0.0
  0
VERTEX
  5
C5
330
C3
100
AcDbEntity
  8
CutTest
 62
     7
420
 16777215
370
    25
100
AcDbVertex
100
AcDb2dVertex
 10
355.3379582582495
 20
98.72577774782079
 30
0.0
  0
SEQEND
  5
C6
330
C3
100
AcDbEntity
  8
CutTest
 62
     7
420
 16777215
370
    25
  0
ENDBLK
  5
C2
330
BF
100
AcDbEntity
  8
0
100
AcDbBlockEnd
  0
BLOCK
  5
C9
330
C7
100
AcDbEntity
  8
0
100
AcDbBlockBegin
  2
block 19
 70
     0
 10
0.0
 20
0.0
 30
0.0
  3
block 19
  1

  0
POLYLINE
  5
CB
330
C7
100
AcDbEntity
  8
CutTest
 62
     7
420
 16777215
370
    25
100
AcDb2dPolyline
 66
     1
 10
0.0
 20
0.0
 30
0.0
  0
VERTEX
  5
CC
330
CB
100
AcDbEntity
  8
CutTest
 62
     7
420
 16777215
370
    25
100
AcDbVertex
100
AcDb2dVertex
 10
358.337958258254
 20
144.9257777478211
 30
0.0
  0
VERTEX
  5
CD
330
CB
100
AcDbEntity
  8
CutTest
 62
     7
420
 16777215
370
    25
100
AcDbVertex
100
AcDb2dVertex
 10
358.337958258254
 20
121.8257777478219
 30
0.0
  0
SEQEND
  5
CE
330
CB
100
AcDbEntity
  8
CutTest
 62
     7
420
 16777215
370
    25
  0
ENDBLK
  5
CA
330
C7
100
AcDbEntity
  8
0
100
AcDbBlockEnd
  0
BLOCK
  5
D1
330
CF
100
AcDbEntity
  8
0
100
AcDbBlockBegin
  2
block 20
 70
     0
 10
0.0
 20
0.0
 30
0.0
  3
block 20
  1

  0
POLYLINE
  5
D3
330
CF
100
AcDbEntity
  8
CutTest
 62
     7
420
 16777215
370
    25
100
AcDb2dPolyline
 66
     1
 10
0.0
 20
0.0
 30
0.0
  0
VERTEX
  5
D4
330
D3
100
AcDbEntity
  8
CutTest
 62
     7
420
 16777215
370
    25
100
AcDbVertex
100
AcDb2dVertex
 10
358.3379582582477
 20
117.8257777478205
 30
0.0
  0
VERTEX
  5
D5
330
D3
100
AcDbEntity
  8
CutTest
 62
     7
420
 16777215
370
    25
100
AcDbVertex
100
AcDb2dVertex
 10
358.3379582582425
 20
94.72577774782128
 30
0.0
  0
SEQEND
  5
D6
330
D3
100
AcDbEntity
  8
CutTest
 62
     7
420
 16777215
370
    25
  0
ENDBLK
  5
D2
330
CF
100
AcDbEntity
  8
0
100
AcDbBlockEnd
  0
BLOCK
  5
D9
330
D7
100
AcDbEntity
  8
0
100
AcDbBlockBegin
  2
block 21
 70
     0
 10
0.0
 20
0.0
 30
0.0
  3
block 21
  1

  0
POLYLINE
  5
DB
330
D7
100
AcDbEntity
  8
CutTest
 62
     7
420
 16777215
370
    25
100
AcDb2dPolyline
 66
     1
 10
0.0
 20
0.0
 30
0.0
  0
VERTEX
  5
DC
330
DB
100
AcDbEntity
  8
CutTest
 62
     7
420
 16777215
370
    25
100
AcDbVertex
100
AcDb2dVertex
 10
361.3379582582484
 20
140.925777747821
 30
0.0
  0
VERTEX
  5
DD
330
DB
100
AcDbEntity
  8
CutTest
 62
     7
420
 16777215
370
    25
100
AcDbVertex
100
AcDb2dVertex
 10
361.3379582582497
 20
98.72577774782079
 30
0.0
  0
SEQEND
  5
DE
330
DB
100
AcDbEntity
  8
CutTest
 62
     7
420
 16777215
370
    25
  0
ENDBLK
  5
DA
330
D7
100
AcDbEntity
  8
0
100
AcDbBlockEnd
  0
BLOCK
  5
E1
330
DF
100
AcDbEntity
  8
0
100
AcDbBlockBegin
  2
block 22
 70
     0
 10
0.0
 20
0.0
 30
0.0
  3
block 22
  1

  0
POLYLINE
  5
E3
330
DF
100
AcDbEntity
  8
CutTest
 62
     7
420
 16777215
370
    25
100
AcDb2dPolyline
 66
     1
 10
0.0
 20
0.0
 30
0.0
  0
VERTEX
  5
E4
330
E3
100
AcDbEntity
  8
CutTest
 62
     7
420
 16777215
370
    25
100
AcDbVertex
100
AcDb2dVertex
 10
364.3379582582543
 20
144.9257777478211
 30
0.0
  0
VERTEX
  5
E5
330
E3
100
AcDbEntity
  8
CutTest
 62
     7
420
 16777215
370
    25
100
AcDbVertex
100
AcDb2dVertex
 10
364.3379582582543
 20
121.8257777478219
 30
0.0
  0
SEQEND
  5
E6
330
E3
100
AcDbEntity
  8
CutTest
 62
     7
420
 16777215
370
    25
  0
ENDBLK
  5
E2
330
DF
100
AcDbEntity
  8
0
100
AcDbBlockEnd
  0
BLOCK
  5
E9
330
E7
100
AcDbEntity
  8
0
100
AcDbBlockBegin
  2
block 23
 70
     0
 10
0.0
 20
0.0
 30
0.0
  3
block 23
  1

  0
POLYLINE
  5
EB
330
E7
100
AcDbEntity
  8
CutTest
 62
     7
420
 16777215
370
    25
100
AcDb2dPolyline
 66
     1
 10
0.0
 20
0.0
 30
0.0
  0
VERTEX
  5
EC
330
EB
100
AcDbEntity
  8
CutTest
 62
     7
420
 16777215
370
    25
100
AcDbVertex
100
AcDb2dVertex
 10
364.3379582582479
 20
117.8257777478205
 30
0.0
  0
VERTEX
  5
ED
330
EB
100
AcDbEntity
  8
CutTest
 62
     7
420
 16777215
370
    25
100
AcDbVertex
100
AcDb2dVertex
 10
364.3379582582427
 20
94.72577774782128
 30
0.0
  0
SEQEND
  5
EE
330
EB
100
AcDbEntity
  8
CutTest
 62
     7
420
 16777215
370
    25
  0
ENDBLK
  5
EA
330
E7
100
AcDbEntity
  8
0
100
AcDbBlockEnd
  0
BLOCK
  5
F1
330
EF
100
AcDbEntity
  8
0
100
AcDbBlockBegin
  2
block 24
 70
     0
 10
0.0
 20
0.0
 30
0.0
  3
block 24
  1

  0
POLYLINE
  5
F3
330
EF
100
AcDbEntity
  8
CutTest
 62
     7
420
 16777215
370
    25
100
AcDb2dPolyline
 66
     1
 10
0.0
 20
0.0
 30
0.0
  0
VERTEX
  5
F4
330
F3
100
AcDbEntity
  8
CutTest
 62
     7
420
 16777215
370
    25
100
AcDbVertex
100
AcDb2dVertex
 10
367.3379582582486
 20
140.925777747821
 30
0.0
  0
VERTEX
  5
F5
330
F3
100
AcDbEntity
  8
CutTest
 62
     7
420
 16777215
370
    25
100
AcDbVertex
100
AcDb2dVertex
 10
367.3379582582486
 20
98.72577774782079
 30
0.0
  0
SEQEND
  5
F6
330
F3
100
AcDbEntity
  8
CutTest
 62
     7
420
 16777215
370
    25
  0
ENDBLK
  5
F2
330
EF
100
AcDbEntity
  8
0
100
AcDbBlockEnd
  0
BLOCK
  5
F9
330
F7
100
AcDbEntity
  8
0
100
AcDbBlockBegin
  2
block 25
 70
     0
 10
0.0
 20
0.0
 30
0.0
  3
block 25
  1

  0
POLYLINE
  5
FB
330
F7
100
AcDbEntity
  8
CutTest
 62
     7
420
 16777215
370
    25
100
AcDb2dPolyline
 66
     1
 10
0.0
 20
0.0
 30
0.0
  0
VERTEX
  5
FC
330
FB
100
AcDbEntity
  8
CutTest
 62
     7
420
 16777215
370
    25
100
AcDbVertex
100
AcDb2dVertex
 10
370.3379582582545
 20
144.9257777478211
 30
0.0
  0
VERTEX
  5
FD
330
FB
100
AcDbEntity
  8
CutTest
 62
     7
420
 16777215
370
    25
100
AcDbVertex
100
AcDb2dVertex
 10
370.3379582582545
 20
121.8257777478219
 30
0.0
  0
SEQEND
  5
FE
330
FB
100
AcDbEntity
  8
CutTest
 62
     7
420
 16777215
370
    25
  0
ENDBLK
  5
FA
330
F7
100
AcDbEntity
  8
0
100
AcDbBlockEnd
  0
BLOCK
  5
101
330
FF
100
AcDbEntity
  8
0
100
AcDbBlockBegin
  2
block 26
 70
     0
 10
0.0
 20
0.0
 30
0.0
  3
block 26
  1

  0
POLYLINE
  5
103
330
FF
100
AcDbEntity
  8
CutTest
 62
     7
420
 16777215
370
    25
100
AcDb2dPolyline
 66
     1
 10
0.0
 20
0.0
 30
0.0
  0
VERTEX
  5
104
330
103
100
AcDbEntity
  8
CutTest
 62
     7
420
 16777215
370
    25
100
AcDbVertex
100
AcDb2dVertex
 10
370.3379582582481
 20
117.8257777478205
 30
0.0
  0
VERTEX
  5
105
330
103
100
AcDbEntity
  8
CutTest
 62
     7
420
 16777215
370
    25
100
AcDbVertex
100
AcDb2dVertex
 10
370.337958258243
 20
94.72577774782128
 30
0.0
  0
SEQEND
  5
106
330
103
100
AcDbEntity
  8
CutTest
 62
     7
420
 16777215
370
    25
  0
ENDBLK
  5
102
330
FF
100
AcDbEntity
  8
0
100
AcDbBlockEnd
  0
BLOCK
  5
109
330
107
100
AcDbEntity
  8
0
100
AcDbBlockBegin
  2
block 27
 70
     0
 10
0.0
 20
0.0
 30
0.0
  3
block 27
  1

  0
POLYLINE
  5
10B
330
107
100
AcDbEntity
  8
CutTest
 62
     7
420
 16777215
370
    25
100
AcDb2dPolyline
 66
     1
 10
0.0
 20
0.0
 30
0.0
  0
VERTEX
  5
10C
330
10B
100
AcDbEntity
  8
CutTest
 62
     7
420
 16777215
370
    25
100
AcDbVertex
100
AcDb2dVertex
 10
373.3379582582476
 20
140.925777747821
 30
0.0
  0
VERTEX
  5
10D
330
10B
100
AcDbEntity
  8
CutTest
 62
     7
420
 16777215
370
    25
100
AcDbVertex
100
AcDb2dVertex
 10
373.3379582582488
 20
98.72577774782079
 30
0.0
  0
SEQEND
  5
10E
330
10B
100
AcDbEntity
  8
CutTest
 62
     7
420
 16777215
370
    25
  0
ENDBLK
  5
10A
330
107
100
AcDbEntity
  8
0
100
AcDbBlockEnd
  0
BLOCK
  5
111
330
10F
100
AcDbEntity
  8
0
100
AcDbBlockBegin
  2
block 28
 70
     0
 10
0.0
 20
0.0
 30
0.0
  3
block 28
  1

  0
POLYLINE
  5
113
330
10F
100
AcDbEntity
  8
CutTest
 62
     7
420
 16777215
370
    25
100
AcDb2dPolyline
 66
     1
 10
0.0
 20
0.0
 30
0.0
  0
VERTEX
  5
114
330
113
100
AcDbEntity
  8
CutTest
 62
     7
420
 16777215
370
    25
100
AcDbVertex
100
AcDb2dVertex
 10
376.3379582582534
 20
144.9257777478211
 30
0.0
  0
VERTEX
  5
115
330
113
100
AcDbEntity
  8
CutTest
 62
     7
420
 16777215
370
    25
100
AcDbVertex
100
AcDb2dVertex
 10
376.3379582582547
 20
121.8257777478219
 30
0.0
  0
SEQEND
  5
116
330
113
100
AcDbEntity
  8
CutTest
 62
     7
420
 16777215
370
    25
  0
ENDBLK
  5
112
330
10F
100
AcDbEntity
  8
0
100
AcDbBlockEnd
  0
BLOCK
  5
119
330
117
100
AcDbEntity
  8
0
100
AcDbBlockBegin
  2
block 29
 70
     0
 10
0.0
 20
0.0
 30
0.0
  3
block 29
  1

  0
POLYLINE
  5
11B
330
117
100
AcDbEntity
  8
CutTest
 62
     7
420
 16777215
370
    25
100
AcDb2dPolyline
 66
     1
 10
0.0
 20
0.0
 30
0.0
  0
VERTEX
  5
11C
330
11B
100
AcDbEntity
  8
CutTest
 62
     7
420
 16777215
370
    25
100
AcDbVertex
100
AcDb2dVertex
 10
376.3379582582483
 20
117.8257777478205
 30
0.0
  0
VERTEX
  5
11D
330
11B
100
AcDbEntity
  8
CutTest
 62
     7
420
 16777215
370
    25
100
AcDbVertex
100
AcDb2dVertex
 10
376.3379582582431
 20
94.72577774782128
 30
0.0
  0
SEQEND
  5
11E
330
11B
100
AcDbEntity
  8
CutTest
 62
     7
420
 16777215
370
    25
  0
ENDBLK
  5
11A
330
117
100
AcDbEntity
  8
0
100
AcDbBlockEnd
  0
BLOCK
  5
121
330
11F
100
AcDbEntity
  8
0
100
AcDbBlockBegin
  2
block 30
 70
     0
 10
0.0
 20
0.0
 30
0.0
  3
block 30
  1

  0
POLYLINE
  5
123
330
11F
100
AcDbEntity
  8
CutTest
 62
     7
420
 16777215
370
    25
100
AcDb2dPolyline
 66
     1
 10
0.0
 20
0.0
 30
0.0
  0
VERTEX
  5
124
330
123
100
AcDbEntity
  8
CutTest
 62
     7
420
 16777215
370
    25
100
AcDbVertex
100
AcDb2dVertex
 10
379.3379582582477
 20
140.925777747821
 30
0.0
  0
VERTEX
  5
125
330
123
100
AcDbEntity
  8
CutTest
 62
     7
420
 16777215
370
    25
100
AcDbVertex
100
AcDb2dVertex
 10
379.337958258249
 20
98.72577774782079
 30
0.0
  0
SEQEND
  5
126
330
123
100
AcDbEntity
  8
CutTest
 62
     7
420
 16777215
370
    25
  0
ENDBLK
  5
122
330
11F
100
AcDbEntity
  8
0
100
AcDbBlockEnd
  0
BLOCK
  5
129
330
127
100
AcDbEntity
  8
0
100
AcDbBlockBegin
  2
block 31
 70
     0
 10
0.0
 20
0.0
 30
0.0
  3
block 31
  1

  0
POLYLINE
  5
12B
330
127
100
AcDbEntity
  8
CutTest
 62
     7
420
 16777215
370
    25
100
AcDb2dPolyline
 66
     1
 10
0.0
 20
0.0
 30
0.0
  0
VERTEX
  5
12C
330
12B
100
AcDbEntity
  8
CutTest
 62
     7
420
 16777215
370
    25
100
AcDbVertex
100
AcDb2dVertex
 10
382.3379582582537
 20
144.9257777478211
 30
0.0
  0
VERTEX
  5
12D
330
12B
100
AcDbEntity
  8
CutTest
 62
     7
420
 16777215
370
    25
100
AcDbVertex
100
AcDb2dVertex
 10
382.3379582582549
 20
121.8257777478219
 30
0.0
  0
SEQEND
  5
12E
330
12B
100
AcDbEntity
  8
CutTest
 62
     7
420
 16777215
370
    25
  0
ENDBLK
  5
12A
330
127
100
AcDbEntity
  8
0
100
AcDbBlockEnd
  0
BLOCK
  5
131
330
12F
100
AcDbEntity
  8
0
100
AcDbBlockBegin
  2
block 32
 70
     0
 10
0.0
 20
0.0
 30
0.0
  3
block 32
  1

  0
POLYLINE
  5
133
330
12F
100
AcDbEntity
  8
CutTest
 62
     7
420
 16777215
370
    25
100
AcDb2dPolyline
 66
     1
 10
0.0
 20
0.0
 30
0.0
  0
VERTEX
  5
134
330
133
100
AcDbEntity
  8
CutTest
 62
     7
420
 16777215
370
    25
100
AcDbVertex
100
AcDb2dVertex
 10
382.3379582582485
 20
117.8257777478205
 30
0.0
  0
VERTEX
  5
135
330
133
100
AcDbEntity
  8
CutTest
 62
     7
420
 16777215
370
    25
100
AcDbVertex
100
AcDb2dVertex
 10
382.3379582582434
 20
94.72577774782128
 30
0.0
  0
SEQEND
  5
136
330
133
100
AcDbEntity
  8
CutTest
 62
     7
420
 16777215
370
    25
  0
ENDBLK
  5
132
330
12F
100
AcDbEntity
  8
0
100
AcDbBlockEnd
  0
BLOCK
  5
139
330
137
100
AcDbEntity
  8
0
100
AcDbBlockBegin
  2
block 33
 70
     0
 10
0.0
 20
0.0
 30
0.0
  3
block 33
  1

  0
POLYLINE
  5
13B
330
137
100
AcDbEntity
  8
CutTest
 62
     7
420
 16777215
370
    25
100
AcDb2dPolyline
 66
     1
 10
0.0
 20
0.0
 30
0.0
  0
VERTEX
  5
13C
330
13B
100
AcDbEntity
  8
CutTest
 62
     7
420
 16777215
370
    25
100
AcDbVertex
100
AcDb2dVertex
 10
385.337958258248
 20
140.925777747821
 30
0.0
  0
VERTEX
  5
13D
330
13B
100
AcDbEntity
  8
CutTest
 62
     7
420
 16777215
370
    25
100
AcDbVertex
100
AcDb2dVertex
 10
385.3379582582531
 20
98.72577774782079
 30
0.0
  0
SEQEND
  5
13E
330
13B
100
AcDbEntity
  8
CutTest
 62
     7
420
 16777215
370
    25
  0
ENDBLK
  5
13A
330
137
100
AcDbEntity
  8
0
100
AcDbBlockEnd
  0
BLOCK
  5
141
330
13F
100
AcDbEntity
  8
0
100
AcDbBlockBegin
  2
block 34
 70
     0
 10
0.0
 20
0.0
 30
0.0
  3
block 34
  1

  0
SPLINE
  5
143
330
13F
100
AcDbEntity
  8
CutTest
 62
     7
420
 16777215
370
    25
100
AcDbSpline
210
0.0
220
0.0
230
1.0
 70
    11
 71
     3
 72
    71
 73
    67
 74
     0
 42
0.0000000001
 43
0.0000000001
 12
1.0
 22
0.0
 32
0.0
 13
1.0
 23
0.0
 33
0.0
 40
0.0
 40
0.0
 40
0.0
 40
0.0
 40
1.0
 40
1.0
 40
1.0
 40
2.0
 40
2.0
 40
2.0
 40
3.0
 40
3.0
 40
3.0
 40
4.0
 40
4.0
 40
4.0
 40
5.0
 40
5.0
 40
5.0
 40
6.0
 40
6.0
 40
6.0
 40
7.0
 40
7.0
 40
7.0
 40
8.0
 40
8.0
 40
8.0
 40
9.0
 40
9.0
 40
9.0
 40
10.0
 40
10.0
 40
10.0
 40
11.0
 40
11.0
 40
11.0
 40
12.0
 40
12.0
 40
12.0
 40
13.0
 40
13.0
 40
13.0
 40
14.0
 40
14.0
 40
14.0
 40
15.0
 40
15.0
 40
15.0
 40
16.0
 40
16.0
 40
16.0
 40
17.0
 40
17.0
 40
17.0
 40
18.0
 40
18.0
 40
18.0
 40
19.0
 40
19.0
 40
19.0
 40
20.0
 40
20.0
 40
20.0
 40
21.0
 40
21.0
 40
21.0
 40
22.0
 40
22.0
 40
22.0
 40
22.0
 10
213.083791615271
 20
92.00911109438363
 30
0.0
 10
213.083791615271
 20
92.00911109438363
 30
0.0
 10
198.0837916152711
 20
92.00911109438363
 30
0.0
 10
198.0837916152711
 20
92.00911109438363
 30
0.0
 10
198.0837916152711
 20
92.00911109438363
 30
0.0
 10
198.0837916152711
 20
68.80911109438378
 30
0.0
 10
198.0837916152711
 20
68.80911109438378
 30
0.0
 10
198.0837916152711
 20
68.5329687194683
 30
0.0
 10
198.307649240355
 20
68.30911109438375
 30
0.0
 10
198.5837916152708
 20
68.30911109438375
 30
0.0
 10
198.5837916152708
 20
68.30911109438375
 30
0.0
 10
205.583791615271
 20
68.30911109438375
 30
0.0
 10
205.583791615271
 20
68.30911109438375
 30
0.0
 10
205.583791615271
 20
68.30911109438375
 30
0.0
 10
205.583791615271
 20
65.50911109438366
 30
0.0
 10
205.583791615271
 20
65.50911109438366
 30
0.0
 10
205.583791615271
 20
65.50911109438366
 30
0.0
 10
198.5837916152708
 20
65.50911109438366
 30
0.0
 10
198.5837916152708
 20
65.50911109438366
 30
0.0
 10
198.307649240355
 20
65.50911109438366
 30
0.0
 10
198.0837916152711
 20
65.28525346929912
 30
0.0
 10
198.0837916152711
 20
65.00911109438397
 30
0.0
 10
198.0837916152711
 20
65.00911109438397
 30
0.0
 10
198.0837916152711
 20
41.80911109438379
 30
0.0
 10
198.0837916152711
 20
41.80911109438379
 30
0.0
 10
198.0837916152711
 20
41.80911109438379
 30
0.0
 10
213.083791615271
 20
41.80911109438379
 30
0.0
 10
213.083791615271
 20
41.80911109438379
 30
0.0
 10
213.083791615271
 20
41.80911109438379
 30
0.0
 10
213.083791615271
 20
49.30911109436191
 30
0.0
 10
213.083791615271
 20
49.30911109436191
 30
0.0
 10
213.083791615271
 20
49.58525346927642
 30
0.0
 10
212.859933990187
 20
49.80911109436033
 30
0.0
 10
212.5837916152732
 20
49.80911109436161
 30
0.0
 10
212.5837916152732
 20
49.80911109436161
 30
0.0
 10
205.583791615271
 20
49.80911109438343
 30
0.0
 10
205.583791615271
 20
49.80911109438343
 30
0.0
 10
205.583791615271
 20
49.80911109438343
 30
0.0
 10
205.583791615271
 20
52.60911109438353
 30
0.0
 10
205.583791615271
 20
52.60911109438353
 30
0.0
 10
205.583791615271
 20
52.60911109438353
 30
0.0
 10
212.5837916152706
 20
52.60911109438481
 30
0.0
 10
212.5837916152706
 20
52.60911109438481
 30
0.0
 10
212.8599339901858
 20
52.60911109438481
 30
0.0
 10
213.083791615271
 20
52.83296871946935
 30
0.0
 10
213.083791615271
 20
53.1091110943845
 30
0.0
 10
213.083791615271
 20
53.1091110943845
 30
0.0
 10
213.083791615271
 20
80.70911109438997
 30
0.0
 10
213.083791615271
 20
80.70911109438997
 30
0.0
 10
213.0837916152684
 20
80.98525346930353
 30
0.0
 10
212.8599339901845
 20
81.20911109438549
 30
0.0
 10
212.5837916152706
 20
81.2091110943839
 30
0.0
 10
212.5837916152706
 20
81.2091110943839
 30
0.0
 10
205.5837916152684
 20
81.20911109437587
 30
0.0
 10
205.5837916152684
 20
81.20911109437587
 30
0.0
 10
205.5837916152684
 20
81.20911109437587
 30
0.0
 10
205.583791615271
 20
84.0091110943795
 30
0.0
 10
205.583791615271
 20
84.0091110943795
 30
0.0
 10
205.583791615271
 20
84.0091110943795
 30
0.0
 10
212.583791615268
 20
84.00911109435512
 30
0.0
 10
212.583791615268
 20
84.00911109435512
 30
0.0
 10
212.8599339901832
 20
84.00911109435383
 30
0.0
 10
213.0837916152697
 20
84.23296871943838
 30
0.0
 10
213.083791615271
 20
84.50911109435417
 30
0.0
 10
213.083791615271
 20
84.50911109435641
 30
0.0
 10
213.083791615271
 20
92.00911109438363
 30
0.0
 10
213.083791615271
 20
92.00911109438363
 30
0.0
  0
ENDBLK
  5
142
330
13F
100
AcDbEntity
  8
0
100
AcDbBlockEnd
  0
BLOCK
  5
146
330
144
100
AcDbEntity
  8
0
100
AcDbBlockBegin
  2
block 35
 70
     0
 10
0.0
 20
0.0
 30
0.0
  3
block 35
  1

  0
SPLINE
  5
148
330
144
100
AcDbEntity
  8
CutTest
 62
     7
420
 16777215
370
    25
100
AcDbSpline
210
0.0
220
0.0
230
1.0
 70
    11
 71
     3
 72
    71
 73
    67
 74
     0
 42
0.0000000001
 43
0.0000000001
 12
1.0
 22
0.0
 32
0.0
 13
1.0
 23
0.0
 33
0.0
 40
0.0
 40
0.0
 40
0.0
 40
0.0
 40
1.0
 40
1.0
 40
1.0
 40
2.0
 40
2.0
 40
2.0
 40
3.0
 40
3.0
 40
3.0
 40
4.0
 40
4.0
 40
4.0
 40
5.0
 40
5.0
 40
5.0
 40
6.0
 40
6.0
 40
6.0
 40
7.0
 40
7.0
 40
7.0
 40
8.0
 40
8.0
 40
8.0
 40
9.0
 40
9.0
 40
9.0
 40
10.0
 40
10.0
 40
10.0
 40
11.0
 40
11.0
 40
11.0
 40
12.0
 40
12.0
 40
12.0
 40
13.0
 40
13.0
 40
13.0
 40
14.0
 40
14.0
 40
14.0
 40
15.0
 40
15.0
 40
15.0
 40
16.0
 40
16.0
 40
16.0
 40
17.0
 40
17.0
 40
17.0
 40
18.0
 40
18.0
 40
18.0
 40
19.0
 40
19.0
 40
19.0
 40
20.0
 40
20.0
 40
20.0
 40
21.0
 40
21.0
 40
21.0
 40
22.0
 40
22.0
 40
22.0
 40
22.0
 10
230.0171249443709
 20
92.00911109438363
 30
0.0
 10
230.0171249443709
 20
92.00911109438363
 30
0.0
 10
215.0171249443711
 20
92.00911109438363
 30
0.0
 10
215.0171249443711
 20
92.00911109438363
 30
0.0
 10
215.0171249443711
 20
92.00911109438363
 30
0.0
 10
215.0171249443711
 20
68.80911109438378
 30
0.0
 10
215.0171249443711
 20
68.80911109438378
 30
0.0
 10
215.0171249443711
 20
68.5329687194683
 30
0.0
 10
215.240982569455
 20
68.30911109438375
 30
0.0
 10
215.5171249443708
 20
68.30911109438375
 30
0.0
 10
215.5171249443708
 20
68.30911109438375
 30
0.0
 10
222.517124944371
 20
68.30911109438375
 30
0.0
 10
222.517124944371
 20
68.30911109438375
 30
0.0
 10
222.517124944371
 20
68.30911109438375
 30
0.0
 10
222.517124944371
 20
65.50911109438366
 30
0.0
 10
222.517124944371
 20
65.50911109438366
 30
0.0
 10
222.517124944371
 20
65.50911109438366
 30
0.0
 10
215.5171249443708
 20
65.50911109438366
 30
0.0
 10
215.5171249443708
 20
65.50911109438366
 30
0.0
 10
215.240982569455
 20
65.50911109438366
 30
0.0
 10
215.0171249443711
 20
65.28525346929912
 30
0.0
 10
215.0171249443711
 20
65.00911109438397
 30
0.0
 10
215.0171249443711
 20
65.00911109438397
 30
0.0
 10
215.0171249443711
 20
41.80911109438379
 30
0.0
 10
215.0171249443711
 20
41.80911109438379
 30
0.0
 10
215.0171249443711
 20
41.80911109438379
 30
0.0
 10
230.0171249443709
 20
41.80911109438379
 30
0.0
 10
230.0171249443709
 20
41.80911109438379
 30
0.0
 10
230.0171249443709
 20
41.80911109438379
 30
0.0
 10
230.0171249443709
 20
49.30911109436191
 30
0.0
 10
230.0171249443709
 20
49.30911109436191
 30
0.0
 10
230.0171249443709
 20
49.58525346927642
 30
0.0
 10
229.7932673192871
 20
49.80911109436033
 30
0.0
 10
229.5171249443732
 20
49.80911109436161
 30
0.0
 10
229.5171249443732
 20
49.80911109436161
 30
0.0
 10
222.517124944371
 20
49.80911109438343
 30
0.0
 10
222.517124944371
 20
49.80911109438343
 30
0.0
 10
222.517124944371
 20
49.80911109438343
 30
0.0
 10
222.517124944371
 20
52.60911109438353
 30
0.0
 10
222.517124944371
 20
52.60911109438353
 30
0.0
 10
222.517124944371
 20
52.60911109438353
 30
0.0
 10
229.5171249443706
 20
52.60911109438481
 30
0.0
 10
229.5171249443706
 20
52.60911109438481
 30
0.0
 10
229.7932673192858
 20
52.60911109438481
 30
0.0
 10
230.0171249443709
 20
52.83296871946935
 30
0.0
 10
230.0171249443709
 20
53.1091110943845
 30
0.0
 10
230.0171249443709
 20
53.1091110943845
 30
0.0
 10
230.0171249443709
 20
80.70911109438997
 30
0.0
 10
230.0171249443709
 20
80.70911109438997
 30
0.0
 10
230.0171249443684
 20
80.98525346930353
 30
0.0
 10
229.7932673192845
 20
81.20911109438549
 30
0.0
 10
229.5171249443706
 20
81.2091110943839
 30
0.0
 10
229.5171249443706
 20
81.2091110943839
 30
0.0
 10
222.5171249443684
 20
81.20911109437587
 30
0.0
 10
222.5171249443684
 20
81.20911109437587
 30
0.0
 10
222.5171249443684
 20
81.20911109437587
 30
0.0
 10
222.517124944371
 20
84.0091110943795
 30
0.0
 10
222.517124944371
 20
84.0091110943795
 30
0.0
 10
222.517124944371
 20
84.0091110943795
 30
0.0
 10
229.517124944368
 20
84.00911109435512
 30
0.0
 10
229.517124944368
 20
84.00911109435512
 30
0.0
 10
229.7932673192832
 20
84.00911109435383
 30
0.0
 10
230.0171249443697
 20
84.23296871943838
 30
0.0
 10
230.0171249443709
 20
84.50911109435417
 30
0.0
 10
230.0171249443709
 20
84.50911109435641
 30
0.0
 10
230.0171249443709
 20
92.00911109438363
 30
0.0
 10
230.0171249443709
 20
92.00911109438363
 30
0.0
  0
ENDBLK
  5
147
330
144
100
AcDbEntity
  8
0
100
AcDbBlockEnd
  0
BLOCK
  5
14B
330
149
100
AcDbEntity
  8
0
100
AcDbBlockBegin
  2
block 36
 70
     0
 10
0.0
 20
0.0
 30
0.0
  3
block 36
  1

  0
SPLINE
  5
14D
330
149
100
AcDbEntity
  8
CutTest
 62
     7
420
 16777215
370
    25
100
AcDbSpline
210
0.0
220
0.0
230
1.0
 70
    11
 71
     3
 72
    89
 73
    85
 74
     0
 42
0.0000000001
 43
0.0000000001
 12
1.0
 22
0.0
 32
0.0
 13
1.0
 23
0.0
 33
0.0
 40
0.0
 40
0.0
 40
0.0
 40
0.0
 40
1.0
 40
1.0
 40
1.0
 40
2.0
 40
2.0
 40
2.0
 40
3.0
 40
3.0
 40
3.0
 40
4.0
 40
4.0
 40
4.0
 40
5.0
 40
5.0
 40
5.0
 40
6.0
 40
6.0
 40
6.0
 40
7.0
 40
7.0
 40
7.0
 40
8.0
 40
8.0
 40
8.0
 40
9.0
 40
9.0
 40
9.0
 40
10.0
 40
10.0
 40
10.0
 40
11.0
 40
11.0
 40
11.0
 40
12.0
 40
12.0
 40
12.0
 40
13.0
 40
13.0
 40
13.0
 40
14.0
 40
14.0
 40
14.0
 40
15.0
 40
15.0
 40
15.0
 40
16.0
 40
16.0
 40
16.0
 40
17.0
 40
17.0
 40
17.0
 40
18.0
 40
18.0
 40
18.0
 40
19.0
 40
19.0
 40
19.0
 40
20.0
 40
20.0
 40
20.0
 40
21.0
 40
21.0
 40
21.0
 40
22.0
 40
22.0
 40
22.0
 40
23.0
 40
23.0
 40
23.0
 40
24.0
 40
24.0
 40
24.0
 40
25.0
 40
25.0
 40
25.0
 40
26.0
 40
26.0
 40
26.0
 40
27.0
 40
27.0
 40
27.0
 40
28.0
 40
28.0
 40
28.0
 40
28.0
 10
298.4462916045508
 20
144.7882777434555
 30
0.0
 10
298.4462916045508
 20
144.7882777434555
 30
0.0
 10
198.4462916045507
 20
144.7882777434555
 30
0.0
 10
198.4462916045507
 20
144.7882777434555
 30
0.0
 10
198.4462916045507
 20
144.7882777434555
 30
0.0
 10
198.4462916045572
 20
139.1882777434406
 30
0.0
 10
198.4462916045572
 20
139.1882777434406
 30
0.0
 10
198.4462916045588
 20
138.9121353685261
 30
0.0
 10
198.6701492296436
 20
138.6882777434435
 30
0.0
 10
198.9462916045578
 20
138.6882777434447
 30
0.0
 10
198.9462916045607
 20
138.6882777434447
 30
0.0
 10
206.8462916045559
 20
138.6882777434675
 30
0.0
 10
206.8462916045559
 20
138.6882777434675
 30
0.0
 10
206.8462916045559
 20
138.6882777434675
 30
0.0
 10
206.8462916045559
 20
135.8882777434677
 30
0.0
 10
206.8462916045559
 20
135.8882777434677
 30
0.0
 10
206.8462916045559
 20
135.8882777434677
 30
0.0
 10
198.9462916045575
 20
135.8882777434677
 30
0.0
 10
198.9462916045575
 20
135.8882777434677
 30
0.0
 10
198.6701492296443
 20
135.8882777434677
 30
0.0
 10
198.4462916045613
 20
135.6644201183845
 30
0.0
 10
198.4462916045613
 20
135.3882777434712
 30
0.0
 10
198.4462916045613
 20
135.3882777434706
 30
0.0
 10
198.4462916045684
 20
129.7882777434556
 30
0.0
 10
198.4462916045684
 20
129.7882777434556
 30
0.0
 10
198.4462916045684
 20
129.7882777434556
 30
0.0
 10
220.1462916045409
 20
129.7882777434556
 30
0.0
 10
220.1462916045409
 20
129.7882777434556
 30
0.0
 10
220.4224339794561
 20
129.7882777434556
 30
0.0
 10
220.6462916045406
 20
130.0121353685395
 30
0.0
 10
220.6462916045409
 20
130.2882777434547
 30
0.0
 10
220.6462916045409
 20
130.2882777434547
 30
0.0
 10
220.6462916045509
 20
137.2882777434556
 30
0.0
 10
220.6462916045509
 20
137.2882777434556
 30
0.0
 10
220.6462916045509
 20
137.2882777434556
 30
0.0
 10
223.446291604551
 20
137.2882777434556
 30
0.0
 10
223.446291604551
 20
137.2882777434556
 30
0.0
 10
223.446291604551
 20
137.2882777434556
 30
0.0
 10
223.446291604551
 20
130.2882777434554
 30
0.0
 10
223.446291604551
 20
130.2882777434554
 30
0.0
 10
223.446291604551
 20
130.0121353685402
 30
0.0
 10
223.6701492296355
 20
129.7882777434556
 30
0.0
 10
223.946291604551
 20
129.7882777434556
 30
0.0
 10
223.946291604551
 20
129.7882777434556
 30
0.0
 10
272.9462916045338
 20
129.7882777434556
 30
0.0
 10
272.9462916045338
 20
129.7882777434556
 30
0.0
 10
273.2224339794483
 20
129.7882777434569
 30
0.0
 10
273.4462916045322
 20
130.0121353685402
 30
0.0
 10
273.4462916045335
 20
130.2882777434547
 30
0.0
 10
273.4462916045335
 20
130.2882777434547
 30
0.0
 10
273.4462916045418
 20
137.2882777434556
 30
0.0
 10
273.4462916045418
 20
137.2882777434556
 30
0.0
 10
273.4462916045418
 20
137.2882777434556
 30
0.0
 10
276.2462916045419
 20
137.2882777434556
 30
0.0
 10
276.2462916045419
 20
137.2882777434556
 30
0.0
 10
276.2462916045419
 20
137.2882777434556
 30
0.0
 10
276.2462916045304
 20
130.2882777434573
 30
0.0
 10
276.2462916045304
 20
130.2882777434573
 30
0.0
 10
276.2462916045297
 20
130.0121353685415
 30
0.0
 10
276.4701492296143
 20
129.7882777434563
 30
0.0
 10
276.7462916045301
 20
129.7882777434556
 30
0.0
 10
276.7462916045313
 20
129.7882777434556
 30
0.0
 10
298.4462916045597
 20
129.7882777434556
 30
0.0
 10
298.4462916045597
 20
129.7882777434556
 30
0.0
 10
298.4462916045597
 20
129.7882777434556
 30
0.0
 10
298.446291604552
 20
135.3882777434314
 30
0.0
 10
298.446291604552
 20
135.3882777434314
 30
0.0
 10
298.446291604552
 20
135.6644201183453
 30
0.0
 10
298.2224339794694
 20
135.8882777434292
 30
0.0
 10
297.9462916045555
 20
135.8882777434312
 30
0.0
 10
297.9462916045555
 20
135.8882777434312
 30
0.0
 10
290.0462916045479
 20
135.8882777434818
 30
0.0
 10
290.0462916045479
 20
135.8882777434818
 30
0.0
 10
290.0462916045479
 20
135.8882777434818
 30
0.0
 10
290.0462916045479
 20
138.6882777434765
 30
0.0
 10
290.0462916045479
 20
138.6882777434765
 30
0.0
 10
290.0462916045479
 20
138.6882777434765
 30
0.0
 10
297.9462916045427
 20
138.6882777434765
 30
0.0
 10
297.9462916045427
 20
138.6882777434765
 30
0.0
 10
298.2224339794566
 20
138.6882777434765
 30
0.0
 10
298.4462916045405
 20
138.9121353685601
 30
0.0
 10
298.4462916045417
 20
139.1882777434746
 30
0.0
 10
298.4462916045417
 20
139.1882777434743
 30
0.0
 10
298.4462916045508
 20
144.7882777434555
 30
0.0
 10
298.4462916045508
 20
144.7882777434555
 30
0.0
  0
ENDBLK
  5
14C
330
149
100
AcDbEntity
  8
0
100
AcDbBlockEnd
  0
BLOCK
  5
150
330
14E
100
AcDbEntity
  8
0
100
AcDbBlockBegin
  2
block 37
 70
     0
 10
0.0
 20
0.0
 30
0.0
  3
block 37
  1

  0
SPLINE
  5
152
330
14E
100
AcDbEntity
  8
CutTest
 62
     7
420
 16777215
370
    25
100
AcDbSpline
210
0.0
220
0.0
230
1.0
 70
    11
 71
     3
 72
    89
 73
    85
 74
     0
 42
0.0000000001
 43
0.0000000001
 12
1.0
 22
0.0
 32
0.0
 13
1.0
 23
0.0
 33
0.0
 40
0.0
 40
0.0
 40
0.0
 40
0.0
 40
1.0
 40
1.0
 40
1.0
 40
2.0
 40
2.0
 40
2.0
 40
3.0
 40
3.0
 40
3.0
 40
4.0
 40
4.0
 40
4.0
 40
5.0
 40
5.0
 40
5.0
 40
6.0
 40
6.0
 40
6.0
 40
7.0
 40
7.0
 40
7.0
 40
8.0
 40
8.0
 40
8.0
 40
9.0
 40
9.0
 40
9.0
 40
10.0
 40
10.0
 40
10.0
 40
11.0
 40
11.0
 40
11.0
 40
12.0
 40
12.0
 40
12.0
 40
13.0
 40
13.0
 40
13.0
 40
14.0
 40
14.0
 40
14.0
 40
15.0
 40
15.0
 40
15.0
 40
16.0
 40
16.0
 40
16.0
 40
17.0
 40
17.0
 40
17.0
 40
18.0
 40
18.0
 40
18.0
 40
19.0
 40
19.0
 40
19.0
 40
20.0
 40
20.0
 40
20.0
 40
21.0
 40
21.0
 40
21.0
 40
22.0
 40
22.0
 40
22.0
 40
23.0
 40
23.0
 40
23.0
 40
24.0
 40
24.0
 40
24.0
 40
25.0
 40
25.0
 40
25.0
 40
26.0
 40
26.0
 40
26.0
 40
27.0
 40
27.0
 40
27.0
 40
28.0
 40
28.0
 40
28.0
 40
28.0
 10
298.4462916045508
 20
127.1493888589764
 30
0.0
 10
298.4462916045508
 20
127.1493888589764
 30
0.0
 10
198.4462916045507
 20
127.1493888589764
 30
0.0
 10
198.4462916045507
 20
127.1493888589764
 30
0.0
 10
198.4462916045507
 20
127.1493888589764
 30
0.0
 10
198.4462916045572
 20
121.5493888589614
 30
0.0
 10
198.4462916045572
 20
121.5493888589614
 30
0.0
 10
198.4462916045588
 20
121.2732464840469
 30
0.0
 10
198.6701492296436
 20
121.0493888589643
 30
0.0
 10
198.9462916045578
 20
121.0493888589656
 30
0.0
 10
198.9462916045607
 20
121.0493888589656
 30
0.0
 10
206.8462916045559
 20
121.0493888589883
 30
0.0
 10
206.8462916045559
 20
121.0493888589883
 30
0.0
 10
206.8462916045559
 20
121.0493888589883
 30
0.0
 10
206.8462916045559
 20
118.2493888589886
 30
0.0
 10
206.8462916045559
 20
118.2493888589886
 30
0.0
 10
206.8462916045559
 20
118.2493888589886
 30
0.0
 10
198.9462916045575
 20
118.2493888589886
 30
0.0
 10
198.9462916045575
 20
118.2493888589886
 30
0.0
 10
198.6701492296443
 20
118.2493888589886
 30
0.0
 10
198.4462916045613
 20
118.0255312339053
 30
0.0
 10
198.4462916045613
 20
117.7493888589921
 30
0.0
 10
198.4462916045613
 20
117.7493888589914
 30
0.0
 10
198.4462916045684
 20
112.1493888589765
 30
0.0
 10
198.4462916045684
 20
112.1493888589765
 30
0.0
 10
198.4462916045684
 20
112.1493888589765
 30
0.0
 10
220.1462916045409
 20
112.1493888589765
 30
0.0
 10
220.1462916045409
 20
112.1493888589765
 30
0.0
 10
220.4224339794561
 20
112.1493888589765
 30
0.0
 10
220.6462916045406
 20
112.3732464840604
 30
0.0
 10
220.6462916045409
 20
112.6493888589755
 30
0.0
 10
220.6462916045409
 20
112.6493888589755
 30
0.0
 10
220.6462916045509
 20
119.6493888589764
 30
0.0
 10
220.6462916045509
 20
119.6493888589764
 30
0.0
 10
220.6462916045509
 20
119.6493888589764
 30
0.0
 10
223.446291604551
 20
119.6493888589764
 30
0.0
 10
223.446291604551
 20
119.6493888589764
 30
0.0
 10
223.446291604551
 20
119.6493888589764
 30
0.0
 10
223.446291604551
 20
112.6493888589762
 30
0.0
 10
223.446291604551
 20
112.6493888589762
 30
0.0
 10
223.446291604551
 20
112.373246484061
 30
0.0
 10
223.6701492296355
 20
112.1493888589765
 30
0.0
 10
223.946291604551
 20
112.1493888589765
 30
0.0
 10
223.946291604551
 20
112.1493888589765
 30
0.0
 10
272.9462916045338
 20
112.1493888589765
 30
0.0
 10
272.9462916045338
 20
112.1493888589765
 30
0.0
 10
273.2224339794483
 20
112.1493888589778
 30
0.0
 10
273.4462916045322
 20
112.373246484061
 30
0.0
 10
273.4462916045335
 20
112.6493888589755
 30
0.0
 10
273.4462916045335
 20
112.6493888589755
 30
0.0
 10
273.4462916045418
 20
119.6493888589764
 30
0.0
 10
273.4462916045418
 20
119.6493888589764
 30
0.0
 10
273.4462916045418
 20
119.6493888589764
 30
0.0
 10
276.2462916045419
 20
119.6493888589764
 30
0.0
 10
276.2462916045419
 20
119.6493888589764
 30
0.0
 10
276.2462916045419
 20
119.6493888589764
 30
0.0
 10
276.2462916045304
 20
112.6493888589781
 30
0.0
 10
276.2462916045304
 20
112.6493888589781
 30
0.0
 10
276.2462916045297
 20
112.3732464840623
 30
0.0
 10
276.4701492296143
 20
112.1493888589771
 30
0.0
 10
276.7462916045301
 20
112.1493888589765
 30
0.0
 10
276.7462916045313
 20
112.1493888589765
 30
0.0
 10
298.4462916045597
 20
112.1493888589765
 30
0.0
 10
298.4462916045597
 20
112.1493888589765
 30
0.0
 10
298.4462916045597
 20
112.1493888589765
 30
0.0
 10
298.446291604552
 20
117.7493888589523
 30
0.0
 10
298.446291604552
 20
117.7493888589523
 30
0.0
 10
298.446291604552
 20
118.0255312338662
 30
0.0
 10
298.2224339794694
 20
118.2493888589501
 30
0.0
 10
297.9462916045555
 20
118.249388858952
 30
0.0
 10
297.9462916045555
 20
118.249388858952
 30
0.0
 10
290.0462916045479
 20
118.2493888590027
 30
0.0
 10
290.0462916045479
 20
118.2493888590027
 30
0.0
 10
290.0462916045479
 20
118.2493888590027
 30
0.0
 10
290.0462916045479
 20
121.0493888589973
 30
0.0
 10
290.0462916045479
 20
121.0493888589973
 30
0.0
 10
290.0462916045479
 20
121.0493888589973
 30
0.0
 10
297.9462916045427
 20
121.0493888589973
 30
0.0
 10
297.9462916045427
 20
121.0493888589973
 30
0.0
 10
298.2224339794566
 20
121.0493888589973
 30
0.0
 10
298.4462916045405
 20
121.2732464840809
 30
0.0
 10
298.4462916045417
 20
121.5493888589954
 30
0.0
 10
298.4462916045417
 20
121.5493888589951
 30
0.0
 10
298.4462916045508
 20
127.1493888589764
 30
0.0
 10
298.4462916045508
 20
127.1493888589764
 30
0.0
  0
ENDBLK
  5
151
330
14E
100
AcDbEntity
  8
0
100
AcDbBlockEnd
  0
BLOCK
  5
155
330
153
100
AcDbEntity
  8
0
100
AcDbBlockBegin
  2
block 38
 70
     0
 10
0.0
 20
0.0
 30
0.0
  3
block 38
  1

  0
SPLINE
  5
157
330
153
100
AcDbEntity
  8
CutTest
 62
     7
420
 16777215
370
    25
100
AcDbSpline
210
0.0
220
0.0
230
1.0
 70
    11
 71
     3
 72
    89
 73
    85
 74
     0
 42
0.0000000001
 43
0.0000000001
 12
1.0
 22
0.0
 32
0.0
 13
1.0
 23
0.0
 33
0.0
 40
0.0
 40
0.0
 40
0.0
 40
0.0
 40
1.0
 40
1.0
 40
1.0
 40
2.0
 40
2.0
 40
2.0
 40
3.0
 40
3.0
 40
3.0
 40
4.0
 40
4.0
 40
4.0
 40
5.0
 40
5.0
 40
5.0
 40
6.0
 40
6.0
 40
6.0
 40
7.0
 40
7.0
 40
7.0
 40
8.0
 40
8.0
 40
8.0
 40
9.0
 40
9.0
 40
9.0
 40
10.0
 40
10.0
 40
10.0
 40
11.0
 40
11.0
 40
11.0
 40
12.0
 40
12.0
 40
12.0
 40
13.0
 40
13.0
 40
13.0
 40
14.0
 40
14.0
 40
14.0
 40
15.0
 40
15.0
 40
15.0
 40
16.0
 40
16.0
 40
16.0
 40
17.0
 40
17.0
 40
17.0
 40
18.0
 40
18.0
 40
18.0
 40
19.0
 40
19.0
 40
19.0
 40
20.0
 40
20.0
 40
20.0
 40
21.0
 40
21.0
 40
21.0
 40
22.0
 40
22.0
 40
22.0
 40
23.0
 40
23.0
 40
23.0
 40
24.0
 40
24.0
 40
24.0
 40
25.0
 40
25.0
 40
25.0
 40
26.0
 40
26.0
 40
26.0
 40
27.0
 40
27.0
 40
27.0
 40
28.0
 40
28.0
 40
28.0
 40
28.0
 10
298.4462916045508
 20
109.5104999744972
 30
0.0
 10
298.4462916045508
 20
109.5104999744972
 30
0.0
 10
198.4462916045507
 20
109.5104999744972
 30
0.0
 10
198.4462916045507
 20
109.5104999744972
 30
0.0
 10
198.4462916045507
 20
109.5104999744972
 30
0.0
 10
198.4462916045572
 20
103.9104999744822
 30
0.0
 10
198.4462916045572
 20
103.9104999744822
 30
0.0
 10
198.4462916045588
 20
103.6343575995677
 30
0.0
 10
198.6701492296436
 20
103.4104999744851
 30
0.0
 10
198.9462916045578
 20
103.4104999744864
 30
0.0
 10
198.9462916045607
 20
103.4104999744864
 30
0.0
 10
206.8462916045559
 20
103.4104999745092
 30
0.0
 10
206.8462916045559
 20
103.4104999745092
 30
0.0
 10
206.8462916045559
 20
103.4104999745092
 30
0.0
 10
206.8462916045559
 20
100.6104999745094
 30
0.0
 10
206.8462916045559
 20
100.6104999745094
 30
0.0
 10
206.8462916045559
 20
100.6104999745094
 30
0.0
 10
198.9462916045575
 20
100.6104999745094
 30
0.0
 10
198.9462916045575
 20
100.6104999745094
 30
0.0
 10
198.6701492296443
 20
100.6104999745094
 30
0.0
 10
198.4462916045613
 20
100.3866423494261
 30
0.0
 10
198.4462916045613
 20
100.1104999745129
 30
0.0
 10
198.4462916045613
 20
100.1104999745123
 30
0.0
 10
198.4462916045684
 20
94.51049997449731
 30
0.0
 10
198.4462916045684
 20
94.51049997449731
 30
0.0
 10
198.4462916045684
 20
94.51049997449731
 30
0.0
 10
220.1462916045409
 20
94.51049997449731
 30
0.0
 10
220.1462916045409
 20
94.51049997449731
 30
0.0
 10
220.4224339794561
 20
94.51049997449731
 30
0.0
 10
220.6462916045406
 20
94.7343575995812
 30
0.0
 10
220.6462916045409
 20
95.01049997449637
 30
0.0
 10
220.6462916045409
 20
95.01049997449637
 30
0.0
 10
220.6462916045509
 20
102.0104999744973
 30
0.0
 10
220.6462916045509
 20
102.0104999744973
 30
0.0
 10
220.6462916045509
 20
102.0104999744973
 30
0.0
 10
223.446291604551
 20
102.0104999744973
 30
0.0
 10
223.446291604551
 20
102.0104999744973
 30
0.0
 10
223.446291604551
 20
102.0104999744973
 30
0.0
 10
223.446291604551
 20
95.01049997449701
 30
0.0
 10
223.446291604551
 20
95.01049997449701
 30
0.0
 10
223.446291604551
 20
94.73435759958186
 30
0.0
 10
223.6701492296355
 20
94.51049997449731
 30
0.0
 10
223.946291604551
 20
94.51049997449731
 30
0.0
 10
223.946291604551
 20
94.51049997449731
 30
0.0
 10
272.9462916045338
 20
94.51049997449731
 30
0.0
 10
272.9462916045338
 20
94.51049997449731
 30
0.0
 10
273.2224339794483
 20
94.51049997449859
 30
0.0
 10
273.4462916045322
 20
94.73435759958186
 30
0.0
 10
273.4462916045335
 20
95.01049997449637
 30
0.0
 10
273.4462916045335
 20
95.01049997449637
 30
0.0
 10
273.4462916045418
 20
102.0104999744973
 30
0.0
 10
273.4462916045418
 20
102.0104999744973
 30
0.0
 10
273.4462916045418
 20
102.0104999744973
 30
0.0
 10
276.2462916045419
 20
102.0104999744973
 30
0.0
 10
276.2462916045419
 20
102.0104999744973
 30
0.0
 10
276.2462916045419
 20
102.0104999744973
 30
0.0
 10
276.2462916045304
 20
95.01049997449893
 30
0.0
 10
276.2462916045304
 20
95.01049997449893
 30
0.0
 10
276.2462916045297
 20
94.73435759958313
 30
0.0
 10
276.4701492296143
 20
94.51049997449795
 30
0.0
 10
276.7462916045301
 20
94.51049997449731
 30
0.0
 10
276.7462916045313
 20
94.51049997449731
 30
0.0
 10
298.4462916045597
 20
94.51049997449731
 30
0.0
 10
298.4462916045597
 20
94.51049997449731
 30
0.0
 10
298.4462916045597
 20
94.51049997449731
 30
0.0
 10
298.446291604552
 20
100.1104999744731
 30
0.0
 10
298.446291604552
 20
100.1104999744731
 30
0.0
 10
298.446291604552
 20
100.386642349387
 30
0.0
 10
298.2224339794694
 20
100.6104999744709
 30
0.0
 10
297.9462916045555
 20
100.6104999744728
 30
0.0
 10
297.9462916045555
 20
100.6104999744728
 30
0.0
 10
290.0462916045479
 20
100.6104999745235
 30
0.0
 10
290.0462916045479
 20
100.6104999745235
 30
0.0
 10
290.0462916045479
 20
100.6104999745235
 30
0.0
 10
290.0462916045479
 20
103.4104999745182
 30
0.0
 10
290.0462916045479
 20
103.4104999745182
 30
0.0
 10
290.0462916045479
 20
103.4104999745182
 30
0.0
 10
297.9462916045427
 20
103.4104999745182
 30
0.0
 10
297.9462916045427
 20
103.4104999745182
 30
0.0
 10
298.2224339794566
 20
103.4104999745182
 30
0.0
 10
298.4462916045405
 20
103.6343575996017
 30
0.0
 10
298.4462916045417
 20
103.9104999745163
 30
0.0
 10
298.4462916045417
 20
103.9104999745159
 30
0.0
 10
298.4462916045508
 20
109.5104999744972
 30
0.0
 10
298.4462916045508
 20
109.5104999744972
 30
0.0
  0
ENDBLK
  5
156
330
153
100
AcDbEntity
  8
0
100
AcDbBlockEnd
  0
ENDSEC
  0
SECTION
  2
ENTITIES
  0
INSERT
  5
43
330
1F
100
AcDbEntity
  8
CutTest
100
AcDbBlockReference
  2
block 2
 10
0.0
 20
0.0
 30
0.0
  0
INSERT
  5
48
330
1F
100
AcDbEntity
  8
CutTest
100
AcDbBlockReference
  2
block 3
 10
0.0
 20
0.0
 30
0.0
  0
INSERT
  5
50
330
1F
100
AcDbEntity
  8
CutTest
100
AcDbBlockReference
  2
block 4
 10
0.0
 20
0.0
 30
0.0
  0
INSERT
  5
58
330
1F
100
AcDbEntity
  8
CutTest
100
AcDbBlockReference
  2
block 5
 10
0.0
 20
0.0
 30
0.0
  0
INSERT
  5
60
330
1F
100
AcDbEntity
  8
CutTest
100
AcDbBlockReference
  2
block 6
 10
0.0
 20
0.0
 30
0.0
  0
INSERT
  5
68
330
1F
100
AcDbEntity
  8
CutTest
100
AcDbBlockReference
  2
block 7
 10
0.0
 20
0.0
 30
0.0
  0
INSERT
  5
70
330
1F
100
AcDbEntity
  8
CutTest
100
AcDbBlockReference
  2
block 8
 10
0.0
 20
0.0
 30
0.0
  0
INSERT
  5
78
330
1F
100
AcDbEntity
  8
CutTest
100
AcDbBlockReference
  2
block 9
 10
0.0
 20
0.0
 30
0.0
  0
INSERT
  5
80
330
1F
100
AcDbEntity
  8
CutTest
100
AcDbBlockReference
  2
block 10
 10
0.0
 20
0.0
 30
0.0
  0
INSERT
  5
88
330
1F
100
AcDbEntity
  8
CutTest
100
AcDbBlockReference
  2
block 11
 10
0.0
 20
0.0
 30
0.0
  0
INSERT
  5
90
330
1F
100
AcDbEntity
  8
CutTest
100
AcDbBlockReference
  2
block 12
 10
0.0
 20
0.0
 30
0.0
  0
INSERT
  5
98
330
1F
100
AcDbEntity
  8
CutTest
100
AcDbBlockReference
  2
block 13
 10
0.0
 20
0.0
 30
0.0
  0
INSERT
  5
A0
330
1F
100
AcDbEntity
  8
CutTest
100
AcDbBlockReference
  2
block 14
 10
0.0
 20
0.0
 30
0.0
  0
INSERT
  5
A8
330
1F
100
AcDbEntity
  8
CutTest
100
AcDbBlockReference
  2
block 15
 10
0.0
 20
0.0
 30
0.0
  0
INSERT
  5
B0
330
1F
100
AcDbEntity
  8
CutTest
100
AcDbBlockReference
  2
block 16
 10
0.0
 20
0.0
 30
0.0
  0
INSERT
  5
B8
330
1F
100
AcDbEntity
  8
CutTest
100
AcDbBlockReference
  2
block 17
 10
0.0
 20
0.0
 30
0.0
  0
INSERT
  5
C0
330
1F
100
AcDbEntity
  8
CutTest
100
AcDbBlockReference
  2
block 18
 10
0.0
 20
0.0
 30
0.0
  0
INSERT
  5
C8
330
1F
100
AcDbEntity
  8
CutTest
100
AcDbBlockReference
  2
block 19
 10
0.0
 20
0.0
 30
0.0
  0
INSERT
  5
D0
330
1F
100
AcDbEntity
  8
CutTest
100
AcDbBlockReference
  2
block 20
 10
0.0
 20
0.0
 30
0.0
  0
INSERT
  5
D8
330
1F
100
AcDbEntity
  8
CutTest
100
AcDbBlockReference
  2
block 21
 10
0.0
 20
0.0
 30
0.0
  0
INSERT
  5
E0
330
1F
100
AcDbEntity
  8
CutTest
100
AcDbBlockReference
  2
block 22
 10
0.0
 20
0.0
 30
0.0
  0
INSERT
  5
E8
330
1F
100
AcDbEntity
  8
CutTest
100
AcDbBlockReference
  2
block 23
 10
0.0
 20
0.0
 30
0.0
  0
INSERT
  5
F0
330
1F
100
AcDbEntity
  8
CutTest
100
AcDbBlockReference
  2
block 24
 10
0.0
 20
0.0
 30
0.0
  0
INSERT
  5
F8
330
1F
100
AcDbEntity
  8
CutTest
100
AcDbBlockReference
  2
block 25
 10
0.0
 20
0.0
 30
0.0
  0
INSERT
  5
100
330
1F
100
AcDbEntity
  8
CutTest
100
AcDbBlockReference
  2
block 26
 10
0.0
 20
0.0
 30
0.0
  0
INSERT
  5
108
330
1F
100
AcDbEntity
  8
CutTest
100
AcDbBlockReference
  2
block 27
 10
0.0
 20
0.0
 30
0.0
  0
INSERT
  5
110
330
1F
100
AcDbEntity
  8
CutTest
100
AcDbBlockReference
  2
block 28
 10
0.0
 20
0.0
 30
0.0
  0
INSERT
  5
118
330
1F
100
AcDbEntity
  8
CutTest
100
AcDbBlockReference
  2
block 29
 10
0.0
 20
0.0
 30
0.0
  0
INSERT
  5
120
330
1F
100
AcDbEntity
  8
CutTest
100
AcDbBlockReference
  2
block 30
 10
0.0
 20
0.0
 30
0.0
  0
INSERT
  5
128
330
1F
100
AcDbEntity
  8
CutTest
100
AcDbBlockReference
  2
block 31
 10
0.0
 20
0.0
 30
0.0
  0
INSERT
  5
130
330
1F
100
AcDbEntity
  8
CutTest
100
AcDbBlockReference
  2
block 32
 10
0.0
 20
0.0
 30
0.0
  0
INSERT
  5
138
330
1F
100
AcDbEntity
  8
CutTest
100
AcDbBlockReference
  2
block 33
 10
0.0
 20
0.0
 30
0.0
  0
INSERT
  5
140
330
1F
100
AcDbEntity
  8
CutTest
100
AcDbBlockReference
  2
block 34
 10
0.0
 20
0.0
 30
0.0
  0
INSERT
  5
145
330
1F
100
AcDbEntity
  8
CutTest
100
AcDbBlockReference
  2
block 35
 10
0.0
 20
0.0
 30
0.0
  0
INSERT
  5
14A
330
1F
100
AcDbEntity
  8
CutTest
100
AcDbBlockReference
  2
block 36
 10
0.0
 20
0.0
 30
0.0
  0
INSERT
  5
14F
330
1F
100
AcDbEntity
  8
CutTest
100
AcDbBlockReference
  2
block 37
 10
0.0
 20
0.0
 30
0.0
  0
INSERT
  5
154
330
1F
100
AcDbEntity
  8
CutTest
100
AcDbBlockReference
  2
block 38
 10
0.0
 20
0.0
 30
0.0
  0
ENDSEC
  0
SECTION
  2
OBJECTS
  0
DICTIONARY
  5
C
330
0
100
AcDbDictionary
281
     1
  3
ACAD_GROUP
350
D
  3
ACAD_LAYOUT
350
1A
  3
ACAD_MATERIAL
350
3B
  3
ACAD_MLEADERSTYLE
350
159
  3
ACAD_MLINESTYLE
350
17
  3
ACAD_PLOTSETTINGS
350
19
  3
ACAD_PLOTSTYLENAME
350
E
  3
ACAD_TABLESTYLE
350
158
  3
ACAD_VISUALSTYLE
350
2A
  0
SUN
  5
3F
330
29
100
AcDbSun
 90
        1
290
     0
 63
     7
421
 16777215
 40
1.0
291
     1
 91
  2455826
 92
 54000000
292
     0
 70
     2
 71
   256
280
     1
  0
DICTIONARY
  5
D
102
{ACAD_REACTORS
330
C
102
}
330
C
100
AcDbDictionary
281
     1
  0
DICTIONARY
  5
1A
102
{ACAD_REACTORS
330
C
102
}
330
C
100
AcDbDictionary
281
     1
  3
Layout1
350
1E
  3
Layout2
350
26
  3
Model
350
22
  0
DICTIONARY
  5
3B
102
{ACAD_REACTORS
330
C
102
}
330
C
100
AcDbDictionary
281
     1
  3
ByBlock
350
3D
  3
ByLayer
350
3C
  3
Global
350
3E
  0
DICTIONARY
  5
159
102
{ACAD_REACTORS
330
C
102
}
330
C
100
AcDbDictionary
281
     1
  0
DICTIONARY
  5
17
102
{ACAD_REACTORS
330
C
102
}
330
C
100
AcDbDictionary
281
     1
  3
Standard
350
18
  0
DICTIONARY
  5
19
102
{ACAD_REACTORS
330
C
102
}
330
C
100
AcDbDictionary
281
     1
  0
ACDBDICTIONARYWDFLT
  5
E
102
{ACAD_REACTORS
330
C
102
}
330
C
100
AcDbDictionary
281
     1
  3
Normal
350
F
100
AcDbDictionaryWithDefault
340
F
  0
DICTIONARY
  5
158
102
{ACAD_REACTORS
330
C
102
}
330
C
100
AcDbDictionary
281
     1
  0
DICTIONARY
  5
2A
102
{ACAD_REACTORS
330
C
102
}
330
C
100
AcDbDictionary
281
     1
  3
2dWireframe
350
2F
  3
3D Hidden
350
31
  3
3dWireframe
350
30
  3
Basic
350
32
  3
Brighten
350
36
  3
ColorChange
350
3A
  3
Conceptual
350
34
  3
Dim
350
35
  3
Facepattern
350
39
  3
Flat
350
2B
  3
FlatWithEdges
350
2C
  3
Gouraud
350
2D
  3
GouraudWithEdges
350
2E
  3
Linepattern
350
38
  3
Realistic
350
33
  3
Thicken
350
37
  0
LAYOUT
  5
1E
102
{ACAD_REACTORS
330
1A
102
}
330
1A
100
AcDbPlotSettings
  1

  2
none_device
  4

  6

 40
0.0
 41
0.0
 42
0.0
 43
0.0
 44
0.0
 45
0.0
 46
0.0
 47
0.0
 48
0.0
 49
0.0
140
0.0
141
0.0
142
1.0
143
1.0
 70
   688
 72
     0
 73
     0
 74
     5
  7

 75
    16
 76
     0
 77
     2
 78
   300
147
1.0
148
0.0
149
0.0
100
AcDbLayout
  1
Layout1
 70
     1
 71
     1
 10
0.0
 20
0.0
 11
12.0
 21
9.0
 12
0.0
 22
0.0
 32
0.0
 14
1.000000000000000E+20
 24
1.000000000000000E+20
 34
1.000000000000000E+20
 15
-1.000000000000000E+20
 25
-1.000000000000000E+20
 35
-1.000000000000000E+20
146
0.0
 13
0.0
 23
0.0
 33
0.0
 16
1.0
 26
0.0
 36
0.0
 17
0.0
 27
1.0
 37
0.0
 76
     0
330
1B
  0
LAYOUT
  5
26
102
{ACAD_REACTORS
330
1A
102
}
330
1A
100
AcDbPlotSettings
  1

  2
none_device
  4

  6

 40
0.0
 41
0.0
 42
0.0
 43
0.0
 44
0.0
 45
0.0
 46
0.0
 47
0.0
 48
0.0
 49
0.0
140
0.0
141
0.0
142
1.0
143
1.0
 70
   688
 72
     0
 73
     0
 74
     5
  7

 75
    16
 76
     0
 77
     2
 78
   300
147
1.0
148
0.0
149
0.0
100
AcDbLayout
  1
Layout2
 70
     1
 71
     2
 10
0.0
 20
0.0
 11
0.0
 21
0.0
 12
0.0
 22
0.0
 32
0.0
 14
0.0
 24
0.0
 34
0.0
 15
0.0
 25
0.0
 35
0.0
146
0.0
 13
0.0
 23
0.0
 33
0.0
 16
1.0
 26
0.0
 36
0.0
 17
0.0
 27
1.0
 37
0.0
 76
     0
330
23
  0
LAYOUT
  5
22
102
{ACAD_REACTORS
330
1A
102
}
330
1A
100
AcDbPlotSettings
  1

  2
none_device
  4

  6

 40
0.0
 41
0.0
 42
0.0
 43
0.0
 44
0.0
 45
0.0
 46
0.0
 47
0.0
 48
0.0
 49
0.0
140
0.0
141
0.0
142
1.0
143
1.0
 70
  1712
 72
     0
 73
     0
 74
     0
  7

 75
     0
 76
     0
 77
     2
 78
   300
147
1.0
148
0.0
149
0.0
100
AcDbLayout
  1
Model
 70
     1
 71
     0
 10
0.0
 20
0.0
 11
12.0
 21
9.0
 12
0.0
 22
0.0
 32
0.0
 14
1.000000000000000E+20
 24
1.000000000000000E+20
 34
1.000000000000000E+20
 15
-1.000000000000000E+20
 25
-1.000000000000000E+20
 35
-1.000000000000000E+20
146
0.0
 13
0.0
 23
0.0
 33
0.0
 16
1.0
 26
0.0
 36
0.0
 17
0.0
 27
1.0
 37
0.0
 76
     0
330
1F
331
29
  0
MATERIAL
  5
3D
102
{ACAD_REACTORS
330
3B
102
}
330
3B
100
AcDbMaterial
  1
ByBlock
 72
     1
 94
      127
  0
MATERIAL
  5
3C
102
{ACAD_REACTORS
330
3B
102
}
330
3B
100
AcDbMaterial
  1
ByLayer
 72
     1
 94
      127
  0
MATERIAL
  5
3E
102
{ACAD_REACTORS
330
3B
102
}
330
3B
100
AcDbMaterial
  1
Global
 72
     1
 94
      127
  0
MLINESTYLE
  5
18
102
{ACAD_REACTORS
330
17
102
}
330
17
100
AcDbMlineStyle
  2
Standard
 70
     0
  3

 62
   256
 51
90.0
 52
90.0
 71
     2
 49
0.5
 62
   256
  6
BYLAYER
 49
-0.5
 62
   256
  6
BYLAYER
  0
ACDBPLACEHOLDER
  5
F
102
{ACAD_REACTORS
330
E
102
}
330
E
  0
VISUALSTYLE
  5
2F
102
{ACAD_REACTORS
330
2A
102
}
330
2A
100
AcDbVisualStyle
  2
2dWireframe
 70
     4
177
     2
291
     0
 71
     0
176
     1
 72
     2
176
     1
 73
     0
176
     1
 90
        0
176
     1
 40
-0.6
176
     1
 41
-30.0
176
     1
 62
     5
 63
     7
421
 16777215
176
     1
 74
     1
176
     1
 91
        4
176
     1
 64
     7
176
     1
 65
   257
176
     1
 75
     1
176
     1
175
     1
176
     1
 42
1.0
176
     1
 92
        0
176
     1
 66
   257
176
     1
 43
1.0
176
     1
 76
     1
176
     1
 77
     6
176
     1
 78
     2
176
     1
 67
     7
176
     1
 79
     5
176
     1
170
     0
176
     1
171
     0
176
     1
290
     0
176
     1
 93
        1
176
     1
 44
0.0
176
     1
173
     0
176
     1
  0
VISUALSTYLE
  5
31
102
{ACAD_REACTORS
330
2A
102
}
330
2A
100
AcDbVisualStyle
  2
3D Hidden
 70
     6
177
     2
291
     0
 71
     1
176
     1
 72
     2
176
     1
 73
     2
176
     1
 90
        0
176
     1
 40
-0.6
176
     1
 41
-30.0
176
     1
 62
     5
 63
     7
421
 16777215
176
     1
 74
     2
176
     1
 91
        2
176
     1
 64
     7
176
     1
 65
   257
176
     1
 75
     2
176
     1
175
     1
176
     1
 42
40.0
176
     1
 92
        0
176
     1
 66
   257
176
     1
 43
1.0
176
     1
 76
     1
176
     1
 77
     6
176
     1
 78
     2
176
     1
 67
     7
176
     1
 79
     3
176
     1
170
     0
176
     1
171
     0
176
     1
290
     0
176
     1
 93
        1
176
     1
 44
0.0
176
     1
173
     0
176
     1
  0
VISUALSTYLE
  5
30
102
{ACAD_REACTORS
330
2A
102
}
330
2A
100
AcDbVisualStyle
  2
3dWireframe
 70
     5
177
     2
291
     0
 71
     0
176
     1
 72
     2
176
     1
 73
     0
176
     1
 90
        0
176
     1
 40
-0.6
176
     1
 41
-30.0
176
     1
 62
     5
 63
     7
421
 16777215
176
     1
 74
     1
176
     1
 91
        4
176
     1
 64
     7
176
     1
 65
   257
176
     1
 75
     1
176
     1
175
     1
176
     1
 42
1.0
176
     1
 92
        0
176
     1
 66
   257
176
     1
 43
1.0
176
     1
 76
     1
176
     1
 77
     6
176
     1
 78
     2
176
     1
 67
     7
176
     1
 79
     5
176
     1
170
     0
176
     1
171
     0
176
     1
290
     0
176
     1
 93
        1
176
     1
 44
0.0
176
     1
173
     0
176
     1
  0
VISUALSTYLE
  5
32
102
{ACAD_REACTORS
330
2A
102
}
330
2A
100
AcDbVisualStyle
  2
Basic
 70
     7
177
     2
291
     1
 71
     1
176
     1
 72
     0
176
     1
 73
     1
176
     1
 90
        0
176
     1
 40
-0.6
176
     1
 41
-30.0
176
     1
 62
     5
 63
     7
421
 16777215
176
     1
 74
     0
176
     1
 91
        4
176
     1
 64
     7
176
     1
 65
   257
176
     1
 75
     1
176
     1
175
     1
176
     1
 42
1.0
176
     1
 92
        8
176
     1
 66
     7
176
     1
 43
1.0
176
     1
 76
     1
176
     1
 77
     6
176
     1
 78
     2
176
     1
 67
     7
176
     1
 79
     5
176
     1
170
     0
176
     1
171
     0
176
     1
290
     0
176
     1
 93
        1
176
     1
 44
0.0
176
     1
173
     0
176
     1
  0
VISUALSTYLE
  5
36
102
{ACAD_REACTORS
330
2A
102
}
330
2A
100
AcDbVisualStyle
  2
Brighten
 70
    12
177
     2
291
     1
 71
     2
176
     1
 72
     2
176
     1
 73
     0
176
     1
 90
        0
176
     1
 40
-0.6
176
     1
 41
-30.0
176
     1
 62
     5
 63
     7
421
 16777215
176
     1
 74
     1
176
     1
 91
        4
176
     1
 64
     7
176
     1
 65
   257
176
     1
 75
     1
176
     1
175
     1
176
     1
 42
1.0
176
     1
 92
        8
176
     1
 66
     7
176
     1
 43
1.0
176
     1
 76
     1
176
     1
 77
     6
176
     1
 78
     2
176
     1
 67
     7
176
     1
 79
     5
176
     1
170
     0
176
     1
171
     0
176
     1
290
     0
176
     1
 93
        1
176
     1
 44
50.0
176
     1
173
     0
176
     1
  0
VISUALSTYLE
  5
3A
102
{ACAD_REACTORS
330
2A
102
}
330
2A
100
AcDbVisualStyle
  2
ColorChange
 70
    16
177
     2
291
     1
 71
     2
176
     1
 72
     2
176
     1
 73
     3
176
     1
 90
        0
176
     1
 40
-0.6
176
     1
 41
-30.0
176
     1
 62
     5
 63
     8
421
  8421504
176
     1
 74
     1
176
     1
 91
        4
176
     1
 64
     7
176
     1
 65
   257
176
     1
 75
     1
176
     1
175
     1
176
     1
 42
1.0
176
     1
 92
        8
176
     1
 66
     8
424
  8421504
176
     1
 43
1.0
176
     1
 76
     1
176
     1
 77
     6
176
     1
 78
     2
176
     1
 67
     7
176
     1
 79
     5
176
     1
170
     0
176
     1
171
     0
176
     1
290
     0
176
     1
 93
        1
176
     1
 44
0.0
176
     1
173
     0
176
     1
  0
VISUALSTYLE
  5
34
102
{ACAD_REACTORS
330
2A
102
}
330
2A
100
AcDbVisualStyle
  2
Conceptual
 70
     9
177
     2
291
     0
 71
     3
176
     1
 72
     2
176
     1
 73
     0
176
     1
 90
        0
176
     1
 40
-0.6
176
     1
 41
-30.0
176
     1
 62
     5
 63
     7
421
 16777215
176
     1
 74
     2
176
     1
 91
        2
176
     1
 64
     7
176
     1
 65
   257
176
     1
 75
     1
176
     1
175
     1
176
     1
 42
40.0
176
     1
 92
        8
176
     1
 66
     7
176
     1
 43
1.0
176
     1
 76
     1
176
     1
 77
     6
176
     1
 78
     2
176
     1
 67
     7
176
     1
 79
     3
176
     1
170
     0
176
     1
171
     0
176
     1
290
     0
176
     1
 93
        1
176
     1
 44
0.0
176
     1
173
     0
176
     1
  0
VISUALSTYLE
  5
35
102
{ACAD_REACTORS
330
2A
102
}
330
2A
100
AcDbVisualStyle
  2
Dim
 70
    11
177
     2
291
     1
 71
     2
176
     1
 72
     2
176
     1
 73
     0
176
     1
 90
        0
176
     1
 40
-0.6
176
     1
 41
-30.0
176
     1
 62
     5
 63
     7
421
 16777215
176
     1
 74
     1
176
     1
 91
        4
176
     1
 64
     7
176
     1
 65
   257
176
     1
 75
     1
176
     1
175
     1
176
     1
 42
1.0
176
     1
 92
        8
176
     1
 66
     7
176
     1
 43
1.0
176
     1
 76
     1
176
     1
 77
     6
176
     1
 78
     2
176
     1
 67
     7
176
     1
 79
     5
176
     1
170
     0
176
     1
171
     0
176
     1
290
     0
176
     1
 93
        1
176
     1
 44
-50.0
176
     1
173
     0
176
     1
  0
VISUALSTYLE
  5
39
102
{ACAD_REACTORS
330
2A
102
}
330
2A
100
AcDbVisualStyle
  2
Facepattern
 70
    15
177
     2
291
     1
 71
     2
176
     1
 72
     2
176
     1
 73
     0
176
     1
 90
        0
176
     1
 40
-0.6
176
     1
 41
-30.0
176
     1
 62
     5
 63
     7
421
 16777215
176
     1
 74
     1
176
     1
 91
        4
176
     1
 64
     7
176
     1
 65
   257
176
     1
 75
     1
176
     1
175
     1
176
     1
 42
1.0
176
     1
 92
        8
176
     1
 66
     7
176
     1
 43
1.0
176
     1
 76
     1
176
     1
 77
     6
176
     1
 78
     2
176
     1
 67
     7
176
     1
 79
     5
176
     1
170
     0
176
     1
171
     0
176
     1
290
     0
176
     1
 93
        1
176
     1
 44
0.0
176
     1
173
     0
176
     1
  0
VISUALSTYLE
  5
2B
102
{ACAD_REACTORS
330
2A
102
}
330
2A
100
AcDbVisualStyle
  2
Flat
 70
     0
177
     2
291
     1
 71
     2
176
     1
 72
     1
176
     1
 73
     1
176
     1
 90
        2
176
     1
 40
-0.6
176
     1
 41
30.0
176
     1
 62
     5
 63
     7
421
 16777215
176
     1
 74
     0
176
     1
 91
        4
176
     1
 64
     7
176
     1
 65
   257
176
     1
 75
     1
176
     1
175
     1
176
     1
 42
1.0
176
     1
 92
        8
176
     1
 66
     7
176
     1
 43
1.0
176
     1
 76
     1
176
     1
 77
     6
176
     1
 78
     2
176
     1
 67
     7
176
     1
 79
     5
176
     1
170
     0
176
     1
171
     0
176
     1
290
     0
176
     1
 93
       13
176
     1
 44
0.0
176
     1
173
     0
176
     1
  0
VISUALSTYLE
  5
2C
102
{ACAD_REACTORS
330
2A
102
}
330
2A
100
AcDbVisualStyle
  2
FlatWithEdges
 70
     1
177
     2
291
     1
 71
     2
176
     1
 72
     1
176
     1
 73
     1
176
     1
 90
        2
176
     1
 40
-0.6
176
     1
 41
30.0
176
     1
 62
     5
 63
     7
421
 16777215
176
     1
 74
     1
176
     1
 91
        4
176
     1
 64
     7
176
     1
 65
   257
176
     1
 75
     1
176
     1
175
     1
176
     1
 42
1.0
176
     1
 92
        0
176
     1
 66
   257
176
     1
 43
1.0
176
     1
 76
     1
176
     1
 77
     6
176
     1
 78
     2
176
     1
 67
     7
176
     1
 79
     5
176
     1
170
     0
176
     1
171
     0
176
     1
290
     0
176
     1
 93
       13
176
     1
 44
0.0
176
     1
173
     0
176
     1
  0
VISUALSTYLE
  5
2D
102
{ACAD_REACTORS
330
2A
102
}
330
2A
100
AcDbVisualStyle
  2
Gouraud
 70
     2
177
     2
291
     1
 71
     2
176
     1
 72
     2
176
     1
 73
     1
176
     1
 90
        2
176
     1
 40
-0.6
176
     1
 41
30.0
176
     1
 62
     5
 63
     7
421
 16777215
176
     1
 74
     0
176
     1
 91
        4
176
     1
 64
     7
176
     1
 65
   257
176
     1
 75
     1
176
     1
175
     1
176
     1
 42
1.0
176
     1
 92
        0
176
     1
 66
     7
176
     1
 43
1.0
176
     1
 76
     1
176
     1
 77
     6
176
     1
 78
     2
176
     1
 67
     7
176
     1
 79
     5
176
     1
170
     0
176
     1
171
     0
176
     1
290
     0
176
     1
 93
       13
176
     1
 44
0.0
176
     1
173
     0
176
     1
  0
VISUALSTYLE
  5
2E
102
{ACAD_REACTORS
330
2A
102
}
330
2A
100
AcDbVisualStyle
  2
GouraudWithEdges
 70
     3
177
     2
291
     1
 71
     2
176
     1
 72
     2
176
     1
 73
     1
176
     1
 90
        2
176
     1
 40
-0.6
176
     1
 41
30.0
176
     1
 62
     5
 63
     7
421
 16777215
176
     1
 74
     1
176
     1
 91
        4
176
     1
 64
     7
176
     1
 65
   257
176
     1
 75
     1
176
     1
175
     1
176
     1
 42
1.0
176
     1
 92
        0
176
     1
 66
   257
176
     1
 43
1.0
176
     1
 76
     1
176
     1
 77
     6
176
     1
 78
     2
176
     1
 67
     7
176
     1
 79
     5
176
     1
170
     0
176
     1
171
     0
176
     1
290
     0
176
     1
 93
       13
176
     1
 44
0.0
176
     1
173
     0
176
     1
  0
VISUALSTYLE
  5
38
102
{ACAD_REACTORS
330
2A
102
}
330
2A
100
AcDbVisualStyle
  2
Linepattern
 70
    14
177
     2
291
     1
 71
     2
176
     1
 72
     2
176
     1
 73
     0
176
     1
 90
        0
176
     1
 40
-0.6
176
     1
 41
-30.0
176
     1
 62
     5
 63
     7
421
 16777215
176
     1
 74
     1
176
     1
 91
        4
176
     1
 64
     7
176
     1
 65
   257
176
     1
 75
     7
176
     1
175
     7
176
     1
 42
1.0
176
     1
 92
        8
176
     1
 66
     7
176
     1
 43
1.0
176
     1
 76
     1
176
     1
 77
     6
176
     1
 78
     2
176
     1
 67
     7
176
     1
 79
     5
176
     1
170
     0
176
     1
171
     0
176
     1
290
     0
176
     1
 93
        1
176
     1
 44
0.0
176
     1
173
     0
176
     1
  0
VISUALSTYLE
  5
33
102
{ACAD_REACTORS
330
2A
102
}
330
2A
100
AcDbVisualStyle
  2
Realistic
 70
     8
177
     2
291
     0
 71
     2
176
     1
 72
     2
176
     1
 73
     0
176
     1
 90
        0
176
     1
 40
-0.6
176
     1
 41
-30.0
176
     1
 62
     5
 63
     7
421
 16777215
176
     1
 74
     1
176
     1
 91
        0
176
     1
 64
     7
176
     1
 65
   257
176
     1
 75
     1
176
     1
175
     1
176
     1
 42
1.0
176
     1
 92
        8
176
     1
 66
     8
424
  7895160
176
     1
 43
1.0
176
     1
 76
     1
176
     1
 77
     6
176
     1
 78
     2
176
     1
 67
     7
176
     1
 79
     5
176
     1
170
     0
176
     1
171
     0
176
     1
290
     0
176
     1
 93
       13
176
     1
 44
0.0
176
     1
173
     0
176
     1
  0
VISUALSTYLE
  5
37
102
{ACAD_REACTORS
330
2A
102
}
330
2A
100
AcDbVisualStyle
  2
Thicken
 70
    13
177
     2
291
     1
 71
     2
176
     1
 72
     2
176
     1
 73
     0
176
     1
 90
        0
176
     1
 40
-0.6
176
     1
 41
-30.0
176
     1
 62
     5
 63
     7
421
 16777215
176
     1
 74
     1
176
     1
 91
        4
176
     1
 64
     7
176
     1
 65
   257
176
     1
 75
     1
176
     1
175
     1
176
     1
 42
1.0
176
     1
 92
       12
176
     1
 66
     7
176
     1
 43
1.0
176
     1
 76
     1
176
     1
 77
     6
176
     1
 78
     2
176
     1
 67
     7
176
     1
 79
     5
176
     1
170
     0
176
     1
171
     0
176
     1
290
     0
176
     1
 93
        1
176
     1
 44
0.0
176
     1
173
     0
176
     1
  0
ENDSEC
  0
EOF
