0
SECTION
2
HEADER
9
$INSUNITS
70
4
9
$ACADVER
1
AC1014
9
$HANDSEED
5
FFFF
0
ENDSEC
0
SECTION
2
TABLES
0
TABLE
2
VPORT
5
8
100
AcDbSymbolTable
0
ENDTAB
0
TABLE
2
LTYPE
5
5
100
AcDbSymbolTable
0
LTYPE
5
14
100
AcDbSymbolTableRecord
100
AcDbLinetypeTableRecord
2
BYBLOCK
70
0
0
LTYPE
5
15
100
AcDbSymbolTableRecord
100
AcDbLinetypeTableRecord
2
BYLAYER
70
0
0
ENDTAB
0
TABLE
2
LAYER
5
2
100
AcDbSymbolTable
70
2
0
LAYER
5
50
100
AcDbSymbolTableRecord
100
AcDbLayerTableRecord
2
0
70
0
6
CONTINUOUS
0
ENDTAB
0
TABLE
2
STYLE
5
3
100
AcDbSymbolTable
70
1
0
STYLE
5
11
100
AcDbSymbolTableRecord
100
AcDbTextStyleTableRecord
2
STANDARD
70
0
0
ENDTAB
0
TABLE
2
VIEW
5
6
100
AcDbSymbolTable
70
0
0
ENDTAB
0
TABLE
2
UCS
5
7
100
AcDbSymbolTable
70
0
0
ENDTAB
0
TABLE
2
APPID
5
9
100
AcDbSymbolTable
70
2
0
APPID
5
12
100
AcDbSymbolTableRecord
100
AcDbRegAppTableRecord
2
ACAD
70
0
0
ENDTAB
0
TABLE
2
DIMSTYLE
5
A
100
AcDbSymbolTable
70
1
0
ENDTAB
0
TABLE
2
BLOCK_RECORD
5
1
100
AcDbSymbolTable
70
1
0
BLOCK_RECORD
5
1F
100
AcDbSymbolTableRecord
100
AcDbBlockTableRecord
2
*MODEL_SPACE
0
BLOCK_RECORD
5
1B
100
AcDbSymbolTableRecord
100
AcDbBlockTableRecord
2
*PAPER_SPACE
0
ENDTAB
0
ENDSEC
0
SECTION
2
BLOCKS
0
BLOCK
5
20
100
AcDbEntity
100
AcDbBlockBegin
2
*MODEL_SPACE
0
ENDBLK
5
21
100
AcDbEntity
100
AcDbBlockEnd
0
BLOCK
5
1C
100
AcDbEntity
100
AcDbBlockBegin
2
*PAPER_SPACE
0
ENDBLK
5
1D
100
AcDbEntity
100
AcDbBlockEnd
0
ENDSEC
0
SECTION
2
ENTITIES
0
LWPOLYLINE
5
100
100
AcDbEntity
8
0
100
AcDbPolyline
90
28
70
1
43
0.0
10
25
20
-94.800000000000026
10
25
20
-174.80000000000004
10
20
20
-174.80000000000004
10
20
20
-269.60000000000002
10
25
20
-269.60000000000002
10
25
20
-294.60000000000002
10
0
20
-294.60000000000002
10
0
20
-289.60000000000002
10
-37.400000000000006
20
-289.60000000000002
10
-37.400000000000006
20
-294.60000000000002
10
-62.400000000000006
20
-294.60000000000002
10
-62.400000000000006
20
-269.60000000000002
10
-57.400000000000006
20
-269.60000000000002
10
-57.400000000000006
20
-174.80000000000004
10
-62.400000000000006
20
-174.80000000000004
10
-62.400000000000006
20
-94.800000000000026
10
-57.400000000000006
20
-94.800000000000026
10
-57.400000000000006
20
0
10
-62.400000000000006
20
0
10
-62.400000000000006
20
25
10
-37.400000000000006
20
25
10
-37.400000000000006
20
20
10
0
20
20
10
0
20
25
10
25
20
25
10
25
20
0
10
20
20
0
10
20
20
-94.800000000000026
0
LWPOLYLINE
5
101
100
AcDbEntity
8
0
100
AcDbPolyline
90
16
70
1
43
0.0
10
-0.074999999999998401
20
32.5
10
-0.074999999999998401
20
27.5
10
-37.325000000000003
20
27.5
10
-37.325000000000003
20
32.5
10
-62.400000000000006
20
32.5
10
-62.400000000000006
20
47.5
10
-57.400000000000006
20
47.5
10
-57.400000000000006
20
67.500000000000014
10
-62.400000000000006
20
67.500000000000014
10
-62.400000000000006
20
82.5
10
25
20
82.5
10
25
20
67.500000000000014
10
20
20
67.500000000000014
10
20
20
47.5
10
25
20
47.5
10
25
20
32.5
0
LWPOLYLINE
5
102
100
AcDbEntity
8
0
100
AcDbPolyline
90
20
70
1
43
0.0
10
-69.900000000000006
20
-0.075000000000002842
10
-64.900000000000006
20
-0.075000000000002842
10
-64.900000000000006
20
-94.800000000000011
10
-69.900000000000006
20
-94.800000000000011
10
-69.900000000000006
20
-174.95000000000005
10
-64.900000000000006
20
-174.95000000000005
10
-64.900000000000006
20
-269.52500000000003
10
-69.900000000000006
20
-269.52500000000003
10
-69.900000000000006
20
-289.60000000000002
10
-84.825000000000003
20
-289.60000000000002
10
-84.825000000000003
20
-294.60000000000002
10
-104.97500000000001
20
-294.60000000000002
10
-104.97500000000001
20
-289.60000000000002
10
-119.90000000000001
20
-289.60000000000002
10
-119.90000000000001
20
20
10
-104.97500000000001
20
20
10
-104.97500000000001
20
25
10
-84.825000000000003
20
25
10
-84.825000000000003
20
20
10
-69.900000000000006
20
20
0
LWPOLYLINE
5
103
100
AcDbEntity
8
0
100
AcDbPolyline
90
16
70
1
43
0.0
10
-0.074999999999998401
20
32.5
10
-0.074999999999998401
20
27.5
10
-37.325000000000003
20
27.5
10
-37.325000000000003
20
32.5
10
-62.400000000000006
20
32.5
10
-62.400000000000006
20
47.5
10
-57.400000000000006
20
47.5
10
-57.400000000000006
20
67.500000000000014
10
-62.400000000000006
20
67.500000000000014
10
-62.400000000000006
20
82.5
10
25
20
82.5
10
25
20
67.500000000000014
10
20
20
67.500000000000014
10
20
20
47.5
10
25
20
47.5
10
25
20
32.5
0
LWPOLYLINE
5
104
100
AcDbEntity
8
0
100
AcDbPolyline
90
20
70
1
43
0.0
10
-69.900000000000006
20
-0.075000000000002842
10
-64.900000000000006
20
-0.075000000000002842
10
-64.900000000000006
20
-94.800000000000011
10
-69.900000000000006
20
-94.800000000000011
10
-69.900000000000006
20
-174.95000000000005
10
-64.900000000000006
20
-174.95000000000005
10
-64.900000000000006
20
-269.52500000000003
10
-69.900000000000006
20
-269.52500000000003
10
-69.900000000000006
20
-289.60000000000002
10
-84.825000000000003
20
-289.60000000000002
10
-84.825000000000003
20
-294.60000000000002
10
-104.97500000000001
20
-294.60000000000002
10
-104.97500000000001
20
-289.60000000000002
10
-119.90000000000001
20
-289.60000000000002
10
-119.90000000000001
20
20
10
-104.97500000000001
20
20
10
-104.97500000000001
20
25
10
-84.825000000000003
20
25
10
-84.825000000000003
20
20
10
-69.900000000000006
20
20
0
LWPOLYLINE
5
105
100
AcDbEntity
8
0
100
AcDbPolyline
90
16
70
1
43
0.0
10
-0.074999999999998401
20
32.5
10
-0.074999999999998401
20
27.5
10
-37.325000000000003
20
27.5
10
-37.325000000000003
20
32.5
10
-62.400000000000006
20
32.5
10
-62.400000000000006
20
47.5
10
-57.400000000000006
20
47.5
10
-57.400000000000006
20
67.500000000000014
10
-62.400000000000006
20
67.500000000000014
10
-62.400000000000006
20
82.5
10
25
20
82.5
10
25
20
67.500000000000014
10
20
20
67.500000000000014
10
20
20
47.5
10
25
20
47.5
10
25
20
32.5
0
LWPOLYLINE
5
106
100
AcDbEntity
8
0
100
AcDbPolyline
90
20
70
1
43
0.0
10
-69.900000000000006
20
-0.075000000000002842
10
-64.900000000000006
20
-0.075000000000002842
10
-64.900000000000006
20
-94.800000000000011
10
-69.900000000000006
20
-94.800000000000011
10
-69.900000000000006
20
-174.95000000000005
10
-64.900000000000006
20
-174.95000000000005
10
-64.900000000000006
20
-269.52500000000003
10
-69.900000000000006
20
-269.52500000000003
10
-69.900000000000006
20
-289.60000000000002
10
-84.825000000000003
20
-289.60000000000002
10
-84.825000000000003
20
-294.60000000000002
10
-104.97500000000001
20
-294.60000000000002
10
-104.97500000000001
20
-289.60000000000002
10
-119.90000000000001
20
-289.60000000000002
10
-119.90000000000001
20
20
10
-104.97500000000001
20
20
10
-104.97500000000001
20
25
10
-84.825000000000003
20
25
10
-84.825000000000003
20
20
10
-69.900000000000006
20
20
0
LWPOLYLINE
5
107
100
AcDbEntity
8
0
100
AcDbPolyline
90
16
70
1
43
0.0
10
-0.074999999999998401
20
32.5
10
-0.074999999999998401
20
27.5
10
-37.325000000000003
20
27.5
10
-37.325000000000003
20
32.5
10
-62.400000000000006
20
32.5
10
-62.400000000000006
20
47.5
10
-57.400000000000006
20
47.5
10
-57.400000000000006
20
67.500000000000014
10
-62.400000000000006
20
67.500000000000014
10
-62.400000000000006
20
82.5
10
25
20
82.5
10
25
20
67.500000000000014
10
20
20
67.500000000000014
10
20
20
47.5
10
25
20
47.5
10
25
20
32.5
0
LWPOLYLINE
5
108
100
AcDbEntity
8
0
100
AcDbPolyline
90
20
70
1
43
0.0
10
-69.900000000000006
20
-0.075000000000002842
10
-64.900000000000006
20
-0.075000000000002842
10
-64.900000000000006
20
-94.800000000000011
10
-69.900000000000006
20
-94.800000000000011
10
-69.900000000000006
20
-174.95000000000005
10
-64.900000000000006
20
-174.95000000000005
10
-64.900000000000006
20
-269.52500000000003
10
-69.900000000000006
20
-269.52500000000003
10
-69.900000000000006
20
-289.60000000000002
10
-84.825000000000003
20
-289.60000000000002
10
-84.825000000000003
20
-294.60000000000002
10
-104.97500000000001
20
-294.60000000000002
10
-104.97500000000001
20
-289.60000000000002
10
-119.90000000000001
20
-289.60000000000002
10
-119.90000000000001
20
20
10
-104.97500000000001
20
20
10
-104.97500000000001
20
25
10
-84.825000000000003
20
25
10
-84.825000000000003
20
20
10
-69.900000000000006
20
20
0
LWPOLYLINE
5
109
100
AcDbEntity
8
0
100
AcDbPolyline
90
16
70
1
43
0.0
10
-37.325000000000003
20
-297.10000000000008
10
-0.074999999999998401
20
-297.10000000000008
10
-0.074999999999998401
20
-302.10000000000008
10
25
20
-302.10000000000008
10
25
20
-317.10000000000008
10
20
20
-317.10000000000008
10
20
20
-337.10000000000008
10
25
20
-337.10000000000008
10
25
20
-352.10000000000008
10
-62.400000000000006
20
-352.10000000000008
10
-62.400000000000006
20
-337.10000000000008
10
-57.400000000000006
20
-337.10000000000008
10
-57.400000000000006
20
-317.10000000000008
10
-62.400000000000006
20
-317.10000000000008
10
-62.400000000000006
20
-302.10000000000008
10
-37.325000000000003
20
-302.10000000000008
0
LWPOLYLINE
5
110
100
AcDbEntity
8
0
100
AcDbPolyline
90
20
70
1
43
0.0
10
27.5
20
-94.800000000000011
10
27.5
20
-0.075000000000002842
10
32.5
20
-0.075000000000002842
10
32.5
20
20
10
47.424999999999997
20
20
10
47.424999999999997
20
25
10
67.575000000000017
20
25
10
67.575000000000017
20
20
10
82.5
20
20
10
82.5
20
-289.60000000000002
10
67.575000000000017
20
-289.60000000000002
10
67.575000000000017
20
-294.60000000000002
10
47.424999999999997
20
-294.60000000000002
10
47.424999999999997
20
-289.60000000000002
10
32.5
20
-289.60000000000002
10
32.5
20
-269.52500000000003
10
27.5
20
-269.52500000000003
10
27.5
20
-174.95000000000005
10
32.5
20
-174.95000000000005
10
32.5
20
-94.800000000000011
0
LWPOLYLINE
5
111
100
AcDbEntity
8
0
100
AcDbPolyline
90
16
70
1
43
0.0
10
-37.325000000000003
20
-297.10000000000008
10
-0.074999999999998401
20
-297.10000000000008
10
-0.074999999999998401
20
-302.10000000000008
10
25
20
-302.10000000000008
10
25
20
-317.10000000000008
10
20
20
-317.10000000000008
10
20
20
-337.10000000000008
10
25
20
-337.10000000000008
10
25
20
-352.10000000000008
10
-62.400000000000006
20
-352.10000000000008
10
-62.400000000000006
20
-337.10000000000008
10
-57.400000000000006
20
-337.10000000000008
10
-57.400000000000006
20
-317.10000000000008
10
-62.400000000000006
20
-317.10000000000008
10
-62.400000000000006
20
-302.10000000000008
10
-37.325000000000003
20
-302.10000000000008
0
LWPOLYLINE
5
112
100
AcDbEntity
8
0
100
AcDbPolyline
90
20
70
1
43
0.0
10
27.5
20
-94.800000000000011
10
27.5
20
-0.075000000000002842
10
32.5
20
-0.075000000000002842
10
32.5
20
20
10
47.424999999999997
20
20
10
47.424999999999997
20
25
10
67.575000000000017
20
25
10
67.575000000000017
20
20
10
82.5
20
20
10
82.5
20
-289.60000000000002
10
67.575000000000017
20
-289.60000000000002
10
67.575000000000017
20
-294.60000000000002
10
47.424999999999997
20
-294.60000000000002
10
47.424999999999997
20
-289.60000000000002
10
32.5
20
-289.60000000000002
10
32.5
20
-269.52500000000003
10
27.5
20
-269.52500000000003
10
27.5
20
-174.95000000000005
10
32.5
20
-174.95000000000005
10
32.5
20
-94.800000000000011
0
LWPOLYLINE
5
113
100
AcDbEntity
8
0
100
AcDbPolyline
90
16
70
1
43
0.0
10
-37.325000000000003
20
-297.10000000000008
10
-0.074999999999998401
20
-297.10000000000008
10
-0.074999999999998401
20
-302.10000000000008
10
25
20
-302.10000000000008
10
25
20
-317.10000000000008
10
20
20
-317.10000000000008
10
20
20
-337.10000000000008
10
25
20
-337.10000000000008
10
25
20
-352.10000000000008
10
-62.400000000000006
20
-352.10000000000008
10
-62.400000000000006
20
-337.10000000000008
10
-57.400000000000006
20
-337.10000000000008
10
-57.400000000000006
20
-317.10000000000008
10
-62.400000000000006
20
-317.10000000000008
10
-62.400000000000006
20
-302.10000000000008
10
-37.325000000000003
20
-302.10000000000008
0
LWPOLYLINE
5
114
100
AcDbEntity
8
0
100
AcDbPolyline
90
20
70
1
43
0.0
10
27.5
20
-94.800000000000011
10
27.5
20
-0.075000000000002842
10
32.5
20
-0.075000000000002842
10
32.5
20
20
10
47.424999999999997
20
20
10
47.424999999999997
20
25
10
67.575000000000017
20
25
10
67.575000000000017
20
20
10
82.5
20
20
10
82.5
20
-289.60000000000002
10
67.575000000000017
20
-289.60000000000002
10
67.575000000000017
20
-294.60000000000002
10
47.424999999999997
20
-294.60000000000002
10
47.424999999999997
20
-289.60000000000002
10
32.5
20
-289.60000000000002
10
32.5
20
-269.52500000000003
10
27.5
20
-269.52500000000003
10
27.5
20
-174.95000000000005
10
32.5
20
-174.95000000000005
10
32.5
20
-94.800000000000011
0
LWPOLYLINE
5
115
100
AcDbEntity
8
0
100
AcDbPolyline
90
16
70
1
43
0.0
10
-37.325000000000003
20
-297.10000000000008
10
-0.074999999999998401
20
-297.10000000000008
10
-0.074999999999998401
20
-302.10000000000008
10
25
20
-302.10000000000008
10
25
20
-317.10000000000008
10
20
20
-317.10000000000008
10
20
20
-337.10000000000008
10
25
20
-337.10000000000008
10
25
20
-352.10000000000008
10
-62.400000000000006
20
-352.10000000000008
10
-62.400000000000006
20
-337.10000000000008
10
-57.400000000000006
20
-337.10000000000008
10
-57.400000000000006
20
-317.10000000000008
10
-62.400000000000006
20
-317.10000000000008
10
-62.400000000000006
20
-302.10000000000008
10
-37.325000000000003
20
-302.10000000000008
0
LWPOLYLINE
5
116
100
AcDbEntity
8
0
100
AcDbPolyline
90
20
70
1
43
0.0
10
27.5
20
-94.800000000000011
10
27.5
20
-0.075000000000002842
10
32.5
20
-0.075000000000002842
10
32.5
20
20
10
47.424999999999997
20
20
10
47.424999999999997
20
25
10
67.575000000000017
20
25
10
67.575000000000017
20
20
10
82.5
20
20
10
82.5
20
-289.60000000000002
10
67.575000000000017
20
-289.60000000000002
10
67.575000000000017
20
-294.60000000000002
10
47.424999999999997
20
-294.60000000000002
10
47.424999999999997
20
-289.60000000000002
10
32.5
20
-289.60000000000002
10
32.5
20
-269.52500000000003
10
27.5
20
-269.52500000000003
10
27.5
20
-174.95000000000005
10
32.5
20
-174.95000000000005
10
32.5
20
-94.800000000000011
0
ENDSEC
0
SECTION
2
OBJECTS
0
DICTIONARY
5
C
100
AcDbDictionary
3
ACAD_GROUP
350
D
3
ACAD_MLINESTYLE
350
17
0
DICTIONARY
5
D
100
AcDbDictionary
0
DICTIONARY
5
1A
330
C
100
AcDbDictionary
0
DICTIONARY
5
17
100
AcDbDictionary
0
ENDSEC
0
EOF
