0
SECTION
2
HEADER
9
$INSUNITS
70
4
9
$ACADVER
1
AC1014
9
$HANDSEED
5
FFFF
0
ENDSEC
0
SECTION
2
TABLES
0
TABLE
2
VPORT
5
8
100
AcDbSymbolTable
0
ENDTAB
0
TABLE
2
LTYPE
5
5
100
AcDbSymbolTable
0
LTYPE
5
14
100
AcDbSymbolTableRecord
100
AcDbLinetypeTableRecord
2
BYBLOCK
70
0
0
LTYPE
5
15
100
AcDbSymbolTableRecord
100
AcDbLinetypeTableRecord
2
BYLAYER
70
0
0
ENDTAB
0
TABLE
2
LAYER
5
2
100
AcDbSymbolTable
70
2
0
LAYER
5
50
100
AcDbSymbolTableRecord
100
AcDbLayerTableRecord
2
0
70
0
6
CONTINUOUS
0
ENDTAB
0
TABLE
2
STYLE
5
3
100
AcDbSymbolTable
70
1
0
STYLE
5
11
100
AcDbSymbolTableRecord
100
AcDbTextStyleTableRecord
2
STANDARD
70
0
0
ENDTAB
0
TABLE
2
VIEW
5
6
100
AcDbSymbolTable
70
0
0
ENDTAB
0
TABLE
2
UCS
5
7
100
AcDbSymbolTable
70
0
0
ENDTAB
0
TABLE
2
APPID
5
9
100
AcDbSymbolTable
70
2
0
APPID
5
12
100
AcDbSymbolTableRecord
100
AcDbRegAppTableRecord
2
ACAD
70
0
0
ENDTAB
0
TABLE
2
DIMSTYLE
5
A
100
AcDbSymbolTable
70
1
0
ENDTAB
0
TABLE
2
BLOCK_RECORD
5
1
100
AcDbSymbolTable
70
1
0
BLOCK_RECORD
5
1F
100
AcDbSymbolTableRecord
100
AcDbBlockTableRecord
2
*MODEL_SPACE
0
BLOCK_RECORD
5
1B
100
AcDbSymbolTableRecord
100
AcDbBlockTableRecord
2
*PAPER_SPACE
0
ENDTAB
0
ENDSEC
0
SECTION
2
BLOCKS
0
BLOCK
5
20
100
AcDbEntity
100
AcDbBlockBegin
2
*MODEL_SPACE
0
ENDBLK
5
21
100
AcDbEntity
100
AcDbBlockEnd
0
BLOCK
5
1C
100
AcDbEntity
100
AcDbBlockBegin
2
*PAPER_SPACE
0
ENDBLK
5
1D
100
AcDbEntity
100
AcDbBlockEnd
0
ENDSEC
0
SECTION
2
ENTITIES
0
CIRCLE
5
100
100
AcDbEntity
8
0
100
AcDbCircle
10
0
20
0
30
0
40
189.99999999999997
210
0
220
-0
230
1
0
CIRCLE
5
101
100
AcDbEntity
8
0
100
AcDbCircle
10
-84.560889132455358
20
-146.46375631061159
30
0
40
3.0000000000000071
210
0
220
0
230
1
0
CIRCLE
5
102
100
AcDbEntity
8
0
100
AcDbCircle
10
84.560889132455401
20
146.46375631061156
30
0
40
3.0000000000000071
210
0
220
0
230
1
0
CIRCLE
5
103
100
AcDbEntity
8
0
100
AcDbCircle
10
-84.56088913245523
20
146.46375631061164
30
0
40
3.0000000000000071
210
0
220
0
230
1
0
CIRCLE
5
104
100
AcDbEntity
8
0
100
AcDbCircle
10
-169.12177826491069
20
0
30
0
40
3.0000000000000071
210
0
220
0
230
1
0
CIRCLE
5
105
100
AcDbEntity
8
0
100
AcDbCircle
10
84.560889132455287
20
-146.46375631061164
30
0
40
3.0000000000000071
210
0
220
0
230
1
0
CIRCLE
5
106
100
AcDbEntity
8
0
100
AcDbCircle
10
169.12177826491069
20
-2.0711444441823127e-14
30
0
40
3.0000000000000071
210
0
220
0
230
1
0
LWPOLYLINE
5
107
100
AcDbEntity
8
0
100
AcDbPolyline
90
5000
70
1
43
0.0
10
-93.839277172088615
20
59.16364724636076
10
-92.079796592394501
20
58.83027168114981
10
-90.292535893122349
20
58.51078617572783
10
-88.486757469177235
20
58.205194262663504
10
-86.662454255421949
20
57.913488876819599
10
-84.81499858697255
20
57.631045885880781
10
-82.949025193850204
20
57.367124152183528
10
-81.069161740938824
20
57.121723675727843
10
-79.166145833333331
20
56.885582061608638
10
-77.244612201054878
20
56.667965237299597
10
-75.313809108734119
20
56.468866137663525
10
-73.359867691993713
20
56.283657097816466
10
-71.396656815210974
20
56.112338117758433
10
-69.414928213755275
20
55.964171592394493
10
-67.419309552510569
20
55.829895126819586
10
-65.414428496360784
20
55.709508721033707
10
-63.395657380421966
20
55.612274769941962
10
-61.362996204694099
20
55.528930878639223
10
-59.321072634061174
20
55.464108244578014
10
-57.269890201091762
20
55.417806867758443
10
-55.214076570669789
20
55.390026748180375
10
-53.14437641302743
20
55.38076435327531
10
-51.070041525363898
20
55.390026748180368
10
-48.986447775363914
20
55.422438065210962
10
-46.898222827911347
20
55.468739442030596
10
-44.800739018122336
20
55.533562076091762
10
-42.703255208333317
20
55.621537164847055
10
-40.601140201091752
20
55.723402313391368
10
-38.494397528966246
20
55.848416384061181
10
-36.387651324272127
20
55.991951711972547
10
-34.280905119578044
20
56.154011829694085
10
-32.169531249999991
20
56.339217336972538
10
-30.06278504530588
20
56.538316436608625
10
-27.956042373180377
20
56.760567990938817
10
-25.849296168486248
20
57.001337269941949
10
-23.747182927528989
20
57.260631338755289
10
-21.645067920287431
20
57.538443132241575
10
-19.547584110498399
20
57.834776182969421
10
-17.45935916304586
20
58.149630490938833
10
-15.371135981877639
20
58.487633721033717
10
-13.292171663045867
20
58.839530543486248
10
-11.222468855977056
20
59.214579820632913
10
-9.1573954800764454
20
59.603515624999979
10
-7.1015831743677227
20
60.015603884061179
10
-5.0550310557087021
20
60.441582202911363
10
-3.0223698799808552
20
60.886085311571748
10
-0.99896878090995678
20
61.349106144905072
10
1.0151719103256942
20
61.830644702911385
10
3.0154217690229501
20
62.330708050727822
10
5.0017811263601182
20
62.844661458333348
10
6.974249982337164
20
63.37713259061178
10
8.9328283369541452
20
63.928128512700383
10
10.877515307068858
20
64.493014494578034
10
12.80368190308414
20
65.071790536244691
10
14.715958439310395
20
65.669091367721535
10
16.609712835152969
20
66.280275193850173
10
18.484948623180422
20
66.905356144905085
10
20.341661387681988
20
67.548954820632929
10
22.175223463773762
20
68.201815891265866
10
23.994895480076501
20
68.873194686571765
10
25.791416807969433
20
69.553835876782728
10
27.564785681168246
20
70.248367126782739
10
29.319635063409816
20
70.956788436571742
10
31.051333757241608
20
71.679099806149807
10
32.759881762663547
20
72.410673570632923
10
34.445277313391379
20
73.156137394905087
10
36.107520409425135
20
73.910856548945091
10
37.741983385880815
20
74.674845163027456
10
39.353297440211016
20
75.448089106877646
10
40.936827842394536
20
76.23522311051687
10
42.497209322452576
20
77.026991844177246
10
44.029807150363929
20
77.82801590760549
10
45.534624858697264
20
78.638302365938827
10
47.011662447452558
20
79.457851219177243
10
48.465547581513732
20
80.282027737299586
10
49.887021398544334
20
81.110831920305884
10
51.276083898544357
20
81.948898498217261
10
52.64199394385021
20
82.79159980614979
10
53.975496204694153
20
83.63892877896626
10
55.276583615938854
20
84.490885416666657
10
56.549890907605501
20
85.342842054367054
10
57.795418079694123
20
86.204061086972544
10
59.003902737299647
20
87.060652454694107
10
60.184607275327068
20
87.926499152183538
10
61.332896963755317
20
88.787718184789014
10
62.453406532605513
20
89.653564882278431
10
63.53687358697259
20
90.519418644905087
10
64.587932856877686
20
91.380637677510563
10
65.606577277183575
20
92.246484374999994
10
66.597441577911397
20
93.107703407605484
10
67.546635699272187
20
93.968922440210974
10
68.468049701054909
20
94.825513807932538
10
69.357048853238453
20
95.67747044563292
10
70.209005490938836
20
96.529427083333331
10
71.033182009061221
20
97.372128391265861
10
71.815688347816476
20
98.214822634061179
10
72.570414566993747
20
99.048261547088629
10
73.288091206550604
20
99.872438065210986
10
73.973367126782776
20
100.69661458333334
10
74.626221132278459
20
101.50690104166668
10
75.242039688428278
20
102.31255983511608
10
75.825450460116087
20
103.10895623366038
10
76.376439317067494
20
103.8960902372996
10
76.890392724672978
20
104.67396184603373
10
77.371938347816481
20
105.43795046011607
10
77.821069121360793
20
106.1926696141561
10
78.233157380421986
20
106.93350577354431
10
78.612830789883972
20
107.66507953802744
10
78.960096414883949
20
108.38276324272157
10
79.274954255422003
20
109.08654982248942
10
79.557397246360821
20
109.77645340760549
10
79.802797722816493
20
110.45246693293252
10
80.015783349672986
20
111.11458333333333
10
80.200995922088651
20
111.75818200906119
10
80.349158914883958
20
112.38789062500001
10
80.469548853238479
20
112.99908151626587
10
80.552889211972584
20
113.59174761772155
10
80.608456516265875
20
114.17052365938822
10
80.631601905822805
20
114.7261472463608
10
80.622346576054937
20
115.26788077354432
10
80.580669331550624
20
115.78646184603373
10
80.51121903260551
20
116.2865251938502
10
80.413981548945145
20
116.76343608697255
10
80.284336280822771
20
117.22182925542197
10
80.126910893122385
20
117.66169763406118
10
79.937070655822794
20
118.0784135580063
10
79.7240850289663
20
118.47198409239452
10
79.4786845525106
20
118.84240217208863
10
79.205496891339664
20
119.18966779708862
10
78.909163840611797
20
119.51378803253175
10
78.580423005421991
20
119.81474874814351
10
78.228522650400819
20
120.09256407419841
10
77.848849240938861
20
120.34258515040081
10
77.446023376782748
20
120.56947496732077
10
77.020045057932549
20
120.77319113413493
10
76.566279554367085
20
120.9491413116455
10
76.089368661244748
20
121.1019460995992
10
75.589305313428255
20
121.22232190767923
10
75.066096576054917
20
121.32418705622356
10
74.519728318850213
20
121.39365148544312
10
73.95484233697259
20
121.4353216648102
10
73.366803900400839
20
121.45383232434591
10
72.760247739156114
20
121.44457699457804
10
72.130539123217318
20
121.40290681521097
10
71.486940447489445
20
121.33807711601257
10
70.820189317067474
20
121.24548142751058
10
70.134920461972584
20
121.12045675913492
10
69.43576154708866
20
120.96766610145571
10
68.718077842394536
20
120.78709532419839
10
67.98187641302745
20
120.57873029708861
10
67.231777858734162
20
120.34258515040079
10
66.467796309789051
20
120.07403928438822
10
65.68992470105492
20
119.77769916852316
10
64.89815596739453
20
119.45359306335449
10
64.092497173945148
20
119.10169270833335
10
63.277583050727877
20
118.71739163398743
10
62.448778867721586
20
118.30529630978903
10
61.610705224672976
20
117.86080026626587
10
60.758748586972573
20
117.38851703802746
10
59.902164284388242
20
116.88845369021097
10
59.031682856877687
20
116.36061022281646
10
58.156573764483156
20
115.80035190582277
10
57.276833474636113
20
115.21232053438823
10
56.387834322452576
20
114.59650197823842
10
55.489572775363946
20
113.94826857248943
10
54.591311228275345
20
113.27226211229961
10
53.683790818850227
20
112.56846846739451
10
52.77627040942513
20
111.83689470291137
10
51.864118802547495
20
111.0775408188502
10
50.947339530785918
20
110.29040681521097
10
50.0305567264557
20
109.47085796197257
10
49.113777454694123
20
108.62816371917725
10
48.196994650363933
20
107.75768229166665
10
47.280211846033751
20
106.8547930796941
10
46.363432574272174
20
105.92875141302744
10
45.446649769941999
20
104.97492962678272
10
44.53450169563294
20
103.99795538584391
10
43.626977753639252
20
102.99320102532704
10
42.719457344214142
20
101.96065948009492
10
41.816568132241585
20
100.90034488042195
10
40.922937782605509
20
99.821505490938819
10
40.029307432969439
20
98.710258316993702
10
39.144935945669836
20
97.580486353238427
10
38.269826853275333
20
96.422934269905085
10
37.399348958333341
20
95.246857396761584
10
36.53812992572788
20
94.043007469177255
10
35.686173288027454
20
92.815998021761587
10
34.843475512663545
20
91.570470849672958
10
34.010036599636102
20
90.297163558006289
10
33.185860081513724
20
89.009966206550587
10
32.375573623180422
20
87.694988735516858
10
31.574546027183548
20
86.361486474672944
10
30.787412023544331
20
85.009466489156083
10
30.01416807969413
20
83.63892877896626
10
29.25481242934865
20
82.245231548945114
10
28.509348605076504
20
80.837651324272159
10
27.777776606877651
20
79.411546309789017
10
27.060092902183541
20
77.962288840611762
10
26.356302789847085
20
76.503776041666669
10
25.671030402183561
20
75.026738452911374
10
25.004281038045892
20
73.531183139483133
10
24.351421733697265
20
72.021737766265872
10
23.721713117758444
20
70.503022933006264
10
23.105896327892957
20
68.965797440210991
10
22.50859902898473
20
67.414674822489417
10
21.929822987318058
20
65.854296874999989
10
21.369568202892964
20
64.280028867721569
10
20.832464106877669
20
62.696491400400802
10
20.309250070651377
20
61.099070938428227
10
19.813817920287459
20
59.492388081550601
10
19.332275829712586
20
57.88107755978902
10
18.87851562500002
20
56.255873445669799
10
18.443276677529028
20
54.626041666666659
10
18.026557221015317
20
52.986947492758432
10
17.637619650363952
20
51.343225653966243
10
17.267203336954132
20
49.690237887700405
10
16.919937711954137
20
48.037253654003116
10
16.595822775363924
20
46.375010557969397
10
16.294858527183557
20
44.71276392936705
10
16.017046733697264
20
43.045889635880776
10
15.767015059789047
20
41.374384144941949
10
15.53550464312236
20
39.707509851455669
10
15.327146681149804
20
38.036004360516841
10
15.146567072470987
20
36.364498869578014
10
14.989139918486281
20
34.692993378639223
10
14.854865219195716
20
33.021487887700374
10
14.748369756340997
20
31.354613594214108
10
14.665025865038261
20
29.692370498180367
10
14.604833545287468
20
28.030125635862341
10
14.56779191394649
20
26.372510204712526
10
14.558531285325699
20
24.71952597101528
10
14.572422228256885
20
23.071171168486259
10
14.614094173908246
20
21.432078760862328
10
14.678916807969436
20
19.797614018122346
10
14.766891013582555
20
18.172411670287424
10
14.882645338773743
20
16.556468184788994
10
15.02155123551689
20
14.945155896743136
10
15.183609586954155
20
13.347734551628402
10
15.373448057969441
20
11.759572951992332
10
15.586437217394533
20
10.185302295287419
10
15.822578831513741
20
8.6202913840611739
10
16.086500565211011
20
7.0691718573371354
10
16.373572987318063
20
5.5273125176628257
10
16.683796097834922
20
4.0039739936589971
10
17.017171663045907
20
2.4945259710152672
10
17.373697916666682
20
0.99896878090996843
10
17.753374858697285
20
-0.48269790783525196
10
18.160833686590209
20
-1.9458436705172109
10
18.586812005440429
20
-3.3904688383142432
10
19.03594277898473
20
-4.8212032839656178
10
19.512853672107067
20
-6.2287865996360869
10
20.008285822470995
20
-7.6224794139465022
10
20.522239230076487
20
-8.9930206567049051
10
21.063974523544328
20
-10.34504152536395
10
21.624229307969415
20
-11.673911705613163
10
22.207634780804355
20
-12.984260628620817
10
22.8095632771651
20
-14.271457980076505
10
23.430011264483163
20
-15.540135840574909
10
24.073609940210986
20
-16.781031815210998
10
24.735729873180428
20
-17.998775335152967
10
25.421000494559621
20
-19.197999364137672
10
26.120161175727862
20
-20.369443273544327
10
26.837843114137673
20
-21.513103530804326
10
27.578677507241597
20
-22.633614865938828
10
28.333400193850213
20
-23.730973746379249
10
29.10664590398472
20
-24.800552507241601
10
29.893781673908258
20
-25.842349382241586
10
30.699436934789048
20
-26.860995568831775
10
31.518985788027457
20
-27.847228672107068
10
32.357052365938841
20
-28.810312853256868
10
33.209009003639231
20
-29.740983951091788
10
34.074859233697282
20
-30.643876695632958
10
34.954599523544339
20
-31.518985788027468
10
35.848229873180422
20
-32.366311228275315
10
36.751119085152979
20
-33.181228884061213
10
37.672529554367074
20
-33.968362887700408
10
38.598571221033751
20
-34.727720304330198
10
39.543134144941995
20
-35.450031673908242
10
40.492328266302763
20
-36.1491941213608
10
41.455412447452566
20
-36.811314054330218
10
42.423124293486289
20
-37.445650335152976
10
43.40472973187768
20
-38.052210028966286
10
44.390962835152983
20
-38.621723675727871
10
45.386458333333351
20
-39.163457202911403
10
46.391212693850214
20
-39.668151748180406
10
47.400598251819623
20
-40.145062641302765
10
48.414615007241586
20
-40.589562217394537
10
49.43789062500003
20
-41.001650476455715
10
50.461166242758459
20
-41.385958615938854
10
51.49370425542196
20
-41.73322424093886
10
52.526238735516905
20
-42.048078548908265
10
53.558776748180428
20
-42.330521539847069
10
54.600573623180424
20
-42.585180878639228
10
55.63773930072788
20
-42.80280123551691
10
56.679536175727883
20
-42.99264147281648
10
57.72133305072785
20
-43.145439195632953
10
58.763129925727853
20
-43.270453266302759
10
59.800299135843922
20
-43.358428355058066
10
60.842096010843953
20
-43.418619791666693
10
61.879258155822789
20
-43.44639991124474
10
62.911799701054903
20
-43.441772246360784
10
63.94433418114982
20
-43.404729731877651
10
64.967606266339658
20
-43.335275900363932
10
65.990885416666714
20
-43.238041949272194
10
67.009529836972604
20
-43.108396681149806
10
68.018918927510597
20
-42.946340095996867
10
69.023673288027481
20
-42.756499858697296
10
70.02379998366041
20
-42.534248304367097
10
71.014664284388246
20
-42.284220163027449
10
71.996266190211003
20
-42.00177717208863
10
72.968612766265892
20
-41.691550529003187
10
73.936324612299643
20
-41.348916101455721
10
74.890146398544346
20
-40.978501554330208
10
75.834705789883955
20
-40.580303355058057
10
76.765382186571784
20
-40.154321503639252
10
77.686789123217281
20
-39.700563065211021
10
78.598940730094938
20
-39.219020974636116
10
79.492574612299649
20
-38.709698764483171
10
80.376946099599252
20
-38.177224099636099
10
81.247420461972567
20
-37.612338117758448
10
82.104011829694144
20
-37.024303213755331
10
82.946706072489462
20
-36.413115855058052
10
83.770882590611805
20
-35.774144844214128
10
84.581169048945128
20
-35.112024911244745
10
85.372937782605504
20
-34.426756056149827
10
86.150809391339664
20
-33.718334746360796
10
86.910163275400834
20
-32.98676098187768
10
87.655627099672984
20
-32.232034762700437
10
88.37794553438826
20
-31.454163153966306
10
89.081732114156097
20
-30.65776675542196
10
89.771635699272153
20
-29.838217902183551
10
90.438386829694139
20
-29.000151324272174
10
91.086613170305952
20
-28.143561722834921
10
91.711694121360807
20
-27.268452630440407
10
92.322877947489474
20
-26.374822280804352
10
92.906288719177269
20
-25.458041242758462
10
93.471174701054935
20
-24.531999576091799
10
94.017535893122371
20
-23.582807221015308
10
94.536116965611811
20
-22.624354237318073
10
95.036180313428304
20
-21.64737999637925
10
95.513091206550655
20
-20.656515695651404
10
95.971484375000017
20
-19.651759568850228
10
96.402090358734185
20
-18.633115148544334
10
96.809550952911394
20
-17.600578902165115
10
97.193859092394561
20
-16.558782027165115
10
97.555014777183544
20
-15.50772452354434
10
97.893018007278442
20
-14.442776076992365
10
98.203248182932583
20
-13.368567884961767
10
98.494946503639255
20
-12.285099064310421
10
98.758871769905156
20
-11.19699992934866
10
98.995009851455762
20
-10.099641048908266
10
99.212630208333366
20
-8.9976509710153003
10
99.402470445632943
20
-7.8864011476437446
10
99.564523498217284
20
-6.7705210099617972
10
99.703431161244708
20
-5.6500105579694262
10
99.819186369578063
20
-4.5248697916666831
10
99.907161458333377
20
-3.3997292461494801
10
99.971984092394536
20
-2.2699583863218855
10
100.00902660687765
20
-1.1401875264942909
10
100.0229166666667
20
-0.010416666666696189
10
100.0090266068777
20
1.1193541931608983
10
99.971984092394536
20
2.2491250529885285
10
99.907161458333334
20
3.3788959128161249
10
99.819186369578034
20
4.5040364583333146
10
99.703431161244708
20
5.6291772246360452
10
99.564523498217298
20
6.7496876766284197
10
99.402470445633
20
7.8655678143103707
10
99.212630208333394
20
8.9768176376819433
10
98.995009851455734
20
10.078807715574879
10
98.758871769905141
20
11.17616659601528
10
98.494946503639227
20
12.264265730977055
10
98.203248182932555
20
13.347734551628408
10
97.893018007278485
20
14.421942743658988
10
97.555014777183544
20
15.486891190210983
10
97.193859092394561
20
16.537948693831733
10
96.809550952911394
20
17.57974556883174
10
96.402090358734199
20
18.612281815210959
10
95.971484375000074
20
19.630926235516849
10
95.513091206550641
20
20.635682362318022
10
95.036180313428261
20
21.626546663045879
10
94.536116965611811
20
22.603520903984688
10
94.017535893122371
20
23.561973887681937
10
93.471174701054935
20
24.511166242758414
10
92.906288719177269
20
25.437207909425098
10
92.322877947489488
20
26.353988947470981
10
91.711694121360807
20
27.247619297107061
10
91.086613170305895
20
28.122728389501574
10
90.438386829694139
20
28.97931799093881
10
89.771635699272196
20
29.817384568850187
10
89.081732114156125
20
30.63693342208861
10
88.37794553438826
20
31.43332982063292
10
87.655627099672984
20
32.211201429367065
10
86.910163275400819
20
32.96592764854428
10
86.150809391339635
20
33.697501413027425
10
85.372937782605504
20
34.405922722816456
10
84.581169048945156
20
35.091191577911381
10
83.770882590611819
20
35.753311510880778
10
82.946706072489448
20
36.392282521724695
10
82.104011829694144
20
37.00346988042196
10
81.247420461972581
20
37.591504784425084
10
80.376946099599223
20
38.156390766302728
10
79.492574612299606
20
38.688865431149786
10
78.598940730094938
20
39.198187641302724
10
77.686789123217295
20
39.67972973187765
10
76.765382186571799
20
40.133488170305888
10
75.834705789883969
20
40.559470021724678
10
74.890146398544331
20
40.957668220996844
10
73.936324612299629
20
41.328082768122343
10
72.968612766265892
20
41.670717195669802
10
71.996266190211017
20
41.980943838755273
10
71.01466428438826
20
42.263386829694099
10
70.023799983660396
20
42.513414971033725
10
69.023673288027481
20
42.735666525363918
10
68.018918927510612
20
42.92550676266351
10
67.009529836972604
20
43.087563347816456
10
65.990885416666686
20
43.217208615938816
10
64.967606266339644
20
43.314442567030582
10
63.944334181149841
20
43.38389639854428
10
62.911799701054925
20
43.42093891302742
10
61.879258155822761
20
43.425566577911354
10
60.842096010843925
20
43.397786458333329
10
59.800299135843922
20
43.337595021724702
10
58.763129925727888
20
43.249619932969416
10
57.721333050727885
20
43.124605862299596
10
56.679536175727883
20
42.971808139483123
10
55.637739300727887
20
42.781967902183524
10
54.600573623180431
20
42.564347545305864
10
53.558776748180399
20
42.309688206513705
10
52.526238735516898
20
42.027245215574887
10
51.493704255421989
20
41.712390907605467
10
50.461166242758459
20
41.365125282605462
10
49.437890625000016
20
40.98081714312233
10
48.414615007241579
20
40.56872888406118
10
47.40059825181963
20
40.124229307969415
10
46.391212693850235
20
39.647318414847028
10
45.386458333333366
20
39.142623869578038
10
44.390962835152948
20
38.600890342394493
10
43.404729731877659
20
38.031376695632908
10
42.423124293486296
20
37.424817001819612
10
41.455412447452574
20
36.790480720996847
10
40.492328266302763
20
36.128360788027436
10
39.543134144941973
20
35.429198340574899
10
38.598571221033772
20
34.706886970996834
10
37.672529554367102
20
33.947529554367065
10
36.751119085152972
20
33.160395550727849
10
35.848229873180415
20
32.345477894941943
10
34.954599523544324
20
31.498152454694118
10
34.074859233697275
20
30.623043362299587
10
33.209009003639231
20
29.720150617758421
10
32.357052365938848
20
28.789479519923521
10
31.518985788027472
20
27.826395338773729
10
30.699436934789041
20
26.840162235498411
10
29.893781673908251
20
25.821516048908212
10
29.106645903984738
20
24.779719173908219
10
28.333400193850228
20
23.710140413045874
10
27.57867750724159
20
22.612781532605485
10
26.837843114137666
20
21.492270197470951
10
26.12016117572788
20
20.348609940210949
10
25.42100049455961
20
19.177166030804319
10
24.735729873180418
20
17.977942001819603
10
24.073609940210986
20
16.760198481877627
10
23.430011264483174
20
15.519302507241548
10
22.809563277165097
20
14.250624646743113
10
22.207634780804334
20
12.963427295287426
10
21.624229307969426
20
11.65307837227979
10
21.063974523544324
20
10.324208192030571
10
20.52223923007648
20
8.9721873233715623
10
20.008285822471006
20
7.6016460806131159
10
19.512853672107095
20
6.2079532663027219
10
19.035942778984719
20
4.800369950632243
10
18.586812005440422
20
3.3696355049808724
10
18.160833686590209
20
1.9250103371838636
10
17.753374858697281
20
0.46186457450188734
10
17.373697916666686
20
-1.0198021142433373
10
17.017171663045907
20
-2.5153593043486264
10
16.683796097834936
20
-4.0248073269923825
10
16.373572987318056
20
-5.548145850996189
10
16.086500565211001
20
-7.0900051906705119
10
15.822578831513752
20
-8.6411247173945416
10
15.586437217394547
20
-10.206135628620807
10
15.373448057969433
20
-11.7804062853257
10
15.183609586954132
20
-13.368567884961786
10
15.021551235516872
20
-14.965989230076499
10
14.882645338773752
20
-16.577301518122361
10
14.766891013582558
20
-18.19324500362081
10
14.678916807969433
20
-19.81844735145572
10
14.614094173908247
20
-21.452912094195689
10
14.572422228256883
20
-23.092004501819645
10
14.558531285325703
20
-24.740359304348637
10
14.567791913946495
20
-26.393343538045912
10
14.604833545287468
20
-28.050958969195719
10
14.665025865038269
20
-29.713203831513745
10
14.748369756340985
20
-31.375446927547475
10
14.854865219195688
20
-33.04232122103376
10
14.989139918486281
20
-34.713826711972587
10
15.146567072470988
20
-36.385332202911414
10
15.327146681149825
20
-38.056837693850241
10
15.535504643122364
20
-39.728343184789054
10
15.767015059789045
20
-41.395217478275335
10
16.017046733697256
20
-43.066722969214162
10
16.294858527183553
20
-44.733597262700428
10
16.595822775363938
20
-46.395843891302768
10
16.919937711954148
20
-48.058086987336502
10
17.26720333695414
20
-49.711071221033748
10
17.637619650363931
20
-51.364058987299607
10
18.02655722101531
20
-53.007780826091803
10
18.443276677529049
20
-54.646875000000009
10
18.878515625000006
20
-56.276706779003163
10
19.332275829712554
20
-57.901910893122391
10
19.813817920287473
20
-59.513221414883958
10
20.309250070651398
20
-61.119904271761598
10
20.832464106877666
20
-62.717324733734145
10
21.36956820289296
20
-64.300862201054912
10
21.929822987318058
20
-65.87513020833336
10
22.508599028984719
20
-67.435508155822788
10
23.105896327892946
20
-68.986630773544334
10
23.721713117758441
20
-70.523856266339635
10
24.351421733697283
20
-72.042571099599229
10
25.00428103804591
20
-73.55201647281649
10
25.67103040218354
20
-75.047571786244731
10
26.356302789847064
20
-76.52460937500004
10
27.06009290218357
20
-77.983122173945134
10
27.777776606877673
20
-79.432379643122388
10
28.509348605076493
20
-80.858484657605516
10
29.254812429348647
20
-82.266064882278471
10
30.014168079694127
20
-83.659762112299646
10
30.787412023544345
20
-85.030299822489468
10
31.574546027183537
20
-86.382319808006287
10
32.375573623180415
20
-87.715822068850272
10
33.185860081513745
20
-89.030799539883958
10
34.010036599636081
20
-90.317996891339632
10
34.843475512663559
20
-91.591304183006329
10
35.686173288027454
20
-92.836831355094944
10
36.538129925727873
20
-94.063840802510597
10
37.399348958333356
20
-95.267690730094969
10
38.269826853275333
20
-96.443767603238484
10
39.144935945669829
20
-97.60131968657177
10
40.029307432969432
20
-98.731091650327045
10
40.922937782605509
20
-99.842338824272204
10
41.816568132241592
20
-100.9211782137553
10
42.719457344214135
20
-101.98149281342825
10
43.62697775363926
20
-103.01403435866041
10
44.534501695632954
20
-104.01878871917725
10
45.446649769941985
20
-104.99576296011612
10
46.363432574272167
20
-105.94958474636086
10
47.280211846033744
20
-106.87562641302746
10
48.196994650363933
20
-107.77851562500001
10
49.113777454694151
20
-108.64899705251061
10
50.030556726455728
20
-109.49169129530596
10
50.947339530785911
20
-110.31124014854433
10
51.86411880254748
20
-111.0983741521836
10
52.776270409425138
20
-111.85772803624472
10
53.683790818850227
20
-112.58930180072788
10
54.59131122827533
20
-113.29309544563299
10
55.48957277536396
20
-113.96910190582275
10
56.387834322452576
20
-114.61733531157178
10
57.276833474636121
20
-115.23315386772161
10
58.156573764483149
20
-115.82118523915616
10
59.031682856877659
20
-116.38144355614986
10
59.902164284388249
20
-116.90928702354432
10
60.758748586972587
20
-117.40935037136077
10
61.610705224672984
20
-117.88163359959921
10
62.448778867721586
20
-118.32612964312239
10
63.277583050727856
20
-118.7382249673208
10
64.092497173945148
20
-119.12252604166675
10
64.898155967394544
20
-119.47442639668786
10
65.68992470105492
20
-119.79853250185654
10
66.467796309789037
20
-120.09487261772158
10
67.231777858734148
20
-120.36341848373418
10
67.981876413027479
20
-120.59956363042201
10
68.718077842394536
20
-120.80792865753179
10
69.435761547088632
20
-120.98849943478903
10
70.134920461972584
20
-121.1412900924683
10
70.820189317067502
20
-121.26631476084393
10
71.486940447489445
20
-121.35891044934596
10
72.130539123217289
20
-121.42374014854431
10
72.760247739156114
20
-121.46541032791137
10
73.366803900400811
20
-121.4746656576793
10
73.95484233697259
20
-121.45615499814356
10
74.519728318850213
20
-121.41448481877647
10
75.066096576054932
20
-121.34502038955691
10
75.58930531342827
20
-121.24315524101257
10
76.08936866124472
20
-121.12277943293256
10
76.566279554367071
20
-120.96997464497888
10
77.020045057932563
20
-120.79402446746829
10
77.446023376782748
20
-120.5903083006541
10
77.848849240938861
20
-120.36341848373414
10
78.228522650400819
20
-120.11339740753178
10
78.580423005422006
20
-119.8355820814769
10
78.909163840611797
20
-119.53462136586515
10
79.205496891339649
20
-119.21050113042197
10
79.478684552510614
20
-118.863235505422
10
79.724085028966286
20
-118.49281742572791
10
79.937070655822779
20
-118.09924689133965
10
80.1269108931224
20
-117.68253096739457
10
80.284336280822771
20
-117.24266258875534
10
80.413981548945117
20
-116.78426942030592
10
80.511219032605524
20
-116.30735852718354
10
80.580669331550638
20
-115.80729517936709
10
80.622346576054895
20
-115.28871410687769
10
80.631601905822791
20
-114.74698057969412
10
80.608456516265917
20
-114.19135699272161
10
80.552889211972584
20
-113.61258095105492
10
80.46954885323845
20
-113.01991484959926
10
80.349158914883958
20
-112.40872395833338
10
80.200995922088651
20
-111.77901534239459
10
80.015783349673001
20
-111.13541666666674
10
79.802797722816507
20
-110.47330026626594
10
79.557397246360793
20
-109.7972867409389
10
79.274954255422003
20
-109.10738315582279
10
78.960096414883964
20
-108.40359657605491
10
78.612830789883944
20
-107.68591287136077
10
78.233157380421972
20
-106.95433910687768
10
77.821069121360807
20
-106.21350294748947
10
77.371938347816496
20
-105.45878379344941
10
76.890392724672964
20
-104.69479517936708
10
76.376439317067494
20
-103.91692357063293
10
75.825450460116087
20
-103.12978956699375
10
75.242039688428278
20
-102.33339316844946
10
74.626221132278459
20
-101.52773437500004
10
73.973367126782762
20
-100.71744791666671
10
73.288091206550604
20
-99.893271398544357
10
72.570414566993747
20
-99.069094880421972
10
71.81568834781649
20
-98.235655967394578
10
71.033182009061193
20
-97.392961724599232
10
70.209005490938836
20
-96.550260416666731
10
69.357048853238453
20
-95.698303778966292
10
68.468049701054909
20
-94.846347141265866
10
67.546635699272201
20
-93.989755773544331
10
66.597441577911411
20
-93.128536740938856
10
65.606577277183575
20
-92.267317708333337
10
64.587932856877671
20
-91.401471010843935
10
63.536873586972582
20
-90.540251978238473
10
62.453406532605513
20
-89.674398215611802
10
61.332896963755331
20
-88.8085515181224
10
60.184607275327053
20
-87.947332485516924
10
59.003902737299612
20
-87.081485788027479
10
57.795418079694144
20
-86.22489442030593
10
56.549890907605523
20
-85.36367538770044
10
55.276583615938833
20
-84.511718750000028
10
53.975496204694153
20
-83.659762112299632
10
52.641993943850224
20
-82.812433139483161
10
51.276083898544314
20
-81.969731831550646
10
49.887021398544327
20
-81.131665253639255
10
48.465547581513739
20
-80.302861070632972
10
47.011662447452558
20
-79.478684552510614
10
45.534624858697292
20
-78.65913569927217
10
44.029807150363951
20
-77.848849240938847
10
42.497209322452591
20
-77.047825177510589
10
40.936827842394536
20
-76.256056443850241
10
39.353297440211009
20
-75.468922440211017
10
37.7419833858808
20
-74.695678496360799
10
36.107520409425128
20
-73.931689882278448
10
34.445277313391408
20
-73.176970728238445
10
32.759881762663532
20
-72.431506903966309
10
31.051333757241576
20
-71.69993313948315
10
29.319635063409827
20
-70.977621769905127
10
27.564785681168267
20
-70.269200460116082
10
25.791416807969448
20
-69.574669210116113
10
23.994895480076501
20
-68.894028019905107
10
22.175223463773762
20
-68.222649224599223
10
20.341661387681988
20
-67.5697881539663
10
18.484948623180394
20
-66.926189478238456
10
16.609712835152965
20
-66.301108527183573
10
14.715958439310427
20
-65.68992470105492
10
12.803681903084151
20
-65.092623869578077
10
10.877515307068833
20
-64.513847827911391
10
8.9328283369541381
20
-63.948961846033761
10
6.9742499823371666
20
-63.397965923945137
10
5.0017811263601075
20
-62.865494791666691
10
3.0154217690229612
20
-62.351541384061207
10
1.015171910325714
20
-61.85147803624475
10
-0.99896878090995034
20
-61.369939478238457
10
-3.0223698799808583
20
-60.906918644905105
10
-5.0550310557086986
20
-60.462415536244748
10
-7.1015831743677404
20
-60.036437217394543
10
-9.1573954800764543
20
-59.624348958333364
10
-11.222468855977052
20
-59.235413153966277
10
-13.29217166304586
20
-58.860363876819633
10
-15.371135981877615
20
-58.508467054367088
10
-17.459359163045868
20
-58.170463824272183
10
-19.547584110498402
20
-57.855609516302763
10
-21.645067920287424
20
-57.559276465574939
10
-23.747182927529003
20
-57.281464672088667
10
-25.849296168486266
20
-57.022170603275306
10
-27.956042373180381
20
-56.781401324272196
10
-30.062785045305883
20
-56.559149769941996
10
-32.16953124999997
20
-56.360050670305895
10
-34.280905119578023
20
-56.174845163027463
10
-36.387651324272142
20
-56.012785045305904
10
-38.494397528966253
20
-55.869249717394531
10
-40.601140201091752
20
-55.744235646724711
10
-42.70325520833331
20
-55.642370498180405
10
-44.800739018122357
20
-55.554395409425126
10
-46.898222827911354
20
-55.489572775363953
10
-48.986447775363906
20
-55.44327139854434
10
-51.070041525363898
20
-55.410860081513761
10
-53.144376413027445
20
-55.401597686608653
10
-55.214076570669803
20
-55.410860081513746
10
-57.269890201091755
20
-55.438640201091793
10
-59.321072634061181
20
-55.484941577911393
10
-61.36299620469412
20
-55.549764211972587
10
-63.395657380421952
20
-55.633108103275326
10
-65.41442849636077
20
-55.730342054367092
10
-67.419309552510583
20
-55.850728460152951
10
-69.414928213755303
20
-55.985004925727857
10
-71.396656815210974
20
-56.133171451091791
10
-73.359867691993713
20
-56.304490431149816
10
-75.313809108734134
20
-56.489699470996875
10
-77.244612201054878
20
-56.688798570632947
10
-79.166145833333331
20
-56.906415394942009
10
-81.06916174093881
20
-57.142557009061186
10
-82.94902519385019
20
-57.387957485516878
10
-84.81499858697255
20
-57.651879219214159
10
-86.662454255421949
20
-57.934322210152985
10
-88.486757469177235
20
-58.226027595996882
10
-90.292535893122349
20
-58.531619509061208
10
-92.07979659239453
20
-58.85110501448316
10
-93.839277172088629
20
-59.184480579694146
10
-95.580232961972555
20
-59.531746204694144
10
-97.298043362299595
20
-59.888274224599236
10
-98.992701307932549
20
-60.258685239156122
10
-100.66419973373414
20
-60.642993378639233
10
-102.30792510509491
20
-61.036563913027479
10
-103.92849802176158
20
-61.439389777183564
10
-105.5212908188502
20
-61.851478036244728
10
-107.0863034963608
20
-62.272828690210993
10
-108.62816371917725
20
-62.708069403966284
10
-110.13760909239451
20
-63.147937782605524
10
-111.62390907605487
20
-63.597068556149836
10
-113.08242187499999
20
-64.05082699457806
10
-114.50852688948315
20
-64.518482557932558
10
-115.90685178438824
20
-64.986131056149816
10
-117.27738949457803
20
-65.463041949272196
10
-118.61552648544311
20
-65.944580507278488
10
-119.92123449643452
20
-66.430753795305904
10
-121.19917651812236
20
-66.921554748217304
10
-122.44470369021099
20
-67.416990431149827
10
-123.65781601270041
20
-67.917053778966292
10
-124.83852761586508
20
-68.417117126782742
10
-125.98681023915609
20
-68.921808139483176
10
-127.10269214312235
20
-69.421871487299626
10
-128.18615919748942
20
-69.931190164883972
10
-129.23722553253174
20
-70.435888242721589
10
-130.25122815767924
20
-70.94057925542198
10
-131.23284419377646
20
-71.445270268122371
10
-132.18203124999999
20
-71.949961280822791
10
-133.09418285687764
20
-72.450024628639255
10
-133.9739196141561
20
-72.950087976455706
10
-134.82125565210978
20
-73.445523659388257
10
-135.63154211044312
20
-73.936324612299643
10
-136.40477898915609
20
-74.422497900327073
10
-137.14561514854432
20
-74.904036458333351
10
-137.84940172831219
20
-75.380947351455717
10
-138.51615285873413
20
-75.853230579694156
10
-139.1504891395569
20
-76.316251413027473
10
-139.74778997103374
20
-76.770009851455697
10
-140.31267595291138
20
-77.219140625000023
10
-140.84052648544312
20
-77.659009003639255
10
-141.33132743835449
20
-78.08498732248944
10
-141.78507881164552
20
-78.506337976455711
10
-142.20642946561179
20
-78.918426235516904
10
-142.59074467023214
20
-79.316624434789063
10
-142.93801029523215
20
-79.700932574272173
10
-143.25286107063295
20
-80.075978318850218
10
-143.53067639668782
20
-80.437134003639258
10
-143.7760768731435
20
-80.78439962863925
10
-143.98442776997885
20
-81.122402858734176
10
-144.15574321746826
20
-81.4418883641561
10
-144.29465794563293
20
-81.747483809789045
10
-144.40115782419841
20
-82.034554465611805
10
-144.47060812314353
20
-82.307742126782756
10
-144.50300884246826
20
-82.56703266302749
10
-144.50764357248943
20
-82.803170744578054
10
-144.47522872289022
20
-83.025418766339655
10
-144.40577842394509
20
-83.229149063428281
10
-144.30854800542198
20
-83.414361635843932
10
-144.17426800727844
20
-83.581049418449425
10
-144.01220788955689
20
-83.724584746360819
10
-143.81311232248945
20
-83.849602349599252
10
-143.58623663584393
20
-83.95609516302747
10
-143.32231136957805
20
-84.039435521761604
10
-143.03060598373412
20
-84.099630490938836
10
-142.71112047831218
20
-84.141300670305924
10
-142.35459952354432
20
-84.155190730094944
10
-141.97029844919842
20
-84.150563065211017
10
-141.55820312500001
20
-84.122782945632963
10
-141.11370708147686
20
-84.07185037136081
10
-140.6414167881012
20
-83.993137677510603
10
-140.14136050542197
20
-83.891272528966297
10
-139.61350997289023
20
-83.766254925727878
10
-139.05789345105489
20
-83.618091932932558
10
-138.47448267936707
20
-83.442141755422
10
-137.86792651812237
20
-83.23841145833336
10
-137.23359023729961
20
-83.011528706550607
10
-136.5714738368988
20
-82.756872900327082
10
-135.88619791666667
20
-82.474429909388277
10
-135.17777660687764
20
-82.168834463755331
10
-134.44157517751057
20
-81.830831233660405
10
-133.68684895833331
20
-81.469668483734168
10
-132.90434261957805
20
-81.080732679367088
10
-132.10331149101256
20
-80.659382025400816
10
-131.27913497289023
20
-80.214885981877671
10
-130.43644779523214
20
-79.73797508875532
10
-129.57058696746827
20
-79.237911740938856
10
-128.68622961044312
20
-78.70544060866041
10
-127.78333333333333
20
-78.145182291666714
10
-126.85729166666667
20
-77.557143855094935
10
-125.91735994021099
20
-76.941325298945145
10
-124.96353815396625
20
-76.293098958333374
10
-123.98655684789023
20
-75.617085433006338
10
-123.00033434232076
20
-74.913298853238459
10
-121.99093818664552
20
-74.181725088755329
10
-120.97230083147684
20
-73.417736474672978
10
-119.93975928624471
20
-72.625974806149827
10
-118.89332768122357
20
-71.80179828802747
10
-117.8330130815506
20
-70.954469315211014
10
-116.76343608697258
20
-70.074732557932549
10
-115.6799690326055
20
-69.167208615938847
10
-114.58723958333334
20
-68.227276889483164
10
-113.48062007427215
20
-67.264192708333354
10
-112.36937290032705
20
-66.268700742721563
10
-111.24885626633962
20
-65.245421592394536
10
-110.11909136772158
20
-64.189734657605527
10
-108.9846846739451
20
-63.110895268122363
10
-107.84102265040079
20
-62.004275759061215
10
-106.69273296197255
20
-60.865241400400834
10
-105.53981560866038
20
-59.703061652183564
10
-104.38226352532703
20
-58.513098251819628
10
-103.22007671197255
20
-57.290723534425126
10
-102.0578969637553
20
-56.045196362336512
10
-100.89108248551685
20
-54.771889070669829
10
-99.719640342394499
20
-53.475432856877667
10
-98.552825864156091
20
-52.146561793486313
10
-97.381383721033728
20
-50.799173005421991
10
-96.209941577911366
20
-49.419369367758463
10
-95.043127099672944
20
-48.016416807969442
10
-93.876319686571748
20
-46.590311793486315
10
-92.709505208333326
20
-45.14105785687768
10
-91.54732546011607
20
-43.664020268122385
10
-90.389773376782728
20
-42.163833757241598
10
-89.236848958333326
20
-40.640494791666704
10
-88.08855926990509
20
-39.098634568850208
10
-86.944897246360782
20
-37.528994226455708
10
-85.805862887700385
20
-35.940832626819642
10
-84.671463259061156
20
-34.329522105058039
10
-83.550953690210974
20
-32.695055596033761
10
-82.430444121360793
20
-31.04207136233649
10
-81.323824612299603
20
-29.370567637681976
10
-80.226460433006281
20
-27.680540889501593
10
-79.133730983734139
20
-25.967365219195703
10
-78.054898659388229
20
-24.235666525363946
10
-76.989949329694113
20
-22.49007777174317
10
-75.929627664883924
20
-20.72596952716512
10
-74.883203124999994
20
-18.943338259061207
10
-73.850668644905099
20
-17.146816931168267
10
-72.832024224599195
20
-15.33177611231806
10
-71.822635134061159
20
-13.507473781704935
10
-70.82714316844941
20
-11.664651076992367
10
-69.85016892751058
20
-9.8079374293486392
10
-68.882450016339618
20
-7.9373337219158868
10
-67.933262960116082
20
-6.057468944291287
10
-66.997958898544297
20
-4.1637136653065765
10
-66.081179626782728
20
-2.260697978486645
10
-65.178283349672952
20
-0.34842188383145178
10
-64.289284197489394
20
1.5777448225766229
10
-63.423437500000006
20
3.5085416225095525
10
-62.571480862299595
20
5.4532292549808661
10
-61.738041949272159
20
7.4025469809770259
10
-60.923127826054895
20
9.3564945797125318
10
-60.126731427510578
20
11.319702807068822
10
-59.348852753639193
20
13.287541348735463
10
-58.589498869578037
20
15.260010204712543
10
-57.848666242758441
20
17.232479943831752
10
-57.130986070632943
20
19.214208545287438
10
-56.431823623180392
20
21.19593714674313
10
-55.751182432969408
20
23.182296945651363
10
-55.093693697452522
20
25.164025547107055
10
-54.454722686608633
20
27.150385346015295
10
-53.834276465574902
20
29.136745144923513
10
-53.236979166666643
20
31.118475512663505
10
-52.662834322452525
20
33.100204114119187
10
-52.107207202911354
20
35.081932715574901
10
-51.574736070632909
20
37.059030119578033
10
-51.06541032791138
20
39.031499858697252
10
-50.57460937499998
20
40.994707202911378
10
-50.106957344214102
20
42.95791807969411
10
-49.662457768122351
20
44.911863029003129
10
-49.236479449272153
20
46.861183845996841
10
-48.833650052547426
20
48.801238735516847
10
-48.453973110516841
20
50.732034762700394
10
-48.09281742572783
20
52.653571927547461
10
-47.759441860516851
20
54.565850230058032
10
-47.444587552547439
20
56.468866137663518
10
-47.152885699272161
20
58.357988452911357
10
-46.879701570669809
20
60.233224240938803
10
-46.629673429330168
20
62.099197634061184
10
-46.402790677547465
20
63.946653302510583
10
-46.199063913027423
20
65.784846576054889
10
-46.013854873180378
20
67.604515059789009
10
-45.851798288027446
20
69.410293483734122
10
-45.712890625
20
71.197554183006289
10
-45.592504219214113
20
72.970924822489408
10
-45.490639070669793
20
74.721143007278428
10
-45.411926376819586
20
76.457471132278442
10
-45.356366137663507
20
78.175281532605496
10
-45.314692425727841
20
79.869939478238408
10
-45.300802365938821
20
81.541444969177235
10
-45.300802365938821
20
83.199060400327042
10
-45.323954820632927
20
84.82888864676157
10
-45.365625000000009
20
86.440206233660376
10
-45.425816436608613
20
88.023736635843903
10
-45.504532663027426
20
89.588742248217258
10
-45.601766614119221
20
91.125974806149799
10
-45.717521822452539
20
92.640054909388226
10
-45.851798288027439
20
94.126347827911374
10
-45.999964813391365
20
95.589495356877649
10
-46.171280260880778
20
97.024862766265869
10
-46.356489300727837
20
98.432442990938824
10
-46.555588400363916
20
99.816877826054892
10
-46.773208757241548
20
101.16889781157177
10
-47.004719173908221
20
102.49313767751059
10
-47.25475084781646
20
103.78959035873413
10
-47.518672581513727
20
105.05364232063293
10
-47.796484375000006
20
106.28990709781647
10
-48.08355856339135
20
107.4937570254008
10
-48.389150476455683
20
108.66983389854433
10
-48.70863598187762
20
109.81349592208863
10
-49.037380349636059
20
110.92474309603374
10
-49.380014777183533
20
112.00358248551686
10
-49.731911599636057
20
113.05000702540079
10
-50.097698481877643
20
114.06402378082277
10
-50.472744226455681
20
115.04563275178273
10
-50.85705236593882
20
115.9948198080063
10
-51.250619367758425
20
116.91160614490508
10
-51.658076429367064
20
117.79134290218353
10
-52.070168220996855
20
118.63403714497885
10
-52.486884144941961
20
119.44895833333334
10
-52.917493661244698
20
120.22682994206747
10
-53.348103177547451
20
120.96766610145571
10
-53.787975088755275
20
121.67145268122356
10
-54.2371058622996
20
122.34283854166668
10
-54.686233103275299
20
122.98180955251058
10
-55.144626271724704
20
123.57911038398743
10
-55.603015907605496
20
124.14399636586508
10
-56.066036740938813
20
124.67183276812236
10
-56.533688771724691
20
125.16263372103373
10
-57.001337269941942
20
125.62101982434592
10
-57.473620498180381
20
126.03774987856546
10
-57.945900193850179
20
126.42205095291139
10
-58.41818342208861
20
126.76931657791137
10
-58.88583192030589
20
127.07954675356548
10
-59.3581151485443
20
127.35734794934592
10
-59.830398376782739
20
127.59349309603374
10
-60.298046874999976
20
127.79722339312237
10
-60.765695373217248
20
127.95928351084392
10
-61.22871620655058
20
128.08892877896628
10
-61.687109375000013
20
128.18615919748942
10
-62.14086781342823
20
128.24171943664552
10
-62.589998586972527
20
128.26487895647685
10
-63.039129360516846
20
128.25098889668783
10
-63.474370074272137
20
128.20004925727847
10
-63.90961078802745
20
128.11207416852315
10
-64.335589106877649
20
127.99631896018981
10
-64.752305030822754
20
127.83889357248941
10
-65.164393289883947
20
127.64905333518983
10
-65.567226219177257
20
127.42681237856547
10
-65.956162023544323
20
127.16752184232077
10
-66.340470163027433
20
126.8711817264557
10
-66.710888242721538
20
126.54706149101257
10
-67.072043927510578
20
126.18590580622356
10
-67.423937217394496
20
125.79234940210979
10
-67.761940447489437
20
125.37099874814352
10
-68.086060682932541
20
124.91259851455689
10
-68.400911458333312
20
124.42179756164552
10
-68.701872173945119
20
123.89858175913494
10
-68.984315164883924
20
123.34759996732076
10
-69.257502826054889
20
122.76418919563292
10
-69.512158632278442
20
122.14836357434592
10
-69.752931443850201
20
121.5047719637553
10
-69.975179465611774
20
120.83338610331218
10
-70.183544492721552
20
120.12959952354433
10
-70.378012394905085
20
119.40265342394511
10
-70.553955507278431
20
118.64330660502117
10
-70.711387960116085
20
117.85616553624472
10
-70.85028855800627
20
117.04125141302745
10
-70.970678496360776
20
116.20318483511608
10
-71.072543644905096
20
115.33733107248943
10
-71.151256338755275
20
114.44833192030588
10
-71.216078972816476
20
113.53155264854431
10
-71.262376817067434
20
112.59162092208862
10
-71.285529271761561
20
111.62853674093881
10
-71.285529271761575
20
110.64230010509492
10
-71.267011547088629
20
109.63291807969412
10
-71.229969032605482
20
108.60038359959921
10
-71.16977406342825
20
107.54932432969412
10
-71.086433704694116
20
106.47511260509491
10
-70.979940891265855
20
105.38701788584392
10
-70.854923288027422
20
104.27576364676156
10
-70.70675323009489
20
103.14599168300629
10
-70.530810117721558
20
101.99770199457804
10
-70.336335150400771
20
100.83088751633963
10
-70.118721858660393
20
99.650190043449399
10
-69.877949047088634
20
98.455595445632937
10
-69.614023780822734
20
97.242476058006289
10
-69.326953124999989
20
96.015473675727847
10
-69.012102349599203
20
94.774581233660371
10
-68.678726784388218
20
93.524419331550604
10
-68.317571099599206
20
92.255746769905102
10
-67.933262960116068
20
90.982439478238433
10
-67.52580236593883
20
89.69524212678273
10
-67.095189317067479
20
88.394147650400782
10
-66.6368032137553
20
87.088432574272161
10
-66.155257590611754
20
85.773455103238433
10
-65.650566577911349
20
84.453842902183538
10
-65.118095445632932
20
83.124975371360762
10
-64.5670995235443
20
81.786845445632949
10
-63.988323481877636
20
80.444080789883913
10
-63.386394985516858
20
79.101323199272159
10
-62.756686369578041
20
77.749303213755297
10
-62.10846002896627
20
76.397283228238408
10
-61.432446503639227
20
75.04062851270038
10
-60.733287588755267
20
73.683980862299606
10
-60.010976219177252
20
72.322698481877651
10
-59.260877664883907
20
70.966043766339624
10
-58.492264918486264
20
69.604768451054881
10
-57.700499717394507
20
68.248113735516867
10
-56.880954396724704
20
66.896093750000006
10
-56.042884286244686
20
65.544073764483144
10
-55.177037588755276
20
64.192053778966255
10
-54.292666101455694
20
62.849289123217275
10
-53.385145692030576
20
61.51115919748942
10
-52.45447282791136
20
60.173029271761592
10
-51.50528223911919
20
58.848792938391348
10
-50.532939195632942
20
57.529180737336489
10
-49.537443697452545
20
56.214203266302754
10
-48.51879574457805
20
54.908484657605484
10
-47.481630067030579
20
53.616656108697242
10
-46.425943132241571
20
52.329458757241561
10
-45.35173494021096
20
51.056151465574892
10
-44.254374293486265
20
49.792103036244711
10
-43.138495922088609
20
48.541948199272149
10
-42.004092760880795
20
47.301052224636074
10
-40.851171874999977
20
46.074046309789018
10
-39.679729731877622
20
44.860933987299575
10
-38.489766331513707
20
43.666339389483106
10
-37.285912871360772
20
42.481003654003146
10
-36.058906956513709
20
41.314192708333323
10
-34.822642179330181
20
40.165899487336468
10
-33.56785261233648
20
39.031499858697245
10
-32.294545320669805
20
37.915621487299575
10
-31.007347969214099
20
36.818260840574879
10
-29.710891755421951
20
35.734790253639204
10
-28.395910751819592
20
34.674475653966255
10
-27.067041454712559
20
33.637306443850179
10
-25.728911528984693
20
32.614030826091771
10
-24.376889777183507
20
31.613907663027433
10
-23.010979731877622
20
30.636933422088624
10
-21.635807291666662
20
29.67848043839134
10
-20.246744791666661
20
28.743176376819616
10
-18.853052860498416
20
27.831026536226275
10
-17.445469103256851
20
26.937396186590192
10
-16.033255914847047
20
26.071547722816447
10
-14.607150900363926
20
25.228848181168225
10
-13.176416454712543
20
24.409302860498407
10
-11.736422263582522
20
23.617535893122358
10
-10.291796874999971
20
22.848921380440363
10
-8.8425420552492042
20
22.103457556168241
10
-7.3886560380458732
20
21.385775617758405
10
-5.9255102753639122
20
20.691244367758429
10
-4.4623645126819529
20
20.029124434788997
10
-2.9945884356895891
20
19.385525759061181
10
-1.5221822651723755
20
18.774338400363902
10
-0.049776039458806765
20
18.190932927529005
10
1.4272603901724159
20
17.630676376819586
10
2.9042968750000098
20
17.098203478256846
10
4.3767032663027798
20
16.598140130440388
10
5.8537395303448339
20
16.121229237318012
10
7.3307762359579609
20
15.672098463773711
10
8.8031821856896268
20
15.255380773544303
10
10.270958262681978
20
14.861812005440388
10
11.73873433967433
20
14.500656320651348
10
13.201880102356293
20
14.167281638582542
10
14.660395550727866
20
13.861687076091744
10
16.114280684789023
20
13.58850559691588
10
17.563536387681971
20
13.338473923007621
10
19.008160893122362
20
13.120854449272151
10
20.443526536226294
20
12.931015978256861
10
21.869629784425115
20
12.768958509961742
10
23.29110360145571
20
12.639312358697234
10
24.698687358697278
20
12.537448093295092
10
26.101639918486317
20
12.463364830613124
10
27.490702418486308
20
12.417062570651368
10
28.875135487318069
20
12.398541313409794
10
30.241047298908267
20
12.412432256340979
10
31.597698481877661
20
12.454104201992337
10
32.940459605058059
20
12.523557150363921
10
34.273958333333361
20
12.616161670287436
10
35.588935804367104
20
12.741177507241554
10
36.894657945632943
20
12.893974346915849
10
38.181855297088646
20
13.074552189310388
10
39.450531391302775
20
13.28291103442508
10
40.709948623180416
20
13.519051765402146
10
41.946213400363931
20
13.782974382241569
10
43.168588117758475
20
14.070046804348628
10
44.372441577911388
20
14.384901112318021
10
45.557777313391384
20
14.727536423007624
10
46.724588259061207
20
15.093322422107029
10
47.872881480058055
20
15.486891190210981
10
48.99802224636079
20
15.90824007789293
10
50.104641755421966
20
16.348110222816452
10
51.192740007241603
20
16.815760487318041
10
52.253058139483173
20
17.311192637681934
10
53.294855014483147
20
17.82514604528744
10
54.318130632241591
20
18.366879572470964
10
55.313626130421987
20
18.927136123180389
10
56.285969173908271
20
19.510541596015265
10
57.235159762700405
20
20.121728954712538
10
58.161201429367097
20
20.746808139483104
10
59.064094173908259
20
21.39966744383176
10
59.939199733734171
20
22.071046239137644
10
60.791163436571765
20
22.760948057969379
10
61.615339954694157
20
23.469369367758411
10
62.411736353238467
20
24.200943132241566
10
63.184980297088657
20
24.951036387681931
10
63.930444121360807
20
25.719650900363927
10
64.652755490938844
20
26.502155472834879
10
65.342659076054915
20
27.303183068831764
10
66.004775476455734
20
28.122728389501543
10
66.643746487299637
20
28.960796733697233
10
67.250302648544363
20
29.808125706513728
10
67.833706355094947
20
30.673972404003123
10
68.38470227718355
20
31.55371269385018
10
68.903283349672989
20
32.447343043486271
10
69.398719032605541
20
33.354863452911374
10
69.861739865938858
20
34.271646257241542
10
70.296980579694136
20
35.202319121360752
10
70.704434108734148
20
36.146878512700397
10
71.079486918449433
20
37.100703831513712
10
71.426752543449439
20
38.063788012663522
10
71.746230983734165
20
39.036131056149785
10
72.033308704694136
20
40.017732961972534
10
72.287971576054929
20
41.00396959781645
10
72.514847262700442
20
41.999465095996854
10
72.713949894905141
20
43.004219456513717
10
72.880637677510606
20
44.013605014483119
10
73.019538275400848
20
45.027618237336483
10
73.126038153966292
20
46.050897387663497
10
73.204750847816513
20
47.074173005421954
10
73.251048692067513
20
48.102079820632937
10
73.269573481877671
20
49.1299831032753
10
73.255683422088651
20
50.162521115938802
10
73.214013242721592
20
51.195055596033718
10
73.144555878639238
20
52.232224806149802
10
73.042690730094918
20
53.264759286244718
10
72.913045461972587
20
54.301928496360773
10
72.755620074272187
20
55.334462976455669
10
72.565779836972567
20
56.362369791666673
10
72.352794210116116
20
57.394907804330167
10
72.107393733660402
20
58.418183422088603
10
71.834206072489437
20
59.441455507278427
10
71.533245356877671
20
60.455472262700383
10
71.204497456550641
20
61.46948901812236
10
70.847976501782767
20
62.474243378639201
10
70.463668362299643
20
63.474370074272137
10
70.056207768122391
20
64.465234375000023
10
69.6209670543671
20
65.451471010843903
10
69.157946221033754
20
66.428445251782733
10
68.667145268122368
20
67.39615709781647
10
68.153191860516912
20
68.354606548945085
10
67.616085998217287
20
69.299173005421963
10
67.051200016339649
20
70.239104731877632
10
66.463168644905096
20
71.160518733660368
10
65.851977753639261
20
72.077298005421952
10
65.213013807932555
20
72.975559552510575
10
64.555518007278451
20
73.864558704694105
10
63.874876817067488
20
74.735033067067462
10
63.17109023729963
20
75.596252099672952
10
62.448778867721593
20
76.438953407605482
10
61.703315043449443
20
77.26775759061178
10
60.934698764483159
20
78.082678778966269
10
60.15219242572789
20
78.879075177510586
10
59.346533632278451
20
79.656946786244703
10
58.522360646724721
20
80.420935400327039
10
57.679662871360819
20
81.161764494578037
10
56.8184438387553
20
81.88871059417724
10
55.938703548908251
20
82.597131903966257
10
55.045073199272181
20
83.282400759061161
10
54.132921592394531
20
83.949151889483119
10
53.206879925727868
20
84.597378230094904
10
52.266948199272164
20
85.222459181149787
10
51.313126413027483
20
85.829015342394513
10
50.340779836972573
20
86.412419048945111
10
49.359177931149816
20
86.977305030822762
10
48.36831363042198
20
87.51441089312236
10
47.363555737336505
20
88.032991965611771
10
46.344911317030594
20
88.523799983660382
10
45.317004501819625
20
88.996076146761567
10
44.279838824272169
20
89.445206920305878
10
43.238041949272187
20
89.86655757427215
10
42.182355014483164
20
90.264755773544309
10
41.122036882241588
20
90.639801518122368
10
40.052459887663531
20
90.991694808006272
10
38.978251695632956
20
91.31581504344939
10
37.899412306149827
20
91.612148094177257
10
36.815941719214145
20
91.88995635509491
10
35.727843467394528
20
92.135356831550595
10
34.635114018122366
20
92.357611918449408
10
33.542384568850238
20
92.556707485516867
10
32.445027454694134
20
92.728022933006272
10
31.347666807969418
20
92.871565326054906
10
30.250306161244719
20
92.987320534388232
10
29.15294728080433
20
93.07992328802743
10
28.055588400363931
20
93.144745922088617
10
26.962858951091803
20
93.181788436571765
10
25.870129501819648
20
93.191043766339618
10
24.782031250000003
20
93.177153706550598
10
23.693932998180408
20
93.135483527183538
10
22.615093608697293
20
93.066033228238439
10
21.540885416666676
20
92.968795744578031
10
20.471306655804355
20
92.843778141339612
10
19.410990289847085
20
92.695615148544306
10
18.355301588773727
20
92.519664971033734
10
17.308875282605513
20
92.315934673945108
10
16.271707838773754
20
92.084424257278442
10
15.243802789847059
20
91.825133721033737
10
14.22515660325687
20
91.54269073009489
10
13.220401359597844
20
91.232467619578031
10
12.224905861417488
20
90.89909205436706
10
11.243302189310411
20
90.537936369578048
10
10.27095826268199
20
90.149000565210983
10
9.3171355932951254
20
89.736912306149804
10
8.3725726693868801
20
89.297043927510572
10
7.4465310027202314
20
88.834023094177255
10
6.5390105932950995
20
88.343222141265855
10
5.6407499293486598
20
87.829268733660371
10
4.7656408369541259
20
87.292162871360773
10
3.9044218043486421
20
86.727276889483136
10
3.0617240289847265
20
86.139238452911385
10
2.2421771628161435
20
85.528054626782733
10
1.4365207980076757
20
84.893711280822757
10
0.65401561837646183
20
84.236222545305864
10
-0.10996874558427447
20
83.560216085116082
10
-0.85543229387452191
20
82.856422440210977
10
-1.5731146186589873
20
82.129476340611774
10
-2.2722759621838433
20
81.384012516339624
10
-2.9482863965133554
20
80.615403302510572
10
-3.6011459216475181
20
79.828262233734137
10
-4.230854096015281
20
79.017975775400799
10
-4.8374115819732193
20
78.189171592394501
10
-5.4161876236398978
20
77.341842619578046
10
-5.9718125353256815
20
76.471361192067462
10
-6.499656444291241
20
75.586996769905085
10
-7.0043487817049055
20
74.679472827911368
10
-7.4812605579693887
20
73.758065891265858
10
-7.9303904483715426
20
72.818127099672949
10
-8.3563696503639147
20
71.859677648544306
10
-8.749937535325671
20
70.887331072489417
10
-9.1203538487354674
20
69.896466771761553
10
-9.4583597282568395
20
68.891712411244725
10
-9.7685837219158742
20
67.868440326054866
10
-10.051025829712518
20
66.83589878082276
10
-10.305687817931169
20
65.78947424093883
10
-10.52793760597703
20
64.7245249112447
10
-10.717776076992354
20
63.65032025178273
10
-10.884463859597819
20
62.566846132278428
10
-11.014109127720184
20
61.469489018122346
10
-11.115974276264479
20
60.358241844177257
10
-11.19005753894645
20
59.237728742758414
10
-11.231729484597842
20
58.107956779003132
10
-11.240989230076456
20
56.973557150363931
10
-11.21783854166665
20
55.825263929367075
10
-11.162275653084095
20
54.667711846033704
10
-11.078932644923512
20
53.50553209781647
10
-10.963177436590163
20
52.338717619578013
10
-10.815010028084108
20
51.162644279003118
10
-10.634432185689604
20
49.977312076091742
10
-10.421443026264489
20
48.791979873180395
10
-10.180671980977047
20
47.602016472816459
10
-9.9028593043486133
20
46.407421875000011
10
-9.5972656249999684
20
45.208199612299573
10
-9.259260628620785
20
44.00434261957804
10
-8.8842131177584314
20
42.805120356877637
10
-8.4813854873180077
20
41.596635699272156
10
-8.0507759710152946
20
40.392782239119185
10
-7.5831248233715538
20
39.188928778966243
10
-7.0830623586972479
20
37.980444121360762
10
-6.5552188913027267
20
36.776587128639221
10
-5.9949636653065577
20
35.577364865938826
10
-5.4022966807087167
20
34.373511405785869
10
-4.7772188206513455
20
33.178916807969387
10
-4.1243595163027189
20
31.984322210152946
10
-3.4390884533524484
20
30.794358809789024
10
-2.7260363876819338
20
29.609026606877617
10
-1.9805730049808823
20
28.428322068850207
10
-1.2073281779885208
20
27.252250494559583
10
-0.40167186837641644
20
26.085437782605464
10
0.43176563714322963
20
24.923254501819599
10
1.2929843661685816
20
23.770333615938796
10
2.1866144950191204
20
22.626671592394484
10
3.1033957538505526
20
21.487640766302736
10
4.0525883297125773
20
20.362499999999983
10
5.0295625706513949
20
19.241990431149805
10
6.0296875000000298
20
18.135369155804288
10
7.0622237463792423
20
17.03801027536392
10
8.1179115643103952
20
15.954541454712531
10
9.1967500706514009
20
14.880333262681962
10
10.307999894022952
20
13.815385699272156
10
11.437770974636084
20
12.76895850996176
10
12.595323057969425
20
11.731791949272131
10
13.780656144022958
20
10.70851544837155
10
14.984510487318046
20
9.703760204712534
10
16.211516402165099
20
8.7082655896742835
10
17.466302436590219
20
7.7312913487354802
10
18.739609728256866
20
6.7682084922989123
10
20.031438277165119
20
5.8236460099617471
10
21.351046945651383
20
4.8929740289847032
10
22.684547440210995
20
3.9808228636781235
10
24.041198623180424
20
3.0825624205171875
10
25.42100049455961
20
2.2028230138122833
10
26.81469242572788
20
1.3416042019923498
10
28.226905614137671
20
0.49890626103924629
10
29.657640059789038
20
-0.32064063272749938
10
31.102266331513754
20
-1.1262969147414275
10
32.565410327911387
20
-1.9134323534866449
10
34.047079114119242
20
-2.6774167726437397
10
35.538006762663528
20
-3.4275104696552141
10
37.047452135880796
20
-4.1498227223753954
10
38.570791101455704
20
-4.8582449153066003
10
40.103388929367085
20
-5.5435155366857947
10
41.649880349636078
20
-6.2056354696551974
10
43.210261829694147
20
-6.8492345869541218
10
44.775270974636115
20
-7.4743128885825687
10
46.354170179367095
20
-8.0716093043486463
10
47.942331779003176
20
-8.6503853460153284
10
49.539755773544329
20
-9.2106410135825723
10
51.146438630421983
20
-9.7431147952874735
10
52.757749152183564
20
-10.257067319750803
10
54.373694403966297
20
-10.747870038946489
10
55.998894985516884
20
-11.21552118659023
10
57.628730297088651
20
-11.660020762681992
10
59.263193273544331
20
-12.085999964674325
10
60.89765625000004
20
-12.484198163946505
10
62.536746891339661
20
-12.863875105977067
10
64.175844597816507
20
-13.220401359597869
10
65.81956996917728
20
-13.553776041666696
10
67.463288275400828
20
-13.864000035325702
10
69.102385981877674
20
-14.151073340574914
10
70.746111353238433
20
-14.414995074272177
10
72.385201994578082
20
-14.655765236417473
10
74.019664971033748
20
-14.878015907605517
10
75.654127947489457
20
-15.077115007241579
10
77.28396325906121
20
-15.248432221015321
10
78.904536175727884
20
-15.401229943831787
10
80.52510909239453
20
-15.535504643122376
10
82.136419614156125
20
-15.641999222834915
10
83.743102471033779
20
-15.72997431159023
10
85.340522933006326
20
-15.794796945651402
10
86.924060400327051
20
-15.841098322471012
10
88.502956072489496
20
-15.864250777165125
10
90.072596414884003
20
-15.864250777165097
10
91.632981427510629
20
-15.845729519923546
10
93.179469315211051
20
-15.808687005440396
10
94.712067143122383
20
-15.748495568831784
10
96.230774911244751
20
-15.665151677529055
10
97.740227349599223
20
-15.567915960152964
10
99.231147933006298
20
-15.447531320651384
10
100.70818552176162
20
-15.308625423908246
10
102.17133305072787
20
-15.151198269923547
10
103.61595578988398
20
-14.975249858697264
10
105.04669553438828
20
-14.780781073371585
10
106.45427575906125
20
-14.5677919139465
10
107.84796592394514
20
-14.340911811590209
10
109.21851069927222
20
-14.095510451992372
10
110.57515834967302
20
-13.831588718295126
10
111.90403294563295
20
-13.549145727356294
10
113.21901041666671
20
-13.25744299093884
10
114.50620776812242
20
-12.947218997279823
10
115.77488739490511
20
-12.618473746379221
10
117.02041456699375
20
-12.280468750000031
10
118.24278928438828
20
-11.923942496379251
10
119.44201154708865
20
-11.558156497279818
10
120.61345369021103
20
-11.173849240938853
10
121.76637104352322
20
-10.780281355977072
10
122.8868876775106
20
-10.377452842394526
10
123.9842447916667
20
-9.9607342690229643
10
125.05845651626589
20
-9.5301247527202051
10
126.10025339126588
20
-9.0902554909388442
10
127.11889074643454
20
-8.6411247173945256
10
128.10512738227851
20
-8.1827341983715804
10
129.06358389854438
20
-7.7150830507278609
10
129.99888089497884
20
-7.2381717160344374
10
130.90177717208863
20
-6.7566300670305948
10
131.77225859959924
20
-6.2658282309770836
10
132.61495990753176
20
-5.7657657663027546
10
133.42986696561178
20
-5.2657033016284664
10
134.21237330436711
20
-4.7563802083333666
10
134.96246479352317
20
-4.2377969279885574
10
135.68015556335456
20
-3.7238439619541248
10
136.37005208333338
20
-3.2006301465134119
10
137.02754788398744
20
-2.6727864583333489
10
137.64799410502118
20
-2.1449427701532935
10
138.24066020647689
20
-1.6170989715804991
10
138.80091145833339
20
-1.0846249690900422
10
139.32412726084397
20
-0.55215102179599718
10
139.81956294377648
20
-0.02430729135621458
10
140.27794904708861
20
0.50816666887450446
10
140.70392030080166
20
1.0360104122509446
10
141.09749083518989
20
1.563854210823741
10
141.45402592023217
20
2.0916978990037909
10
141.77813202540085
20
2.614911493658989
10
142.06983741124478
20
3.1334947740038177
10
142.3244932174683
20
3.6474479608237598
10
142.54674830436713
20
4.1567708333333337
10
142.73658854166669
20
4.6568332980076272
10
142.88937919934597
20
5.1568957626819305
10
143.00976913770046
20
5.6476980403065644
10
143.09310949643455
20
6.1292396893103831
10
143.14404913584397
20
6.6061510240038199
10
143.1625739256541
20
7.06917185733713
10
143.14404913584394
20
7.5275628179311589
10
143.09310949643455
20
7.9766927083333083
10
143.00513440767932
20
8.4119325389464414
10
142.88475859959922
20
8.8379117409387948
10
142.73195381164555
20
9.2499999999999876
10
142.54211357434593
20
9.65282851358252
10
142.31987261772159
20
10.037135769923529
10
142.06520268122358
20
10.412182397643697
10
141.77813202540082
20
10.773338965574887
10
141.45864651997888
20
11.120604590574867
10
141.10212556521103
20
11.453979272643693
10
140.71318976084399
20
11.768833580613114
10
140.29647383689883
20
12.065166631340983
10
139.84270833333338
20
12.347609622279801
10
139.36116271018986
20
12.61616167028745
10
138.84258163770045
20
12.861562146743124
10
138.29622044563294
20
13.093072563409795
10
137.71744440396628
20
13.301432291666671
10
137.11088824272161
20
13.49127076268196
10
136.47191723187768
20
13.662588859597841
10
135.80053137143457
20
13.815385699272131
10
135.1013795216879
20
13.94503096739448
10
134.37443342208863
20
14.056155861417439
10
133.61507247289023
20
14.13949975272017
10
132.83256613413499
20
14.208952701091748
10
132.01765907605491
20
14.250624646743113
10
131.17495776812243
20
14.269145903984679
10
130.30911107063298
20
14.2691459039847
10
129.41084952354436
20
14.2413649012645
10
128.48944258689883
20
14.190432326992324
10
127.54487613042195
20
14.116349064310388
10
126.57252955436709
20
14.019114230076454
10
125.57240285873418
20
13.894099276264511
10
124.55376550356553
20
13.745931867758419
10
123.50733389854433
20
13.56998433967429
10
122.4377569039663
20
13.370885240038227
10
121.34502038955691
20
13.144005137681949
10
120.23377321561183
20
12.893974346915877
10
119.09938065210983
20
12.616161670287443
10
117.94182150363925
20
12.310567990938821
10
116.76575169563299
20
11.977192425727846
10
115.57115709781654
20
11.616036740938803
10
114.35341004530592
20
11.231729484597812
10
113.12177293300634
20
10.815010028084108
10
111.8716180960338
20
10.375140766302733
10
110.59831080436712
20
9.9028593043486008
10
109.31574818293257
20
9.4074271539846848
10
108.01465370655065
20
8.8795836865901894
10
106.69504857063295
20
8.3285886476437234
10
105.36154630978906
20
7.7451822916666568
10
104.0141539891561
20
7.1339949329694061
10
102.6575063387553
20
6.4996564442912561
10
101.28233389854431
20
5.8329061970114635
10
99.897899063428298
20
5.1383749470114601
10
98.504208898544348
20
4.4160626942912549
10
97.096621608734196
20
3.6659687764942603
10
95.675151324272178
20
2.8880938559770497
10
94.249046309789065
20
2.082437491168553
10
92.813678900400859
20
1.2443698093294786
10
91.369056161244771
20
0.38315105270591204
10
89.91517102718359
20
-0.50584898261977695
10
88.456658228238453
20
-1.4226301862548041
10
86.993510699272178
20
-2.3671927789847262
10
85.521100775400839
20
-3.3395364848275984
10
84.048697916666697
20
-4.3396616349617805
10
82.567032663027476
20
-5.3629376942912828
10
81.085367409388255
20
-6.4139947563410029
10
79.599067425727895
20
-7.4928332626819749
10
78.112767442067494
20
-8.5994527717431684
10
76.621846858660419
20
-9.7292238523563022
10
75.13091921011609
20
-10.88677593568962
10
73.63999156157179
20
-12.067479590574903
10
72.153691577911417
20
-13.271333050727863
10
70.662763929367102
20
-14.502968396743153
10
69.176471010843926
20
-15.757754431168271
10
67.690171027183581
20
-17.040322351455696
10
66.213133438428272
20
-18.341411528984729
10
64.731468184789037
20
-19.670280826091798
10
63.259065326054902
20
-21.017671380440397
10
61.791283067067504
20
-22.388214389483142
10
60.328142603238454
20
-23.781906320651377
10
58.874253936608667
20
-25.194119509061199
10
57.42500000000004
20
-26.634114583333361
10
55.980373728275332
20
-28.087999717394542
10
54.545009851455717
20
-29.565037306149826
10
53.118904836972561
20
-31.06059261957806
10
51.702062217394548
20
-32.574672722816501
10
50.294478460152952
20
-34.111901748180429
10
48.900784762700425
20
-35.663020833333363
10
47.511722262700403
20
-37.232661175727856
10
46.141181019941996
20
-38.816191577911397
10
44.775270974636115
20
-40.418243237336497
10
43.427878654003173
20
-42.038816154003158
10
42.089748728275332
20
-43.67328266302745
10
40.76550886233651
20
-45.317004501819646
10
39.4551625887553
20
-46.979251130421964
10
38.158702842394518
20
-48.655384286244754
10
36.876136688391398
20
-50.345411034425112
10
35.612088259061188
20
-52.044696644941979
10
34.361933422088661
20
-53.757875847816486
10
33.125665112336506
20
-55.480313913027487
10
31.907921592394519
20
-57.212010840574941
10
30.708699329694138
20
-58.952970163027459
10
29.52336536049846
20
-60.703188347816479
10
28.356552648544344
20
-62.462668927510627
10
27.208261193831767
20
-64.226777172088646
10
26.078489230076499
20
-66.000147811571793
10
24.967240289847066
20
-67.778146115938853
10
23.879140271743168
20
-69.560779150327079
10
22.804932079712557
20
-71.348039849599232
10
21.749245144923567
20
-73.13992821375534
10
20.716708898544319
20
-74.936451307932572
10
19.707323340574938
20
-76.732967336972578
10
18.711827842394541
20
-78.534118096033779
10
17.739484798908236
20
-80.330641190210997
10
16.790292443831785
20
-82.131791949272198
10
15.859619579712554
20
-83.928315043449416
10
14.952099170287454
20
-85.729465802510589
10
14.063099134961783
20
-87.521354166666683
10
13.197249788045909
20
-89.313242530822819
10
12.354552012681971
20
-91.105137960116082
10
11.530374611417479
20
-92.887763929367125
10
10.729348781704921
20
-94.665762233734142
10
9.9514736404021615
20
-96.439132873217261
10
9.1967500706513778
20
-98.203248182932569
10
8.4605468750000217
20
-99.962721697489471
10
7.7521246820688541
20
-101.71293988227848
10
7.0622237463792388
20
-103.45390273729963
10
6.3954739406704944
20
-105.18559613227843
10
5.7472449506322878
20
-106.90803419748947
10
5.1267969633142298
20
-108.61658220291145
10
4.5248697916666822
20
-110.31124014854436
10
3.9507240643104096
20
-111.99663569927222
10
3.3950989318390974
20
-113.66814119021099
10
2.8579948358237761
20
-115.32575662136084
10
2.3486719633142212
20
-116.96484726270043
10
1.8578697960824078
20
-118.59467550913494
10
1.3902187588314341
20
-120.20135836601258
10
0.94571874116859189
20
-121.79415116310119
10
0.51973959437261785
20
-123.36843330065415
10
0.11691146026523436
20
-124.92881124814353
10
-0.26276561285679578
20
-126.46602967580162
10
-0.62392187720783121
20
-127.98011684417729
10
-0.96655724309383251
20
-129.47566509246829
10
-1.281411440670466
20
-130.9527026812236
10
-1.5823750264942467
20
-132.40659488042201
10
-1.8601874823371578
20
-133.83732755978909
10
-2.1194791225095426
20
-135.24491484959927
10
-2.3556198534866102
20
-136.6293426195781
10
-2.5778698623180203
20
-137.98599026997888
10
-2.7769687411685604
20
-139.32412726084397
10
-2.9575468043486079
20
-140.62984940210984
10
-3.1196042726437101
20
-141.91241202354431
10
-3.267770798007636
20
-143.16719452540084
10
-3.392786414176193
20
-144.39883163770045
10
-3.5039115289846805
20
-145.59805390040086
10
-3.5965156073371518
20
-146.76949604352322
10
-3.6705988700191079
20
-147.91315806706751
10
-3.7307916313409786
20
-149.0244052410126
10
-3.7724635769923291
20
-150.10788642565413
10
-3.8002445797125208
20
-151.15893863042203
10
-3.8141355226436957
20
-152.18221071561186
10
-3.8141355226437086
20
-153.16844735145571
10
-3.7956147069732351
20
-154.12690386772161
10
-3.7678332626819602
20
-155.05294553438827
10
-3.721531444291255
20
-155.94657235145573
10
-3.6659687764942395
20
-156.80779844919843
10
-3.5965156073371496
20
-157.63197496732079
10
-3.5178020303447894
20
-158.42373663584397
10
-3.4251979519923346
20
-159.18308345476791
10
-3.323333245019108
20
-159.90539482434596
10
-3.2075780366857689
20
-160.59067074457812
10
-3.0871927348275667
20
-161.24353181521104
10
-2.9529167108237653
20
-161.85934330622356
10
-2.8140103725095478
20
-162.44275407791139
10
-2.6612135328352333
20
-162.98449467023218
10
-2.5037863788505361
20
-163.49380628267926
10
-2.3370990378161141
20
-163.96609657605492
10
-2.1657811616857687
20
-164.40133728981024
10
-1.9898334128161121
20
-164.79490782419845
10
-1.8046250353256663
20
-165.1560635089875
10
-1.614786453917598
20
-165.48016961415613
10
-1.4249478725095464
20
-165.76261967023217
10
-1.2258489936589907
20
-166.01264074643456
10
-1.0267500044156956
20
-166.22100577354433
10
-0.82302081125476867
20
-166.3923212210338
10
-0.61466146937260735
20
-166.52660121917728
10
-0.40630207229402421
20
-166.62383163770042
10
-0.19794270281366882
20
-166.67939187685653
10
0.010416666666686544
20
-166.69791666666669
10
0.21877603614704194
20
-166.6793918768565
10
0.42713540562739544
20
-166.62383163770045
10
0.63549480270594494
20
-166.52660121917728
10
0.84385414458813601
20
-166.39232122103377
10
1.0475833377490478
20
-166.22100577354433
10
1.2466823269923801
20
-166.01264074643456
10
1.4457812058429245
20
-165.7626196702322
10
1.6356197872509572
20
-165.48016961415613
10
1.8254583686590198
20
-165.1560635089875
10
2.0106667461494636
20
-164.79490782419845
10
2.1866144950191311
20
-164.40133728981021
10
2.3579323711494653
20
-163.96609657605492
10
2.524619712183878
20
-163.49380628267923
10
2.6820468661685859
20
-162.98449467023215
10
2.8348437058429132
20
-162.44275407791147
10
2.9737500441571081
20
-161.85934330622362
10
3.1080260681609371
20
-161.24353181521104
10
3.2284113700191517
20
-160.59067074457806
10
3.3441665783524535
20
-159.90539482434596
10
3.4460312853256951
20
-159.18308345476788
10
3.5386353636781642
20
-158.42373663584394
10
3.6173489406705239
20
-157.63197496732079
10
3.6868021098276138
20
-156.80779844919843
10
3.7423647776246236
20
-155.94657235145573
10
3.7886665960152941
20
-155.05294553438824
10
3.8164480403065908
20
-154.12690386772164
10
3.8349688559770811
20
-153.16844735145577
10
3.8349688559770865
20
-152.1822107156118
10
3.8210779130458978
20
-151.158938630422
10
3.7932969103256928
20
-150.10788642565413
10
3.7516249646743254
20
-149.02440524101263
10
3.6914322033524782
20
-147.91315806706751
10
3.6173489406705102
20
-146.76949604352322
10
3.5247448623180446
20
-145.59805390040086
10
3.4136197475095602
20
-144.39883163770043
10
3.288604131341013
20
-143.16719452540087
10
3.1404376059770929
20
-141.91241202354436
10
2.9783801376819943
20
-140.62984940210984
10
2.797802074501921
20
-139.32412726084397
10
2.5987031956513729
20
-137.98599026997891
10
2.3764531868199685
20
-136.62934261957813
10
2.1403124558429267
20
-135.24491484959927
10
1.8810208156705182
20
-133.83732755978909
10
1.603208359827599
20
-132.40659488042201
10
1.3022447740038516
20
-130.9527026812236
10
0.98739057642719863
20
-129.47566509246829
10
0.64475521054121343
20
-127.98011684417727
10
0.28359894619013781
20
-126.46602967580165
10
-0.096078126931870081
20
-124.92881124814352
10
-0.49890626103927255
20
-123.36843330065412
10
-0.92488540783522322
20
-121.79415116310122
10
-1.3693854254980773
20
-120.20135836601261
10
-1.8370364627490292
20
-118.594675509135
10
-2.327838629980858
20
-116.96484726270042
10
-2.8371615024904422
20
-115.32575662136084
10
-3.3742655985057342
20
-113.66814119021103
10
-3.9298907309770565
20
-111.99663569927223
10
-4.5040364583333146
20
-110.31124014854439
10
-5.1059636299808684
20
-108.61658220291139
10
-5.7264116172988908
20
-106.90803419748946
10
-6.3746406073371347
20
-105.18559613227849
10
-7.0413904130458524
20
-103.45390273729964
10
-7.7312913487354802
20
-101.71293988227846
10
-8.439713541666654
20
-99.962721697489428
10
-9.1759167373180066
20
-98.203248182932555
10
-9.9306403070687974
20
-96.439132873217318
10
-10.708515448371564
20
-94.665762233734142
10
-11.509541278084093
20
-92.887763929367125
10
-12.333718679348628
20
-91.105137960116082
10
-13.176416454712536
20
-89.313242530822777
10
-14.042265801628417
20
-87.521354166666683
10
-14.931265836954086
20
-85.729465802510617
10
-15.838786246379204
20
-83.928315043449416
10
-16.76945911049841
20
-82.131791949272198
10
-17.718651465574887
20
-80.330641190210997
10
-18.69099450906117
20
-78.534118096033779
10
-19.686490007241552
20
-76.732967336972592
10
-20.695875565210965
20
-74.936451307932558
10
-21.728411811590171
20
-73.139928213755326
10
-22.784098746379208
20
-71.348039849599232
10
-23.858306938409779
20
-69.560779150327093
10
-24.946406956513712
20
-67.778146115938839
10
-26.057655896743121
20
-66.000147811571807
10
-27.18742786049841
20
-64.226777172088632
10
-28.335719315210952
20
-62.462668927510599
10
-29.502532027165085
20
-60.703188347816514
10
-30.687865996360753
20
-58.952970163027487
10
-31.887088259061159
20
-57.212010840574919
10
-33.104831779003135
20
-55.480313913027459
10
-34.341100088755269
20
-53.757875847816479
10
-35.591254925727839
20
-52.044696644942007
10
-36.855303355058027
20
-50.345411034425105
10
-38.137869509061154
20
-48.655384286244747
10
-39.434329255421936
20
-46.979251130421964
10
-40.744675529003118
20
-45.317004501819625
10
-42.068915394941946
20
-43.673282663027464
10
-43.407045320669788
20
-42.038816154003165
10
-44.754437641302744
20
-40.41824323733649
10
-46.120347686608618
20
-38.816191577911411
10
-47.49088892936706
20
-37.232661175727884
10
-48.879951429367054
20
-35.663020833333363
10
-50.273645126819602
20
-34.111901748180401
10
-51.681228884061156
20
-32.574672722816487
10
-53.098071503639197
20
-31.060592619578074
10
-54.524176518122339
20
-29.565037306149829
10
-55.959540394941946
20
-28.087999717394535
10
-57.40416666666664
20
-26.634114583333339
10
-58.853420603275282
20
-25.194119509061185
10
-60.307309269905083
20
-23.781906320651377
10
-61.770449733734125
20
-22.388214389483167
10
-63.238231992721545
20
-21.017671380440419
10
-64.71063485145568
20
-19.670280826091776
10
-66.192300105094901
20
-18.341411528984739
10
-67.669337693850181
20
-17.0403223514557
10
-69.155637677510569
20
-15.757754431168255
10
-70.641930596033731
20
-14.502968396743141
10
-72.132858244578046
20
-13.271333050727856
10
-73.619158228238419
20
-12.067479590574926
10
-75.110085876782733
20
-10.886775935689638
10
-76.601013525327033
20
-9.7292238523562897
10
-78.091934108734122
20
-8.5994527717431613
10
-79.57823409239451
20
-7.4928332626819714
10
-81.064534076054869
20
-6.4139947563409976
10
-82.546199329694105
20
-5.3629376942912739
10
-84.027864583333326
20
-4.3396616349617849
10
-85.500267442067468
20
-3.3395364848276228
10
-86.972677365938807
20
-2.36719277898474
10
-88.435824894905082
20
-1.4226301862548114
10
-89.89433769385019
20
-0.50584898261977407
10
-91.348222827911371
20
0.38315105270591787
10
-92.792845567067474
20
1.2443698093295006
10
-94.228212976455694
20
2.0824374911685739
10
-95.654317990938807
20
2.8880938559770399
10
-97.075788275400811
20
3.6659687764942541
10
-98.483375565210991
20
4.4160626942912664
10
-99.877065730094913
20
5.1383749470114539
10
-101.26150056521098
20
5.8329061970114662
10
-102.63667300542195
20
6.4996564442912632
10
-103.99332065582277
20
7.1339949329694097
10
-105.34071297645568
20
7.7451822916666613
10
-106.67421523729959
20
8.3285886476437039
10
-107.99382037321726
20
8.8795836865901663
10
-109.29491484959922
20
9.4074271539846936
10
-110.57747747103372
20
9.9028593043486186
10
-111.85078476270039
20
10.375140766302716
10
-113.10093959967296
20
10.815010028084098
10
-114.33257671197255
20
11.231729484597842
10
-115.55032376448312
20
11.616036740938821
10
-116.7449183622996
20
11.977192425727836
10
-117.92098817030589
20
12.310567990938818
10
-119.07854731877646
20
12.616161670287438
10
-120.21293988227845
20
12.89397434691587
10
-121.32418705622355
20
13.144005137681937
10
-122.41692357063293
20
13.370885240038222
10
-123.48650056521097
20
13.569984339674317
10
-124.53293217023214
20
13.745931867758417
10
-125.55156952540081
20
13.894099276264505
10
-126.55169622103374
20
14.019114230076443
10
-127.52404279708863
20
14.116349064310382
10
-128.46860925356549
20
14.190432326992347
10
-129.39001619021096
20
14.241364901264483
10
-130.28827773729961
20
14.269145903984679
10
-131.15412443478903
20
14.269145903984686
10
-131.99682574272157
20
14.250624646743111
10
-132.81173280080162
20
14.208952701091754
10
-133.59423913955686
20
14.139499752720168
10
-134.35360008875529
20
14.05615586141743
10
-135.0805461883545
20
13.945030967394512
10
-135.7796980381012
20
13.815385699272154
10
-136.45108389854431
20
13.662588859597843
10
-137.09005490938824
20
13.49127076268195
10
-137.69661107063294
20
13.301432291666654
10
-138.2753871122996
20
13.093072563409807
10
-138.82174830436708
20
12.861562146743136
10
-139.34032937685649
20
12.61616167028745
10
-139.82187500000001
20
12.34760962227978
10
-140.27564050356548
20
12.065166631340949
10
-140.69235642751059
20
11.768833580613105
10
-141.08129223187765
20
11.453979272643711
10
-141.43781318664554
20
11.120604590574871
10
-141.75729869206748
20
10.773338965574901
10
-142.04436934789021
20
10.412182397643699
10
-142.29903928438824
20
10.037135769923516
10
-142.52128024101259
20
9.6528285135825183
10
-142.71112047831218
20
9.2499999999999698
10
-142.86392526626588
20
8.8379117409387966
10
-142.98430107434592
20
8.4119325389464539
10
-143.07227616310121
20
7.9766927083333066
10
-143.12321580251057
20
7.5275628179311713
10
-143.14174059232076
20
7.0691718573371478
10
-143.12321580251057
20
6.6061510240038199
10
-143.07227616310121
20
6.1292396893103609
10
-142.98893580436709
20
5.6476980403065475
10
-142.8685458660126
20
5.1568957626819607
10
-142.71575520833335
20
4.6568332980076326
10
-142.52591497103373
20
4.1567708333333275
10
-142.30365988413493
20
3.6474479608237442
10
-142.04900407791141
20
3.1334947740037911
10
-141.75729869206745
20
2.6149114936589863
10
-141.43319258689883
20
2.0916978990038122
10
-141.07665750185649
20
1.5638542108237568
10
-140.68308696746828
20
1.0360104122509286
10
-140.2571157137553
20
0.50816666887449324
10
-139.79872961044313
20
-0.02430729135620445
10
-139.30329392751059
20
-0.55215102179600128
10
-138.78007812499999
20
-1.0846249690900338
10
-138.21982687314352
20
-1.6170989715804813
10
-137.62716077168784
20
-2.1449427701533135
10
-137.0067145506541
20
-2.6727864583333409
10
-136.34921875000001
20
-3.2006301465134106
10
-135.65932223002116
20
-3.7238439619541497
10
-134.94163146018983
20
-4.2377969279885637
10
-134.19153997103373
20
-4.7563802083333435
10
-133.40903363227847
20
-5.2657033016284576
10
-132.59412657419841
20
-5.7657657663027511
10
-131.75142526626587
20
-6.2658282309770827
10
-130.88094383875531
20
-6.7566300670306054
10
-129.97804756164552
20
-7.2381717160344241
10
-129.04275056521098
20
-7.7150830507278592
10
-128.08429404894511
20
-8.1827341983715911
10
-127.0980574131012
20
-8.6411247173945185
10
-126.07942005793254
20
-9.0902554909388442
10
-125.03762318293255
20
-9.5301247527202122
10
-123.96341145833333
20
-9.9607342690229554
10
-122.86605434417724
20
-10.377452842394542
10
-121.74553771018981
20
-10.78028135597707
10
-120.59262035687765
20
-11.173849240938857
10
-119.4211782137553
20
-11.558156497279835
10
-118.22195595105489
20
-11.923942496379221
10
-116.99958123366038
20
-12.28046875000002
10
-115.75405406157175
20
-12.618473746379234
10
-114.48537443478904
20
-12.947218997279821
10
-113.19817708333332
20
-13.257442990938852
10
-111.88319961229962
20
-13.549145727356294
10
-110.55432501633962
20
-13.831588718295112
10
-109.19767736593882
20
-14.095510451992384
10
-107.82713259061177
20
-14.34091181159021
10
-106.43344242572783
20
-14.567791913946479
10
-105.02586220105488
20
-14.780781073371589
10
-103.5951224565506
20
-14.975249858697268
10
-102.15049971739452
20
-15.15119826992354
10
-100.68735218842825
20
-15.308625423908255
10
-99.210314599672955
20
-15.447531320651409
10
-97.719394016265881
20
-15.567915960152964
10
-96.209941577911366
20
-15.665151677529019
10
-94.691233809789011
20
-15.74849556883178
10
-93.158635981877637
20
-15.808687005440396
10
-91.612148094177257
20
-15.845729519923559
10
-90.05176308155059
20
-15.864250777165125
10
-88.482122739156083
20
-15.864250777165125
10
-86.903227066993708
20
-15.841098322471016
10
-85.319689599672955
20
-15.794796945651381
10
-83.72226913770038
20
-15.729974311590215
10
-82.11558628082274
20
-15.641999222834929
10
-80.504275759061159
20
-15.53550464312238
10
-78.883702842394499
20
-15.401229943831773
10
-77.263129925727839
20
-15.248432221015323
10
-75.633294614156085
20
-15.077115007241586
10
-73.998831637700405
20
-14.878015907605509
10
-72.364368661244697
20
-14.655765236417466
10
-70.725278019905062
20
-14.414995074272174
10
-69.081552648544289
20
-14.151073340574932
10
-67.442454942067457
20
-13.864000035325715
10
-65.798736635843909
20
-13.553776041666676
10
-64.155011264483122
20
-13.220401359597878
10
-62.515913558006289
20
-12.863875105977069
10
-60.876822916666654
20
-12.484198163946498
10
-59.242359940210974
20
-12.085999964674347
10
-57.607896963755266
20
-11.660020762681981
10
-55.978061652183513
20
-11.215521186590214
10
-54.352861070632912
20
-10.747870038946495
10
-52.736915818850193
20
-10.25706731975081
10
-51.125605297088597
20
-9.7431147952874841
10
-49.518922440210986
20
-9.2106410135825652
10
-47.921498445669791
20
-8.6503853460153142
10
-46.33333684603371
20
-8.0716093043486321
10
-44.754437641302729
20
-7.4743128885825492
10
-43.18942849636079
20
-6.8492345869541271
10
-41.629047016302749
20
-6.2056354696552285
10
-40.082555596033728
20
-5.5435155366857884
10
-38.549957768122347
20
-4.858244915306587
10
-37.026618802547439
20
-4.1498227223754078
10
-35.517173429330185
20
-3.4275104696552234
10
-34.026245780785857
20
-2.6774167726437561
10
-32.544576994578044
20
-1.9134323534866233
10
-31.081432998180361
20
-1.1262969147414279
10
-29.636806726455674
20
-0.32064063272749732
10
-28.206072280804303
20
0.49890626103925639
10
-26.793859092394495
20
1.3416042019923342
10
-25.400167161226275
20
2.2028230138122891
10
-24.020365289847053
20
3.0825624205172035
10
-22.66371410687762
20
3.9808228636781209
10
-21.33021361231803
20
4.892974028984697
10
-20.010604943831733
20
5.8236460099617542
10
-18.718776394923516
20
6.768208492298891
10
-17.445469103256851
20
7.7312913487354749
10
-16.19068306883176
20
8.7082655896742942
10
-14.963677153984703
20
9.7037602047125233
10
-13.759822810689597
20
10.708515448371562
10
-12.57448972463607
20
11.731791949272154
10
-11.41693764130272
20
12.768958509961763
10
-10.287166560689595
20
13.815385699272138
10
-9.1759167373180137
20
14.88033326268196
10
-8.0970782309770364
20
15.954541454712523
10
-7.0413904130458533
20
17.038010275363927
10
-6.0088541666666426
20
18.135369155804295
10
-5.0087292373180361
20
19.241990431149791
10
-4.0317549963792025
20
20.362499999999972
10
-3.0825624205171929
20
21.487640766302722
10
-2.1657811616857576
20
22.626671592394501
10
-1.2721510328352461
20
23.770333615938796
10
-0.41093230380986334
20
24.923254501819589
10
0.42250520170978356
20
26.085437782605496
10
1.2281615113218871
20
27.252250494559576
10
2.0014063383142289
20
28.428322068850203
10
2.746869721015321
20
29.609026606877649
10
3.4599217866858103
20
30.794358809788996
10
4.1451928496360857
20
31.984322210152932
10
4.7980521539847114
20
33.178916807969415
10
5.4231300140420933
20
34.373511405785877
10
6.0157969986399094
20
35.577364865938804
10
6.5760522246360793
20
36.776587128639193
10
7.1038956920306067
20
37.980444121360755
10
7.6039581567049233
20
39.188928778966272
10
8.071609304348641
20
40.392782239119207
10
8.5022188206513896
20
41.596635699272149
10
8.9050464510917866
20
42.805120356877623
10
9.2800939619541172
20
44.004342619578054
10
9.6180989583333378
20
45.208199612299595
10
9.9236926376819934
20
46.407421875000011
10
10.201505314310404
20
47.602016472816445
10
10.442276359597848
20
48.791979873180367
10
10.655265519022963
20
49.977312076091742
10
10.835843361417455
20
51.162644279003146
10
10.984010769923557
20
52.338717619578013
10
11.099765978256897
20
53.505532097816477
10
11.183108986417453
20
54.667711846033733
10
11.238671875000017
20
55.825263929367054
10
11.261822563409837
20
56.973557150363902
10
11.252562817931198
20
58.107956779003153
10
11.210890872279807
20
59.237728742758421
10
11.136807609597872
20
60.358241844177229
10
11.03494246105355
20
61.469489018122346
10
10.905297192931197
20
62.566846132278435
10
10.738609410325694
20
63.650320251782738
10
10.548770939310412
20
64.724524911244714
10
10.326521151264519
20
65.789474240938802
10
10.071859163045914
20
66.83589878082276
10
9.7894170552492437
20
67.868440326054866
10
9.4791930615901965
20
68.891712411244711
10
9.1411871820688333
20
69.896466771761567
10
8.770770868659044
20
70.887331072489403
10
8.3772029836972841
20
71.859677648544306
10
7.9512237817049218
20
72.818127099672949
10
7.5020938913027635
20
73.758065891265858
10
7.0251821150382474
20
74.679472827911383
10
6.5204897776246193
20
75.586996769905085
10
5.9926458686590198
20
76.471361192067462
10
5.4370209569732371
20
77.341842619578046
10
4.8582449153065896
20
78.189171592394501
10
4.2516874293486531
20
79.017975775400799
10
3.6219792549809049
20
79.828262233734122
10
2.969119729846736
20
80.615403302510572
10
2.2931092955172225
20
81.384012516339624
10
1.5939479519923549
20
82.129476340611774
10
0.87626562720787959
20
82.856422440210963
10
0.13080207891764631
20
83.560216085116082
10
-0.63318228504309992
20
84.236222545305878
10
-1.4156874646742823
20
84.893711280822757
10
-2.2213438294827919
20
85.528054626782733
10
-3.040890695651365
20
86.139238452911385
10
-3.8835884710152735
20
86.727276889483136
10
-4.7448075036207689
20
87.292162871360773
10
-5.6199165960152762
20
87.829268733660385
10
-6.5181772599617638
20
88.343222141265855
10
-7.425697669386838
20
88.83402309417724
10
-8.351739336053507
20
89.297043927510572
10
-9.2963022599617666
20
89.736912306149804
10
-10.25012492934861
20
90.149000565210983
10
-11.222468855977043
20
90.537936369578048
10
-12.204072528084112
20
90.89909205436706
10
-13.199568026264494
20
91.232467619578046
10
-14.204323269923499
20
91.54269073009489
10
-15.222969456513693
20
91.825133721033723
10
-16.250874505440379
20
92.084424257278442
10
-17.288041949272134
20
92.315934673945108
10
-18.334468255440378
20
92.519664971033734
10
-19.390156956513714
20
92.695615148544306
10
-20.45047332247097
20
92.843778141339627
10
-21.520052083333333
20
92.968795744578031
10
-22.594260275363908
20
93.06603322823841
10
-23.673099664847044
20
93.135483527183538
10
-24.761197916666653
20
93.177153706550598
10
-25.849296168486269
20
93.191043766339618
10
-26.942025617758432
20
93.181788436571765
10
-28.034755067030584
20
93.144745922088617
10
-29.132113947470973
20
93.07992328802743
10
-30.22947282791138
20
92.987320534388203
10
-31.326833474636061
20
92.871565326054906
10
-32.42419412136077
20
92.728022933006287
10
-33.521551235516867
20
92.556707485516867
10
-34.614280684788994
20
92.357611918449408
10
-35.707010134061186
20
92.135356831550595
10
-36.795108385880788
20
91.88995635509491
10
-37.878578972816456
20
91.612148094177257
10
-38.957418362299606
20
91.315815043449419
10
-40.031626554330167
20
90.991694808006272
10
-41.101203548908238
20
90.63980151812234
10
-42.161521681149793
20
90.264755773544309
10
-43.217208615938816
20
89.86655757427215
10
-44.259005490938812
20
89.445206920305878
10
-45.296171168486254
20
88.996076146761567
10
-46.324077983697229
20
88.523799983660382
10
-47.342722404003148
20
88.032991965611771
10
-48.347480297088623
20
87.514410893122346
10
-49.338344597816445
20
86.977305030822748
10
-50.319946503639208
20
86.412419048945111
10
-51.292293079694119
20
85.829015342394513
10
-52.246114865938821
20
85.222459181149787
10
-53.186046592394483
20
84.597378230094904
10
-54.112088259061181
20
83.949151889483147
10
-55.024239865938824
20
83.282400759061176
10
-55.917870215574879
20
82.597131903966257
10
-56.797610505421957
20
81.88871059417724
10
-57.65882953802744
20
81.161764494578037
10
-58.501527313391364
20
80.420935400327039
10
-59.325700298945122
20
79.656946786244717
10
-60.131359092394504
20
78.879075177510586
10
-60.91386543114978
20
78.082678778966255
10
-61.682481710116043
20
77.26775759061178
10
-62.427945534388229
20
76.438953407605496
10
-63.150256903966266
20
75.596252099672952
10
-63.854043483734138
20
74.735033067067448
10
-64.534684673945094
20
73.864558704694105
10
-65.192180474599198
20
72.975559552510575
10
-65.831144420305904
20
72.077298005421937
10
-66.442335311571725
20
71.160518733660382
10
-67.030366683006278
20
70.239104731877632
10
-67.59525266488393
20
69.299173005421963
10
-68.132358527183541
20
68.3546065489451
10
-68.646311934789011
20
67.396157097816456
10
-69.137112887700397
20
66.428445251782748
10
-69.600133721033728
20
65.451471010843889
10
-70.03537443478902
20
64.46523437499998
10
-70.442835028966257
20
63.474370074272159
10
-70.82714316844941
20
62.474243378639201
10
-71.183664123217255
20
61.469489018122339
10
-71.5124120235443
20
60.455472262700383
10
-71.81337273915608
20
59.441455507278427
10
-72.086560400327045
20
58.418183422088632
10
-72.33196087678273
20
57.394907804330167
10
-72.544946503639224
20
56.362369791666666
10
-72.734786740938816
20
55.334462976455697
10
-72.892212128639201
20
54.301928496360787
10
-73.021857396761575
20
53.264759286244697
10
-73.123722545305881
20
52.232224806149787
10
-73.19317990938822
20
51.19505559603374
10
-73.23485008875528
20
50.16252111593883
10
-73.2487401485443
20
49.1299831032753
10
-73.230215358734128
20
48.102079820632909
10
-73.183917514483127
20
47.074173005421962
10
-73.10520482063292
20
46.050897387663511
10
-72.998704942067448
20
45.027618237336469
10
-72.859804344177235
20
44.013605014483133
10
-72.693116561571742
20
43.004219456513709
10
-72.494013929367057
20
41.999465095996833
10
-72.267138242721558
20
41.003969597816443
10
-72.012475371360779
20
40.017732961972555
10
-71.72539765040078
20
39.036131056149792
10
-71.405919210116082
20
38.063788012663522
10
-71.058653585116048
20
37.100703831513698
10
-70.683600775400791
20
36.146878512700383
10
-70.276147246360779
20
35.202319121360773
10
-69.840906532605473
20
34.271646257241564
10
-69.377885699272156
20
33.35486345291136
10
-68.882450016339604
20
32.447343043486256
10
-68.363868943850193
20
31.553712693850201
10
-67.812873021761561
20
30.673972404003116
10
-67.229469315210963
20
29.808125706513696
10
-66.62291315396628
20
28.960796733697261
10
-65.983942143122349
20
28.122728389501546
10
-65.321825742721529
20
27.303183068831764
10
-64.631922157605473
20
26.502155472834875
10
-63.909610788027436
20
25.719650900363924
10
-63.164146963755279
20
24.951036387681942
10
-62.390903019905082
20
24.200943132241541
10
-61.594506621360772
20
23.469369367758432
10
-60.770330103238436
20
22.760948057969408
10
-59.918366400400807
20
22.071046239137615
10
-59.043260840574888
20
21.399667443831749
10
-58.140368096033718
20
20.746808139483107
10
-57.214326429367041
20
20.121728954712552
10
-56.265135840574906
20
19.510541596015273
10
-55.292792797088623
20
18.927136123180375
10
-54.297297298908227
20
18.366879572470957
10
-53.27402168114979
20
17.825146045287454
10
-52.232224806149794
20
17.311192637681945
10
-51.171906673908225
20
16.81576048731803
10
-50.083808422088623
20
16.348110222816469
10
-48.977188913027433
20
15.908240077892907
10
-47.852048146724698
20
15.486891190210955
10
-46.703754925727836
20
15.09332242210704
10
-45.53694398005802
20
14.727536423007647
10
-44.351608244578038
20
14.38490111231804
10
-43.147754784425075
20
14.070046804348614
10
-41.925380067030567
20
13.782974382241548
10
-40.689115289847066
20
13.519051765402157
10
-39.429698057969404
20
13.282911034425069
10
-38.161021963755275
20
13.07455218931038
10
-36.873824612299579
20
12.893974346915867
10
-35.56810247103374
20
12.741177507241563
10
-34.253124999999997
20
12.616161670287433
10
-32.919626271724681
20
12.523557150363921
10
-31.576865148544289
20
12.454104201992342
10
-30.220213965574878
20
12.412432256340978
10
-28.85430215398469
20
12.398541313409794
10
-27.469869085152947
20
12.417062570651368
10
-26.080806585152914
20
12.463364830613115
10
-24.677854025363921
20
12.537448093295074
10
-23.270270268122324
20
12.639312358697254
10
-21.848796451091758
20
12.768958509961761
10
-20.422693202892933
20
12.931015978256838
10
-18.987327559789009
20
13.120854449272157
10
-17.5427030543486
20
13.338473923007626
10
-16.093447351455691
20
13.588505596915876
10
-14.639562217394511
20
13.861687076091743
10
-13.181046769022942
20
14.167281638582541
10
-11.717901006340982
20
14.500656320651363
10
-10.250124929348596
20
14.861812005440378
10
-8.7823488523562521
20
15.255380773544285
10
-7.3099429026245897
20
15.672098463773722
10
-5.8329061970114644
20
16.121229237318023
10
-4.3558699329694095
20
16.598140130440367
10
-2.8834635416666554
20
17.098203478256849
10
-1.4064270568390438
20
17.630676376819594
10
0.070609372792176939
20
18.190932927529019
10
1.5430155985057437
20
18.774338400363895
10
3.0154217690229479
20
19.385525759061174
10
4.483197846015301
20
20.029124434788997
10
5.9463436086972621
20
20.691244367758436
10
7.4094893713792365
20
21.385775617758402
10
8.8633753885825737
20
22.103457556168241
10
10.312630208333342
20
22.848921380440366
10
11.757255596915899
20
23.617535893122337
10
13.197249788045887
20
24.409302860498407
10
14.627984233697262
20
25.228848181168232
10
16.054089248180393
20
26.071547722816469
10
17.466302436590205
20
26.937396186590199
10
18.873886193831776
20
27.831026536226243
10
20.267578125000032
20
28.743176376819612
10
21.656640625000026
20
29.678480438391354
10
23.031813065210983
20
30.636933422088624
10
24.397723110516889
20
31.613907663027419
10
25.749744862318067
20
32.614030826091749
10
27.087874788045895
20
33.637306443850186
10
28.416744085152974
20
34.674475653966248
10
29.731725088755301
20
35.73479025363919
10
31.028181302547473
20
36.818260840574887
10
32.315378654003148
20
37.915621487299589
10
33.588685945669816
20
39.031499858697238
10
34.843475512663538
20
40.165899487336475
10
36.079740289847095
20
41.314192708333309
10
37.306746204694143
20
42.481003654003125
10
38.510599664847092
20
43.666339389483127
10
39.700563065210993
20
44.860933987299596
10
40.872005208333363
20
46.074046309789011
10
42.024926094214159
20
47.301052224636074
10
43.159329255421994
20
48.541948199272142
10
44.275207626819636
20
49.792103036244704
10
45.372568273544346
20
51.056151465574892
10
46.446776465574914
20
52.329458757241561
10
47.502463400363936
20
53.616656108697271
10
48.5396290779114
20
54.908484657605499
10
49.558277030785909
20
56.214203266302725
10
50.553772528966306
20
57.529180737336489
10
51.526115572452589
20
58.848792938391355
10
52.475306161244731
20
60.173029271761578
10
53.405979025363933
20
61.511159197489398
10
54.313499434789058
20
62.849289123217275
10
55.197870922088647
20
64.192053778966269
10
56.063717619578057
20
65.54407376448313
10
56.901787730058075
20
66.896093749999991
10
57.721333050727878
20
68.248113735516867
10
58.513098251819635
20
69.604768451054895
10
59.281710998217292
20
70.96604376633961
10
60.031809552510602
20
72.322698481877637
10
60.754120922088639
20
73.683980862299592
10
61.45327983697257
20
75.040628512700394
10
62.129293362299649
20
76.397283228238408
10
62.77751970291142
20
77.749303213755269
10
63.407228318850244
20
79.101323199272159
10
64.009156815211014
20
80.444080789883913
10
64.587932856877671
20
81.786845445632949
10
65.138928778966303
20
83.12497537136079
10
65.671399911244734
20
84.453842902183538
10
66.176090923945139
20
85.773455103238433
10
66.657636547088643
20
87.088432574272161
10
67.116022650400822
20
88.394147650400782
10
67.546635699272173
20
89.69524212678273
10
67.954096293449425
20
90.982439478238405
10
68.338404432932577
20
92.255746769905073
10
68.699560117721589
20
93.524419331550604
10
69.03293568293256
20
94.774581233660371
10
69.34778645833336
20
96.015473675727847
10
69.634857114156119
20
97.242476058006289
10
69.898782380421977
20
98.455595445632937
10
70.139555191993736
20
99.650190043449399
10
70.357168483734156
20
100.83088751633963
10
70.551643451054929
20
101.99770199457804
10
70.727586563428289
20
103.1459916830063
10
70.875756621360793
20
104.27576364676158
10
71.000774224599226
20
105.38701788584392
10
71.107267038027487
20
106.47511260509491
10
71.190607396761592
20
107.54932432969412
10
71.250802365938867
20
108.60038359959921
10
71.287844880421986
20
109.63291807969411
10
71.306362605094932
20
110.64230010509492
10
71.306362605094932
20
111.62853674093883
10
71.283210150400834
20
112.59162092208862
10
71.236912306149819
20
113.53155264854433
10
71.17208967208866
20
114.44833192030588
10
71.093376978238453
20
115.33733107248942
10
70.991511829694133
20
116.20318483511608
10
70.871121891339627
20
117.04125141302745
10
70.732221293449427
20
117.85616553624472
10
70.574788840611802
20
118.64330660502117
10
70.398845728238442
20
119.40265342394511
10
70.204377826054909
20
120.12959952354433
10
69.996012798945131
20
120.83338610331218
10
69.773764777183544
20
121.5047719637553
10
69.532991965611814
20
122.14836357434592
10
69.278336159388246
20
122.76418919563295
10
69.005148498217295
20
123.34759996732076
10
68.722705507278462
20
123.89858175913491
10
68.421744791666697
20
124.4217975616455
10
68.106894016265912
20
124.91259851455689
10
67.782773780822794
20
125.37099874814352
10
67.444770550727867
20
125.79234940210978
10
67.092877260843949
20
126.18590580622356
10
66.731721576054909
20
126.54706149101257
10
66.36130349636079
20
126.87118172645569
10
65.976995356877666
20
127.16752184232077
10
65.5880595525106
20
127.42681237856546
10
65.185226623217289
20
127.64905333518982
10
64.773138364156111
20
127.83889357248944
10
64.35642244021102
20
127.99631896018983
10
63.930444121360814
20
128.11207416852315
10
63.495203407605523
20
128.20004925727847
10
63.05996269385021
20
128.25098889668783
10
62.610831920305912
20
128.26487895647685
10
62.161701146761608
20
128.24171943664552
10
61.70794270833337
20
128.18615919748942
10
61.249549539883958
20
128.08892877896628
10
60.786528706550619
20
127.95928351084392
10
60.318880208333347
20
127.79722339312237
10
59.851231710116096
20
127.59349309603374
10
59.378948481877686
20
127.35734794934589
10
58.906665253639254
20
127.07954675356548
10
58.439016755421974
20
126.76931657791137
10
57.966733527183564
20
126.42205095291139
10
57.494453831513766
20
126.03774987856546
10
57.022170603275335
20
125.62101982434592
10
56.554522105058055
20
125.16263372103374
10
56.08687007427217
20
124.67183276812236
10
55.623849240938839
20
124.14399636586508
10
55.165459605058054
20
123.57911038398743
10
54.70706643660867
20
122.98180955251058
10
54.257939195632957
20
122.34283854166668
10
53.808808422088667
20
121.67145268122354
10
53.3689365108808
20
120.96766610145568
10
52.938326994578063
20
120.22682994206747
10
52.507717478275318
20
119.44895833333334
10
52.091001554330198
20
118.63403714497885
10
51.678909762700414
20
117.79134290218354
10
51.27145270109181
20
116.91160614490511
10
50.877885699272163
20
115.9948198080063
10
50.493577559789045
20
115.04563275178272
10
50.118531815211
20
114.06402378082275
10
49.752744932969449
20
113.05000702540082
10
49.400848110516904
20
112.00358248551687
10
49.058213682969424
20
110.92474309603374
10
48.72946931521102
20
109.81349592208861
10
48.40998380978904
20
108.66983389854431
10
48.104391896724721
20
107.4937570254008
10
47.817317708333377
20
106.28990709781647
10
47.539505914847062
20
105.05364232063293
10
47.275584181149839
20
103.78959035873413
10
47.025552507241585
20
102.49313767751056
10
46.794042090574912
20
101.16889781157175
10
46.576421733697295
20
99.816877826054892
10
46.377322634061187
20
98.432442990938824
10
46.192113594214135
20
97.024862766265869
10
46.020798146724715
20
95.589495356877649
10
45.87263162136081
20
94.126347827911374
10
45.738355155785911
20
92.640054909388226
10
45.622599947452578
20
91.125974806149799
10
45.52536599636079
20
89.588742248217258
10
45.446649769941999
20
88.023736635843903
10
45.386458333333344
20
86.440206233660376
10
45.344788153966284
20
84.82888864676157
10
45.321635699272171
20
83.199060400327042
10
45.321635699272193
20
81.541444969177249
10
45.335525759061206
20
79.869939478238422
10
45.377199470996892
20
78.175281532605482
10
45.432759710152951
20
76.457471132278442
10
45.511472404003158
20
74.721143007278442
10
45.61333755254747
20
72.970924822489408
10
45.733723958333343
20
71.197554183006275
10
45.872631621360817
20
69.410293483734137
10
46.034688206513749
20
67.604515059789037
10
46.219897246360809
20
65.784846576054889
10
46.4236240108808
20
63.946653302510569
10
46.650506762663547
20
62.099197634061163
10
46.90053490400318
20
60.233224240938824
10
47.173719032605526
20
58.357988452911371
10
47.465420885880825
20
56.468866137663525
10
47.78027519385023
20
54.565850230058032
10
48.113650759061208
20
52.653571927547432
10
48.47480644385022
20
50.732034762700387
10
48.854483385880833
20
48.801238735516854
10
49.25731278260551
20
46.861183845996848
10
49.683291101455723
20
44.911863029003143
10
50.12779067754748
20
42.95791807969411
10
50.595442708333358
20
40.994707202911371
10
51.086243661244744
20
39.031499858697259
10
51.595569403966302
20
37.059030119578026
10
52.12804053624474
20
35.081932715574887
10
52.683667655785904
20
33.100204114119201
10
53.257812500000014
20
31.118475512663526
10
53.855109798908259
20
29.136745144923527
10
54.475556019941976
20
27.150385346015288
10
55.114527030785901
20
25.164025547107055
10
55.772015766302772
20
23.182296945651363
10
56.452656956513749
20
21.19593714674313
10
57.151819403966272
20
19.214208545287445
10
57.869499576091798
20
17.232479943831734
10
58.610332202911394
20
15.260010204712547
10
59.369686086972571
20
13.287541348735473
10
60.147564760843935
20
11.319702807068792
10
60.943961159388266
20
9.3564945797125336
10
61.758875282605516
20
7.4025469809770525
10
62.592314195632966
20
5.4532292549808634
10
63.444270833333356
20
3.5085416225095294
10
64.310117530822794
20
1.5777448225766149
10
65.199116683006309
20
-0.3484218838314293
10
66.102012960116085
20
-2.2606979784866299
10
67.018792231877654
20
-4.1637136653065738
10
67.954096293449425
20
-6.0574689442912844
10
68.903283349672975
20
-7.937333721915893
10
69.871002260843952
20
-9.8079374293486605
10
70.847976501782767
20
-11.664651076992374
10
71.843468467394558
20
-13.507473781704931
10
72.852857557932566
20
-15.331776112318067
10
73.871501978238442
20
-17.14681693116826
10
74.904036458333366
20
-18.943338259061207
10
75.950460998217295
20
-20.725969527165123
10
77.01078266302747
20
-22.490077771743159
10
78.0757319927216
20
-24.235666525363943
10
79.154564317067482
20
-25.967365219195699
10
80.247293766339652
20
-27.680540889501582
10
81.34465794563296
20
-29.37056763768199
10
82.451277454694164
20
-31.042071362336486
10
83.571787023544331
20
-32.695055596033768
10
84.69229659239457
20
-34.329522105058047
10
85.826696221033743
20
-35.940832626819613
10
86.965730579694153
20
-37.528994226455723
10
88.109392603238433
20
-39.09863456885023
10
89.257682291666711
20
-40.640494791666697
10
90.410606710116099
20
-42.163833757241598
10
91.56815879344947
20
-43.664020268122385
10
92.730338541666683
20
-45.141057856877673
10
93.89715301990509
20
-46.590311793486308
10
95.063960433006315
20
-48.016416807969442
10
96.230774911244708
20
-49.419369367758463
10
97.402217054367114
20
-50.799173005421977
10
98.573659197489491
20
-52.146561793486299
10
99.740473675727884
20
-53.475432856877688
10
100.91191581885026
20
-54.771889070669843
10
102.07873029708864
20
-56.045196362336483
10
103.24091004530595
20
-57.290723534425126
10
104.40309685866043
20
-58.513098251819649
10
105.56064894199372
20
-59.703061652183571
10
106.71356629530594
20
-60.865241400400805
10
107.8618559837342
20
-62.004275759061215
10
109.00551800727851
20
-63.110895268122384
10
110.13992470105491
20
-64.189734657605499
10
111.26968959967299
20
-65.245421592394536
10
112.39020623366042
20
-66.268700742721592
10
113.50145340760554
20
-67.264192708333354
10
114.60807291666669
20
-68.22727688948315
10
115.70080236593887
20
-69.167208615938861
10
116.7842694203059
20
-70.074732557932549
10
117.85384641488398
20
-70.954469315210986
10
118.91416101455691
20
-71.80179828802747
10
119.96059261957808
20
-72.625974806149841
10
120.99313416481019
20
-73.417736474672978
10
122.01177151997888
20
-74.181725088755329
10
123.02116767565416
20
-74.913298853238459
10
124.00739018122363
20
-75.617085433006324
10
124.98437148729964
20
-76.29309895833336
10
125.93819327354436
20
-76.941325298945159
10
126.87812500000005
20
-77.557143855094935
10
127.80416666666673
20
-78.1451822916667
10
128.70706294377646
20
-78.70544060866041
10
129.59142030080162
20
-79.237911740938841
10
130.45728112856548
20
-79.737975088755306
10
131.29996830622358
20
-80.214885981877657
10
132.12414482434593
20
-80.659382025400831
10
132.92517595291139
20
-81.080732679367102
10
133.70768229166669
20
-81.469668483734182
10
134.462408510844
20
-81.830831233660433
10
135.19860994021099
20
-82.168834463755317
10
135.90703125000002
20
-82.474429909388235
10
136.59230717023217
20
-82.756872900327082
10
137.25442357063292
20
-83.011528706550649
10
137.88875985145569
20
-83.23841145833336
10
138.49531601270041
20
-83.442141755422
10
139.07872678438827
20
-83.618091932932572
10
139.6343433062236
20
-83.766254925727864
10
140.16219383875534
20
-83.891272528966283
10
140.6622501214346
20
-83.993137677510603
10
141.13454041481023
20
-84.07185037136081
10
141.57903645833335
20
-84.122782945632963
10
141.99113178253177
20
-84.150563065211017
10
142.37543285687767
20
-84.15519073009493
10
142.73195381164552
20
-84.141300670305924
10
143.05143931706752
20
-84.099630490938836
10
143.34314470291145
20
-84.039435521761604
10
143.6070699691773
20
-83.95609516302747
10
143.83394565582279
20
-83.849602349599209
10
144.03304122289026
20
-83.72458474636079
10
144.19510134061181
20
-83.581049418449425
10
144.3293813387553
20
-83.414361635843932
10
144.42661175727844
20
-83.229149063428252
10
144.49606205622356
20
-83.025418766339669
10
144.5284769058228
20
-82.803170744578068
10
144.52384217580163
20
-82.56703266302749
10
144.49144145647691
20
-82.307742126782756
10
144.42199115753181
20
-82.034554465611791
10
144.31549127896633
20
-81.74748380978906
10
144.17657655080166
20
-81.4418883641561
10
144.00526110331219
20
-81.122402858734148
10
143.79691020647692
20
-80.784399628639235
10
143.55150973002122
20
-80.437134003639244
10
143.27369440396632
20
-80.075978318850233
10
142.95884362856552
20
-79.700932574272201
10
142.61157800356548
20
-79.316624434789048
10
142.22726279894519
20
-78.91842623551689
10
141.80591214497889
20
-78.506337976455725
10
141.35216077168789
20
-78.08498732248944
10
140.86135981877649
20
-77.659009003639241
10
140.33350928624478
20
-77.219140625000037
10
139.76862330436714
20
-76.770009851455725
10
139.17132247289027
20
-76.316251413027473
10
138.5369861920675
20
-75.853230579694127
10
137.87023506164553
20
-75.380947351455717
10
137.16644848187769
20
-74.904036458333366
10
136.42561232248946
20
-74.422497900327073
10
135.65237544377646
20
-73.936324612299615
10
134.84208898544313
20
-73.445523659388257
10
133.9947529474895
20
-72.950087976455734
10
133.11501619021104
20
-72.450024628639241
10
132.20286458333337
20
-71.949961280822777
10
131.25367752710986
20
-71.445270268122385
10
130.27206149101264
20
-70.940579255421994
10
129.25805886586511
20
-70.435888242721589
10
128.20699253082284
20
-69.931190164883972
10
127.12352547645573
20
-69.421871487299612
10
126.00764357248948
20
-68.921808139483161
10
124.85936094919848
20
-68.41711712678277
10
123.67864934603378
20
-67.917053778966306
10
122.46553702354434
20
-67.416990431149813
10
121.22000985145576
20
-66.921554748217304
10
119.94206782976788
20
-66.430753795305918
10
118.63635981877651
20
-65.944580507278459
10
117.29822282791142
20
-65.463041949272181
10
115.92768511772161
20
-64.986131056149816
10
114.52936022281648
20
-64.518482557932572
10
113.10325520833338
20
-64.050826994578088
10
111.64474240938824
20
-63.597068556149821
10
110.15844242572784
20
-63.14793778260551
10
108.64899705251062
20
-62.708069403966284
10
107.10713682969413
20
-62.272828690211014
10
105.54212415218356
20
-61.851478036244742
10
103.94933135509497
20
-61.43938977718355
10
102.32875843842827
20
-61.036563913027479
10
100.68503306706748
20
-60.642993378639254
10
99.013534641265892
20
-60.258685239156122
10
97.318876695632952
20
-59.888274224599243
10
95.601066295305912
20
-59.531746204694144
10
93.860110505422014
20
-59.184480579694146
10
92.100629925727901
20
-58.85110501448316
10
90.313369226455734
20
-58.531619509061215
10
88.507590802510606
20
-58.226027595996889
10
86.683287588755334
20
-57.934322210152949
10
84.835831920305935
20
-57.651879219214131
10
82.969858527183561
20
-57.387957485516914
10
81.089995074272196
20
-57.142557009061193
10
79.186979166666688
20
-56.906415394941988
10
77.265445534388235
20
-56.688798570632947
10
75.334642442067491
20
-56.489699470996875
10
73.38070102532707
20
-56.304490431149816
10
71.417490148544331
20
-56.133171451091783
10
69.43576154708866
20
-55.985004925727878
10
67.440142885843954
20
-55.850728460152972
10
65.435261829694142
20
-55.730342054367092
10
63.416490713755316
20
-55.633108103275305
10
61.383829538027484
20
-55.549764211972573
10
59.341905967394524
20
-55.4849415779114
10
57.290723534425112
20
-55.438640201091793
10
55.234909904003175
20
-55.410860081513761
10
53.165209746360816
20
-55.401597686608653
10
51.090874858697283
20
-55.410860081513754
10
49.007281108697271
20
-55.443271398544347
10
46.919056161244733
20
-55.489572775363946
10
44.821572351455721
20
-55.554395409425112
10
42.724088541666703
20
-55.642370498180405
10
40.621973534425138
20
-55.744235646724718
10
38.515230862299632
20
-55.869249717394531
10
36.408484657605513
20
-56.012785045305897
10
34.301738452911394
20
-56.17484516302747
10
32.190364583333341
20
-56.360050670305924
10
30.08361837863923
20
-56.559149769941975
10
27.976875706513763
20
-56.781401324272203
10
25.870129501819633
20
-57.022170603275335
10
23.768016260862375
20
-57.281464672088646
10
21.665901253620817
20
-57.559276465574925
10
19.568417443831784
20
-57.855609516302771
10
17.480192496379246
20
-58.170463824272183
10
15.391969315210989
20
-58.508467054367074
10
13.313004996379252
20
-58.860363876819633
10
11.243302189310405
20
-59.235413153966299
10
9.1782288134098309
20
-59.624348958333364
10
7.1224165077011081
20
-60.036437217394521
10
5.0758643890420876
20
-60.462415536244748
10
3.0432032133142406
20
-60.906918644905133
10
1.0198021142433422
20
-61.369939478238457
10
-0.99433857699234429
20
-61.851478036244735
10
-2.9945884356896002
20
-62.351541384061207
10
-4.9809477930267327
20
-62.865494791666698
10
-6.9534166490038141
20
-63.397965923945129
10
-8.9119950036207598
20
-63.948961846033768
10
-10.856681973735473
20
-64.513847827911405
10
-12.782848569750755
20
-65.092623869578077
10
-14.695125105977045
20
-65.68992470105492
10
-16.588879501819584
20
-66.301108527183573
10
-18.464115289847037
20
-66.926189478238442
10
-20.320828054348603
20
-67.569788153966286
10
-22.154390130440376
20
-68.222649224599252
10
-23.974062146743115
20
-68.894028019905107
10
-25.770583474636084
20
-69.574669210116113
10
-27.543952347834896
20
-70.269200460116082
10
-29.298801730076466
20
-70.977621769905127
10
-31.030500423908222
20
-71.69993313948315
10
-32.739048429330161
20
-72.43150690396628
10
-34.42444398005803
20
-73.176970728238445
10
-36.086687076091749
20
-73.931689882278476
10
-37.721150052547465
20
-74.695678496360813
10
-39.33246410687763
20
-75.468922440211003
10
-40.915994509061179
20
-76.256056443850213
10
-42.476375989119191
20
-77.047825177510589
10
-44.008973817030579
20
-77.848849240938861
10
-45.513791525363914
20
-78.659135699272184
10
-46.990829114119208
20
-79.478684552510614
10
-48.444714248180382
20
-80.302861070632972
10
-49.866188065210991
20
-81.131665253639241
10
-51.255250565210972
20
-81.969731831550632
10
-52.62116061051686
20
-82.812433139483161
10
-53.954662871360767
20
-83.659762112299632
10
-55.255750282605504
20
-84.511718750000028
10
-56.529057574272144
20
-85.363675387700425
10
-57.774584746360773
20
-86.22489442030593
10
-58.983069403966262
20
-87.081485788027479
10
-60.163773941993725
20
-87.947332485516881
10
-61.312063630421932
20
-88.8085515181224
10
-62.432573199272163
20
-89.674398215611788
10
-63.516040253639204
20
-90.540251978238416
10
-64.5670995235443
20
-91.401471010843935
10
-65.58574394385019
20
-92.267317708333337
10
-66.57660824457804
20
-93.128536740938813
10
-67.52580236593883
20
-93.989755773544331
10
-68.447216367721552
20
-94.846347141265923
10
-69.336215519905096
20
-95.698303778966292
10
-70.188172157605493
20
-96.550260416666731
10
-71.01234867572785
20
-97.392961724599218
10
-71.794855014483133
20
-98.23565596739455
10
-72.549581233660376
20
-99.069094880422
10
-73.267257873217261
20
-99.893271398544357
10
-73.952533793449405
20
-100.71744791666673
10
-74.605387798945117
20
-101.52773437500004
10
-75.221206355094907
20
-102.3333931684494
10
-75.80461712678273
20
-103.12978956699374
10
-76.355605983734122
20
-103.91692357063295
10
-76.869559391339607
20
-104.69479517936712
10
-77.351105014483124
20
-105.45878379344944
10
-77.800235788027436
20
-106.21350294748943
10
-78.212324047088629
20
-106.95433910687767
10
-78.591997456550587
20
-107.68591287136081
10
-78.939263081550607
20
-108.40359657605497
10
-79.254120922088617
20
-109.1073831558228
10
-79.536563913027436
20
-109.79728674093889
10
-79.781964389483136
20
-110.47330026626594
10
-79.994950016339615
20
-111.13541666666671
10
-80.18016258875528
20
-111.77901534239456
10
-80.328325581550587
20
-112.40872395833337
10
-80.448715519905093
20
-113.01991484959926
10
-80.532055878639213
20
-113.61258095105491
10
-80.587623182932532
20
-114.19135699272161
10
-80.61076857248942
20
-114.74698057969414
10
-80.601513242721552
20
-115.28871410687765
10
-80.559835998217281
20
-115.80729517936709
10
-80.490385699272167
20
-116.30735852718358
10
-80.393148215611774
20
-116.78426942030595
10
-80.2635029474894
20
-117.24266258875531
10
-80.106077559789014
20
-117.68253096739457
10
-79.916237322489422
20
-118.09924689133966
10
-79.703251695632943
20
-118.49281742572786
10
-79.457851219177243
20
-118.86323550542203
10
-79.184663558006278
20
-119.210501130422
10
-78.888330507278425
20
-119.53462136586511
10
-78.55958967208862
20
-119.83558208147686
10
-78.207689317067462
20
-120.11339740753175
10
-77.82801590760549
20
-120.36341848373418
10
-77.425190043449405
20
-120.59030830065413
10
-76.999211724599206
20
-120.79402446746828
10
-76.545446221033714
20
-120.96997464497883
10
-76.068535327911377
20
-121.12277943293256
10
-75.568471980094913
20
-121.2431552410126
10
-75.045263242721546
20
-121.34502038955694
10
-74.498894985516856
20
-121.41448481877651
10
-73.934009003639218
20
-121.45615499814353
10
-73.345970567067468
20
-121.47466565767925
10
-72.739414405822757
20
-121.46541032791143
10
-72.109705789883932
20
-121.42374014854433
10
-71.466107114156102
20
-121.35891044934594
10
-70.799355983734131
20
-121.26631476084393
10
-70.114087128639227
20
-121.14129009246831
10
-69.414928213755275
20
-120.98849943478908
10
-68.697244509061179
20
-120.80792865753179
10
-67.961043079694107
20
-120.59956363042197
10
-67.210944525400777
20
-120.36341848373418
10
-66.446962976455666
20
-120.09487261772159
10
-65.669091367721535
20
-119.79853250185656
10
-64.877322634061173
20
-119.47442639668786
10
-64.071663840611762
20
-119.12252604166669
10
-63.256749717394491
20
-118.73822496732076
10
-62.427945534388201
20
-118.32612964312236
10
-61.589871891339627
20
-117.88163359959923
10
-60.737915253639223
20
-117.40935037136084
10
-59.881330951054892
20
-116.90928702354438
10
-59.010849523544302
20
-116.38144355614985
10
-58.13574043114977
20
-115.82118523915611
10
-57.256000141302728
20
-115.23315386772155
10
-56.367000989119191
20
-114.61733531157179
10
-55.468739442030596
20
-113.96910190582278
10
-54.570477894941959
20
-113.29309544563294
10
-53.66295748551687
20
-112.5893018007279
10
-52.755437076091745
20
-111.85772803624472
10
-51.843285469214109
20
-111.0983741521836
10
-50.926506197452532
20
-110.31124014854434
10
-50.00972339312235
20
-109.4916912953059
10
-49.092944121360773
20
-108.64899705251059
10
-48.176161317030584
20
-107.77851562500005
10
-47.259378512700401
20
-106.87562641302749
10
-46.342599240938824
20
-105.94958474636078
10
-45.425816436608613
20
-104.9957629601161
10
-44.51366836229959
20
-104.01878871917725
10
-43.606144420305867
20
-103.01403435866038
10
-42.698624010880792
20
-101.9814928134283
10
-41.795734798908235
20
-100.9211782137553
10
-40.902104449272159
20
-99.842338824272161
10
-40.008474099636054
20
-98.731091650327087
10
-39.124102612336451
20
-97.601319686571799
10
-38.248993519941948
20
-96.443767603238442
10
-37.378515624999991
20
-95.267690730094955
10
-36.517296592394494
20
-94.063840802510612
10
-35.665339954694105
20
-92.83683135509493
10
-34.82264217933016
20
-91.591304183006329
10
-33.989203266302752
20
-90.317996891339689
10
-33.165026748180381
20
-89.030799539883944
10
-32.354740289847037
20
-87.715822068850258
10
-31.553712693850198
20
-86.382319808006329
10
-30.766578690210981
20
-85.030299822489454
10
-29.99333474636078
20
-83.659762112299632
10
-29.233979096015265
20
-82.266064882278471
10
-28.488515271743118
20
-80.858484657605516
10
-27.756943273544302
20
-79.432379643122388
10
-27.039259568850191
20
-77.983122173945134
10
-26.3354694565137
20
-76.524609375000026
10
-25.650197068850176
20
-75.047571786244745
10
-24.983447704712543
20
-73.55201647281649
10
-24.330588400363915
20
-72.042571099599229
10
-23.700879784425094
20
-70.523856266339649
10
-23.085062994559607
20
-68.986630773544334
10
-22.487765695651344
20
-67.43550815582276
10
-21.908989653984708
20
-65.875130208333346
10
-21.348734869559578
20
-64.300862201054912
10
-20.811630773544284
20
-62.717324733734152
10
-20.288416737318027
20
-61.119904271761612
10
-19.792984586954109
20
-59.513221414883958
10
-19.3114424963792
20
-57.90191089312237
10
-18.85768229166667
20
-56.276706779003185
10
-18.422443344195678
20
-54.646875000000009
10
-18.005723887681931
20
-53.007780826091782
10
-17.616786317030567
20
-51.364058987299629
10
-17.246370003620783
20
-49.711071221033755
10
-16.899104378620788
20
-48.058086987336502
10
-16.574989442030574
20
-46.395843891302782
10
-16.274025193850171
20
-44.733597262700435
10
-15.996213400363914
20
-43.066722969214162
10
-15.746181726455662
20
-41.395217478275335
10
-15.51467130978901
20
-39.728343184789054
10
-15.306313347816454
20
-38.056837693850227
10
-15.125733739137637
20
-36.3853322029114
10
-14.968306585152931
20
-34.713826711972573
10
-14.834031885862331
20
-33.04232122103376
10
-14.727536423007647
20
-31.375446927547493
10
-14.644192531704876
20
-29.713203831513752
10
-14.584000211954118
20
-28.05095896919569
10
-14.546958580613104
20
-26.393343538045912
10
-14.537697951992349
20
-24.74035930434863
10
-14.551588894923499
20
-23.092004501819645
10
-14.593260840574896
20
-21.452912094195714
10
-14.658083474636051
20
-19.818447351455696
10
-14.746057680249205
20
-18.19324500362081
10
-14.861812005440393
20
-16.577301518122379
10
-15.000717902183505
20
-14.965989230076486
10
-15.16277625362077
20
-13.368567884961788
10
-15.352614724636055
20
-11.780406285325718
10
-15.565603884061147
20
-10.206135628620805
10
-15.801745498180392
20
-8.6411247173945238
10
-16.065667231877626
20
-7.0900051906705208
10
-16.352739653984678
20
-5.5481458509961756
10
-16.662962764501572
20
-4.0248073269923825
10
-16.996338329712522
20
-2.5153593043486526
10
-17.352864583333332
20
-1.0198021142433182
10
-17.732541525363899
20
0.46186457450190205
10
-18.140000353256859
20
1.9250103371838609
10
-18.565978672107043
20
3.3696355049808577
10
-19.015109445651344
20
4.8003699506322324
10
-19.492020338773717
20
6.207953266302737
10
-19.987452489137645
20
7.6016460806131168
10
-20.501405896743137
20
8.9721873233715552
10
-21.043141190210978
20
10.324208192030564
10
-21.603395974636065
20
11.653078372279777
10
-22.18680144747097
20
12.963427295287431
10
-22.788729943831751
20
14.25062464674312
10
-23.409177931149777
20
15.519302507241559
10
-24.052776606877636
20
16.760198481877648
10
-24.714896539847043
20
17.977942001819581
10
-25.400167161226271
20
19.177166030804287
10
-26.099327842394512
20
20.348609940210977
10
-26.817009780804288
20
21.492270197470976
10
-27.557844173908212
20
22.612781532605478
10
-28.312566860516863
20
23.710140413045863
10
-29.08581257065137
20
24.779719173908216
10
-29.872948340574872
20
25.821516048908236
10
-30.678603601455663
20
26.840162235498426
10
-31.498152454694107
20
27.826395338773718
10
-32.336219032605491
20
28.789479519923518
10
-33.188175670305881
20
29.720150617758438
10
-34.054025900363897
20
30.623043362299573
10
-34.933766190210953
20
31.498152454694118
10
-35.827396539847037
20
32.345477894941965
10
-36.730285751819594
20
33.160395550727827
10
-37.651696221033724
20
33.947529554367065
10
-38.577737887700401
20
34.706886970996848
10
-39.522300811608609
20
35.429198340574892
10
-40.471494932969414
20
36.12836078802745
10
-41.434579114119217
20
36.790480720996833
10
-42.402290960152939
20
37.424817001819591
10
-43.383896398544294
20
38.031376695632929
10
-44.370129501819598
20
38.600890342394486
10
-45.365625000000009
20
39.142623869578053
10
-46.370379360516864
20
39.647318414847057
10
-47.379764918486273
20
40.124229307969379
10
-48.393781673908236
20
40.568728884061152
10
-49.417057291666644
20
40.98081714312233
10
-50.440332909425109
20
41.365125282605469
10
-51.472870922088617
20
41.712390907605474
10
-52.50540540218352
20
42.027245215574879
10
-53.537943414847042
20
42.309688206513712
10
-54.579740289847038
20
42.564347545305878
10
-55.616905967394494
20
42.781967902183524
10
-56.658702842394497
20
42.97180813948313
10
-57.7004997173945
20
43.124605862299603
10
-58.742296592394503
20
43.249619932969409
10
-59.779465802510572
20
43.337595021724681
10
-60.821262677510568
20
43.397786458333307
10
-61.858424822489404
20
43.425566577911354
10
-62.89096636772156
20
43.420938913027442
10
-63.92350084781647
20
43.383896398544302
10
-64.946772933006272
20
43.314442567030582
10
-65.970052083333314
20
43.217208615938809
10
-66.988696503639204
20
43.087563347816456
10
-67.998085594177255
20
42.925506762663517
10
-69.002839954694096
20
42.735666525363911
10
-70.002966650327039
20
42.513414971033711
10
-70.993830951054889
20
42.263386829694099
10
-71.975432856877632
20
41.98094383875528
10
-72.947779432932535
20
41.670717195669802
10
-73.915491278966257
20
41.328082768122336
10
-74.869313065210989
20
40.957668220996851
10
-75.813872456550598
20
40.559470021724707
10
-76.744548853238413
20
40.133488170305867
10
-77.665955789883924
20
39.679729731877636
10
-78.578107396761581
20
39.198187641302731
10
-79.471741278966263
20
38.688865431149786
10
-80.356112766265881
20
38.156390766302749
10
-81.226587128639224
20
37.591504784425098
10
-82.083178496360759
20
37.003469880421946
10
-82.925872739156077
20
36.392282521724709
10
-83.750049257278434
20
35.753311510880778
10
-84.560335715611785
20
35.09119157791136
10
-85.352104449272161
20
34.405922722816442
10
-86.129976058006292
20
33.697501413027446
10
-86.889329942067462
20
32.965927648544294
10
-87.634793766339612
20
32.211201429367051
10
-88.357112201054889
20
31.43332982063292
10
-89.060898780822754
20
30.63693342208861
10
-89.750802365938824
20
29.817384568850201
10
-90.417553496360767
20
28.979317990938824
10
-91.065779836972553
20
28.122728389501571
10
-91.690860788027436
20
27.247619297107057
10
-92.302044614156088
20
26.353988947470967
10
-92.885455385843926
20
25.437207909425076
10
-93.450341367721563
20
24.511166242758414
10
-93.996702559789028
20
23.561973887681958
10
-94.51528363227844
20
22.603520903984688
10
-95.015346980094904
20
21.626546663045865
10
-95.492257873217255
20
20.635682362318018
10
-95.95065104166666
20
19.630926235516842
10
-96.381257025400799
20
18.612281815210949
10
-96.788717619578051
20
17.579745568831765
10
-97.173025759061176
20
16.53794869383173
10
-97.534181443850215
20
15.486891190210955
10
-97.8721846739451
20
14.421942743659015
10
-98.182414849599212
20
13.347734551628417
10
-98.474113170305884
20
12.264265730977035
10
-98.738038436571742
20
11.176166596015275
10
-98.974176518122349
20
10.078807715574881
10
-99.191796874999994
20
8.9768176376819504
10
-99.3816371122996
20
7.8655678143103591
10
-99.543690164883941
20
6.7496876766284117
10
-99.68259782791138
20
5.6291772246360763
10
-99.798353036244706
20
4.5040364583333332
10
-99.886328124999991
20
3.3788959128160947
10
-99.951150759061164
20
2.2491250529885001
10
-99.988193273544312
20
1.1193541931609055
10
-100.00208333333333
20
-0.01041666666668925
10
-99.988193273544312
20
-1.1401875264942838
10
-99.951150759061193
20
-2.2699583863218784
10
-99.886328125000006
20
-3.3997292461494748
10
-99.798353036244706
20
-4.5248697916667
10
-99.682597827911366
20
-5.6500105579694306
10
-99.543690164883927
20
-6.7705210099617696
10
-99.3816371122996
20
-7.8864011476437561
10
-99.191796874999994
20
-8.9976509710153287
10
-98.974176518122349
20
-10.099641048908264
10
-98.73803843657177
20
-11.19699992934863
10
-98.474113170305884
20
-12.285099064310405
10
-98.182414849599212
20
-13.368567884961793
10
-97.8721846739451
20
-14.442776076992374
10
-97.534181443850201
20
-15.507724523544333
10
-97.173025759061176
20
-16.558782027165119
10
-96.788717619578051
20
-17.600578902165125
10
-96.381257025400799
20
-18.633115148544345
10
-95.95065104166666
20
-19.651759568850235
10
-95.492257873217284
20
-20.656515695651407
10
-95.015346980094918
20
-21.647379996379229
10
-94.51528363227844
20
-22.624354237318073
10
-93.996702559789028
20
-23.582807221015322
10
-93.450341367721549
20
-24.531999576091799
10
-92.885455385843898
20
-25.458041242758448
10
-92.302044614156088
20
-26.374822280804331
10
-91.690860788027436
20
-27.268452630440411
10
-91.065779836972567
20
-28.143561722834924
10
-90.417553496360782
20
-29.00015132427216
10
-89.750802365938824
20
-29.838217902183573
10
-89.060898780822754
20
-30.657766755421996
10
-88.357112201054889
20
-31.454163153966306
10
-87.634793766339612
20
-32.232034762700415
10
-86.889329942067462
20
-32.986760981877666
10
-86.129976058006292
20
-33.71833474636081
10
-85.352104449272147
20
-34.426756056149806
10
-84.560335715611771
20
-35.112024911244731
10
-83.750049257278434
20
-35.774144844214163
10
-82.925872739156091
20
-36.413115855058045
10
-82.083178496360773
20
-37.02430321375531
10
-81.22658712863921
20
-37.612338117758469
10
-80.356112766265881
20
-38.177224099636113
10
-79.471741278966263
20
-38.709698764483171
10
-78.578107396761567
20
-39.219020974636109
10
-77.665955789883924
20
-39.700563065211
10
-76.744548853238427
20
-40.154321503639238
10
-75.813872456550584
20
-40.580303355058064
10
-74.869313065210974
20
-40.978501554330229
10
-73.915491278966257
20
-41.348916101455693
10
-72.947779432932535
20
-41.691550529003152
10
-71.975432856877632
20
-42.001777172088659
10
-70.993830951054875
20
-42.284220163027484
10
-70.002966650327053
20
-42.534248304367075
10
-69.002839954694096
20
-42.756499858697268
10
-67.99808559417724
20
-42.946340095996895
10
-66.988696503639204
20
-43.108396681149806
10
-65.970052083333343
20
-43.238041949272166
10
-64.946772933006287
20
-43.335275900363932
10
-63.923500847816456
20
-43.404729731877666
10
-62.890966367721539
20
-43.441772246360806
10
-61.858424822489411
20
-43.44639991124474
10
-60.821262677510575
20
-43.418619791666671
10
-59.779465802510572
20
-43.358428355058052
10
-58.742296592394503
20
-43.270453266302766
10
-57.7004997173945
20
-43.145439195632981
10
-56.658702842394497
20
-42.992641472816473
10
-55.616905967394501
20
-42.802801235516874
10
-54.579740289847045
20
-42.58518087863925
10
-53.537943414847049
20
-42.330521539847091
10
-52.505405402183541
20
-42.048078548908272
10
-51.472870922088603
20
-41.733224240938853
10
-50.440332909425109
20
-41.385958615938847
10
-49.417057291666666
20
-41.001650476455715
10
-48.393781673908229
20
-40.58956221739453
10
-47.379764918486281
20
-40.145062641302765
10
-46.37037936051685
20
-39.668151748180414
10
-45.36562499999998
20
-39.163457202911388
10
-44.370129501819598
20
-38.621723675727878
10
-43.383896398544309
20
-38.052210028966293
10
-42.402290960152946
20
-37.445650335152962
10
-41.434579114119188
20
-36.811314054330197
10
-40.471494932969414
20
-36.149194121360786
10
-39.522300811608623
20
-35.450031673908249
10
-38.577737887700387
20
-34.727720304330219
10
-37.651696221033717
20
-33.968362887700408
10
-36.730285751819586
20
-33.181228884061198
10
-35.82739653984703
20
-32.366311228275329
10
-34.933766190210974
20
-31.518985788027468
10
-34.054025900363925
20
-30.643876695632937
10
-33.188175670305881
20
-29.740983951091771
10
-32.336219032605463
20
-28.810312853256871
10
-31.498152454694086
20
-27.847228672107079
10
-30.678603601455691
20
-26.860995568831797
10
-29.872948340574901
20
-25.842349382241597
10
-29.085812570651353
20
-24.800552507241569
10
-28.312566860516842
20
-23.730973746379224
10
-27.55784417390824
20
-22.633614865938835
10
-26.817009780804316
20
-21.513103530804337
10
-26.099327842394494
20
-20.369443273544334
10
-25.400167161226261
20
-19.197999364137669
10
-24.714896539847032
20
-17.998775335152953
10
-24.052776606877636
20
-16.781031815211012
10
-23.409177931149788
20
-15.540135840574933
10
-22.788729943831747
20
-14.271457980076498
10
-22.186801447470984
20
-12.984260628620811
10
-21.603395974636076
20
-11.67391170561314
10
-21.043141190210974
20
-10.345041525363957
10
-20.50140589674313
20
-8.9930206567049122
10
-19.98745248913762
20
-7.6224794139465013
10
-19.49202033877371
20
-6.2287865996361074
10
-19.015109445651369
20
-4.8212032839655929
10
-18.565978672107036
20
-3.3904688383142223
10
-18.140000353256859
20
-1.9458436705172135
10
-17.732541525363896
20
-0.48269790783527278
10
-17.352864583333336
20
0.99896878090995178
10
-16.996338329712522
20
2.494525971015277
10
-16.66296276450155
20
4.0039739936589971
10
-16.352739653984706
20
5.527312517662839
10
-16.065667231877615
20
7.0691718573371265
10
-15.801745498180367
20
8.6202913840611561
10
-15.565603884061161
20
10.185302295287421
10
-15.352614724636048
20
11.75957295199235
10
-15.162776253620782
20
13.347734551628401
10
-15.000717902183522
20
14.945155896743113
10
-14.861812005440367
20
16.556468184789011
10
-14.746057680249208
20
18.172411670287424
10
-14.658083474636047
20
19.797614018122335
10
-14.593260840574898
20
21.432078760862339
10
-14.551588894923498
20
23.071171168486259
10
-14.537697951992353
20
24.719525971015287
10
-14.54695858061311
20
26.372510204712526
10
-14.584000211954118
20
28.030125635862333
10
-14.644192531704883
20
29.69237049818036
10
-14.727536423007635
20
31.354613594214126
10
-14.834031885862338
20
33.021487887700374
10
-14.968306585152931
20
34.692993378639201
10
-15.125733739137639
20
36.364498869578028
10
-15.30631334781644
20
38.036004360516856
10
-15.514671309789014
20
39.707509851455669
10
-15.74618172645566
20
41.374384144941949
10
-15.996213400363908
20
43.045889635880776
10
-16.274025193850203
20
44.712763929367043
10
-16.574989442030589
20
46.375010557969418
10
-16.899104378620763
20
48.037253654003116
10
-17.246370003620754
20
49.690237887700391
10
-17.616786317030581
20
51.343225653966257
10
-18.00572388768196
20
52.986947492758418
10
-18.422443344195663
20
54.626041666666659
10
-18.857682291666656
20
56.255873445669813
10
-19.311442496379204
20
57.881077559789006
10
-19.792984586954088
20
59.492388081550601
10
-20.288416737318013
20
61.099070938428248
10
-20.811630773544316
20
62.696491400400795
10
-21.348734869559575
20
64.280028867721555
10
-21.908989653984708
20
65.854296875000017
10
-22.487765695651369
20
67.414674822489403
10
-23.085062994559596
20
68.965797440210977
10
-23.700879784425091
20
70.503022933006292
10
-24.330588400363897
20
72.021737766265858
10
-24.983447704712525
20
73.531183139483133
10
-25.65019706885019
20
75.02673845291136
10
-26.335469456513714
20
76.503776041666669
10
-27.039259568850184
20
77.962288840611777
10
-27.756943273544287
20
79.411546309789017
10
-28.488515271743143
20
80.837651324272159
10
-29.233979096015297
20
82.245231548945114
10
-29.993334746360777
20
83.63892877896626
10
-30.766578690210959
20
85.009466489156083
10
-31.553712693850187
20
86.361486474672944
10
-32.354740289847058
20
87.694988735516858
10
-33.16502674818036
20
89.009966206550587
10
-33.989203266302738
20
90.297163558006289
10
-34.822642179330174
20
91.570470849672958
10
-35.665339954694105
20
92.815998021761587
10
-36.517296592394487
20
94.043007469177255
10
-37.37851562499997
20
95.246857396761584
10
-38.248993519941948
20
96.422934269905085
10
-39.124102612336479
20
97.580486353238442
10
-40.008474099636082
20
98.710258316993716
10
-40.902104449272159
20
99.821505490938819
10
-41.795734798908207
20
100.90034488042194
10
-42.698624010880778
20
101.9606594800949
10
-43.606144420305874
20
102.99320102532704
10
-44.513668362299597
20
103.99795538584392
10
-45.425816436608635
20
104.97492962678274
10
-46.342599240938817
20
105.92875141302744
10
-47.259378512700394
20
106.85479307969413
10
-48.176161317030584
20
107.75768229166667
10
-49.092944121360766
20
108.62816371917724
10
-50.009723393122343
20
109.47085796197256
10
-50.926506197452525
20
110.29040681521097
10
-51.843285469214131
20
111.07754081885021
10
-52.755437076091752
20
111.83689470291139
10
-53.66295748551687
20
112.56846846739451
10
-54.570477894941945
20
113.27226211229961
10
-55.468739442030575
20
113.94826857248943
10
-56.367000989119191
20
114.59650197823842
10
-57.256000141302735
20
115.21232053438823
10
-58.135740431149799
20
115.80035190582277
10
-59.010849523544309
20
116.36061022281649
10
-59.881330951054899
20
116.88845369021097
10
-60.737915253639201
20
117.38851703802744
10
-61.589871891339598
20
117.86080026626587
10
-62.427945534388201
20
118.30529630978903
10
-63.256749717394513
20
118.71739163398743
10
-64.071663840611762
20
119.10169270833335
10
-64.877322634061159
20
119.45359306335449
10
-65.669091367721535
20
119.77769916852316
10
-66.44696297645568
20
120.07403928438822
10
-67.210944525400805
20
120.34258515040079
10
-67.961043079694093
20
120.57873029708864
10
-68.697244509061179
20
120.78709532419839
10
-69.414928213755289
20
120.96766610145568
10
-70.114087128639227
20
121.12045675913492
10
-70.799355983734117
20
121.24548142751058
10
-71.466107114156074
20
121.33807711601257
10
-72.109705789883932
20
121.40290681521097
10
-72.739414405822757
20
121.44457699457804
10
-73.345970567067468
20
121.4538323243459
10
-73.934009003639218
20
121.4353216648102
10
-74.49889498551687
20
121.39365148544312
10
-75.04526324272156
20
121.32418705622356
10
-75.568471980094898
20
121.22232190767924
10
-76.068535327911377
20
121.1019460995992
10
-76.545446221033728
20
120.9491413116455
10
-76.999211724599206
20
120.77319113413493
10
-77.425190043449405
20
120.56947496732076
10
-77.82801590760549
20
120.34258515040079
10
-78.207689317067462
20
120.09256407419841
10
-78.55958967208862
20
119.81474874814351
10
-78.88833050727844
20
119.51378803253175
10
-79.184663558006292
20
119.18966779708862
10
-79.457851219177243
20
118.84240217208863
10
-79.703251695632929
20
118.47198409239452
10
-79.916237322489408
20
118.0784135580063
10
-80.106077559789028
20
117.66169763406118
10
-80.263502947489428
20
117.22182925542197
10
-80.393148215611774
20
116.76343608697258
10
-80.490385699272139
20
116.28652519385021
10
-80.559835998217267
20
115.78646184603373
10
-80.601513242721552
20
115.26788077354431
10
-80.61076857248942
20
114.72614724636077
10
-80.587623182932532
20
114.17052365938822
10
-80.532055878639213
20
113.59174761772155
10
-80.448715519905093
20
112.99908151626587
10
-80.328325581550587
20
112.38789062500001
10
-80.18016258875528
20
111.75818200906119
10
-79.994950016339615
20
111.11458333333334
10
-79.781964389483136
20
110.45246693293254
10
-79.53656391302745
20
109.77645340760549
10
-79.254120922088617
20
109.08654982248942
10
-78.939263081550607
20
108.38276324272157
10
-78.591997456550601
20
107.66507953802744
10
-78.212324047088629
20
106.9335057735443
10
-77.800235788027436
20
106.19266961415607
10
-77.351105014483124
20
105.43795046011607
10
-76.869559391339621
20
104.67396184603373
10
-76.355605983734137
20
103.8960902372996
10
-75.804617126782745
20
103.10895623366038
10
-75.221206355094921
20
102.31255983511608
10
-74.605387798945102
20
101.50690104166668
10
-73.95253379344939
20
100.69661458333334
10
-73.267257873217261
20
99.872438065210986
10
-72.54958123366039
20
99.048261547088629
10
-71.794855014483133
20
98.214822634061179
10
-71.01234867572785
20
97.372128391265861
10
-70.188172157605479
20
96.529427083333346
10
-69.336215519905096
20
95.677470445632935
10
-68.447216367721552
20
94.825513807932538
10
-67.525802365938816
20
93.968922440210974
10
-66.57660824457804
20
93.107703407605484
10
-65.58574394385019
20
92.246484375000009
10
-64.567099523544314
20
91.380637677510578
10
-63.516040253639197
20
90.519418644905087
10
-62.432573199272163
20
89.653564882278459
10
-61.312063630421946
20
88.787718184789028
10
-60.163773941993703
20
87.926499152183538
10
-58.983069403966262
20
87.060652454694107
10
-57.774584746360787
20
86.204061086972544
10
-56.529057574272137
20
85.342842054367068
10
-55.255750282605483
20
84.490885416666671
10
-53.954662871360767
20
83.63892877896626
10
-52.621160610516867
20
82.79159980614979
10
-51.255250565210972
20
81.948898498217261
10
-49.866188065210977
20
81.110831920305898
10
-48.444714248180389
20
80.2820277372996
10
-46.990829114119208
20
79.457851219177243
10
-45.513791525363906
20
78.638302365938827
10
-44.008973817030601
20
77.82801590760549
10
-42.476375989119205
20
77.026991844177246
10
-40.915994509061179
20
76.23522311051687
10
-39.332464106877623
20
75.448089106877632
10
-37.721150052547458
20
74.674845163027442
10
-36.086687076091742
20
73.910856548945105
10
-34.424443980058022
20
73.156137394905102
10
-32.739048429330182
20
72.410673570632923
10
-31.030500423908226
20
71.679099806149807
10
-29.298801730076477
20
70.956788436571742
10
-27.543952347834882
20
70.248367126782739
10
-25.770583474636062
20
69.553835876782728
10
-23.974062146743115
20
68.873194686571765
10
-22.154390130440376
20
68.201815891265881
10
-20.320828054348603
20
67.548954820632915
10
-18.464115289847044
20
66.90535614490507
10
-16.58887950181958
20
66.280275193850173
10
-14.695125105977041
20
65.669091367721535
10
-12.782848569750765
20
65.071790536244691
10
-10.856681973735483
20
64.493014494578048
10
-8.9119950036207527
20
63.928128512700411
10
-6.9534166490038167
20
63.377132590611751
10
-4.9809477930267576
20
62.844661458333341
10
-2.9945884356895758
20
62.330708050727822
10
-0.99433857699232853
20
61.830644702911364
10
1.0198021142433358
20
61.349106144905072
10
3.0432032133142437
20
60.886085311571762
10
5.075864389042084
20
60.441582202911363
10
7.1224165077010904
20
60.015603884061157
10
9.1782288134098398
20
59.603515624999979
10
11.243302189310402
20
59.214579820632935
10
13.313004996379245
20
58.839530543486291
10
15.391969315211
20
58.487633721033738
10
17.480192496379253
20
58.149630490938833
10
19.568417443831787
20
57.834776182969414
10
21.66590125362081
20
57.538443132241554
10
23.768016260862389
20
57.260631338755282
10
25.870129501819616
20
57.001337269941956
10
27.976875706513731
20
56.76056799093881
10
30.083618378639233
20
56.538316436608611
10
32.190364583333356
20
56.339217336972553
10
34.301738452911408
20
56.154011829694113
10
36.408484657605527
20
55.991951711972554
10
38.515230862299639
20
55.848416384061181
10
40.621973534425138
20
55.723402313391361
10
42.724088541666696
20
55.621537164847055
10
44.821572351455707
20
55.533562076091741
10
46.91905616124474
20
55.468739442030568
10
49.007281108697292
20
55.42243806521099
10
51.090874858697283
20
55.390026748180375
10
53.165209746360787
20
55.38076435327531
10
55.234909904003153
20
55.390026748180361
10
57.29072353442514
20
55.417806867758443
10
59.341905967394538
20
55.464108244578043
10
61.38382953802747
20
55.528930878639201
10
63.416490713755337
20
55.612274769941941
10
65.435261829694156
20
55.709508721033707
10
67.44014288584394
20
55.829895126819608
10
69.435761547088646
20
55.964171592394507
10
71.417490148544346
20
56.112338117758441
10
73.380701025327056
20
56.283657097816466
10
75.334642442067491
20
56.468866137663525
10
77.265445534388249
20
56.667965237299597
10
79.186979166666688
20
56.885582061608623
10
81.089995074272196
20
57.121723675727836
10
82.969858527183575
20
57.367124152183528
10
84.835831920305921
20
57.631045885880773
10
86.683287588755334
20
57.913488876819599
10
88.507590802510649
20
58.205194262663525
10
90.313369226455762
20
58.510786175727823
10
92.100629925727873
20
58.83027168114981
10
93.860110505421972
20
59.16364724636076
10
95.601066295305912
20
59.510912871360759
10
97.318876695632952
20
59.867440891265851
10
99.013534641265892
20
60.237851905822737
10
100.68503306706752
20
60.62216004530589
10
102.32875843842827
20
61.015730579694093
10
103.94933135509493
20
61.418556443850179
10
105.54212415218359
20
61.830644702911371
10
107.10713682969413
20
62.251995356877643
10
108.64899705251061
20
62.687236070632935
10
110.15844242572788
20
63.127104449272139
10
111.64474240938823
20
63.57623522281645
10
113.10325520833338
20
64.029993661244703
10
114.52936022281651
20
64.497649224599215
10
115.92768511772162
20
64.965297722816459
10
117.29822282791139
20
65.44220861593881
10
118.63635981877651
20
65.923747173945102
10
119.94206782976789
20
66.409920461972561
10
121.22000985145574
20
66.900721414883918
10
122.46553702354436
20
67.396157097816442
10
123.67864934603378
20
67.896220445632935
10
124.85936094919843
20
68.396283793449399
10
126.00764357248948
20
68.90097480614979
10
127.12352547645571
20
69.40103815396624
10
128.20699253082282
20
69.910356831550587
10
129.25805886586514
20
70.415054909388203
10
130.27206149101261
20
70.919745922088623
10
131.25367752710983
20
71.424436934789014
10
132.20286458333339
20
71.929127947489405
10
133.11501619021098
20
72.429191295305884
10
133.99475294748945
20
72.929254643122363
10
134.84208898544316
20
73.424690326054886
10
135.65237544377649
20
73.915491278966272
10
136.42561232248943
20
74.401664566993702
10
137.16644848187769
20
74.883203124999994
10
137.87023506164553
20
75.360114018122346
10
138.53698619206753
20
75.83239724636077
10
139.1713224728903
20
76.295418079694116
10
139.76862330436711
20
76.749176518122354
10
140.33350928624475
20
77.198307291666666
10
140.86135981877649
20
77.63817567030587
10
141.35216077168789
20
78.064153989156068
10
141.80591214497886
20
78.48550464312234
10
142.22726279894519
20
78.897592902183519
10
142.61157800356551
20
79.295791101455691
10
142.95884362856555
20
79.68009924093883
10
143.27369440396632
20
80.055144985516876
10
143.55150973002117
20
80.416300670305887
10
143.79691020647692
20
80.763566295305878
10
144.00526110331225
20
81.101569525400805
10
144.17657655080166
20
81.421055030822743
10
144.31549127896633
20
81.726650476455688
10
144.42199115753178
20
82.013721132278448
10
144.49144145647691
20
82.286908793449385
10
144.52384217580163
20
82.546199329694105
10
144.52847690582277
20
82.782337411244697
10
144.49606205622356
20
83.004585433006284
10
144.42661175727849
20
83.20831573009491
10
144.32938133875533
20
83.393528302510575
10
144.19510134061181
20
83.560216085116082
10
144.03304122289029
20
83.703751413027447
10
143.83394565582282
20
83.828769016265881
10
143.6070699691773
20
83.935261829694113
10
143.34314470291139
20
84.018602188428247
10
143.05143931706746
20
84.078797157605493
10
142.73195381164552
20
84.120467336972538
10
142.37543285687767
20
84.134357396761587
10
141.9911317825318
20
84.129729731877646
10
141.57903645833341
20
84.101949612299606
10
141.13454041481023
20
84.051017038027439
10
140.66225012143457
20
83.972304344177246
10
140.16219383875534
20
83.870439195632912
10
139.63434330622357
20
83.745421592394507
10
139.07872678438824
20
83.597258599599201
10
138.49531601270041
20
83.421308422088615
10
137.88875985145575
20
83.217578124999989
10
137.25442357063298
20
82.990695373217264
10
136.59230717023215
20
82.736039566993725
10
135.90703125000007
20
82.453596576054892
10
135.19860994021099
20
82.148001130421946
10
134.46240851084391
20
81.809997900327033
10
133.70768229166669
20
81.448835150400797
10
132.92517595291139
20
81.059899346033731
10
132.12414482434593
20
80.638548692067474
10
131.29996830622355
20
80.1940526485443
10
130.45728112856548
20
79.717141755421949
10
129.59142030080164
20
79.217078407605484
10
128.70706294377649
20
78.684607275327039
10
127.80416666666669
20
78.124348958333329
10
126.87812500000004
20
77.536310521761578
10
125.93819327354437
20
76.92049196561176
10
124.98437148729965
20
76.272265625000003
10
124.00739018122358
20
75.596252099672952
10
123.0211676756541
20
74.892465519905087
10
122.01177151997888
20
74.160891755421943
10
120.99313416481021
20
73.396903141339621
10
119.96059261957809
20
72.60514147281647
10
118.91416101455691
20
71.780964954694113
10
117.85384641488399
20
70.933635981877629
10
116.78426942030592
20
70.053899224599206
10
115.70080236593888
20
69.146375282605504
10
114.6080729166667
20
68.206443556149821
10
113.50145340760551
20
67.243359375000011
10
112.39020623366039
20
66.24786740938822
10
111.26968959967301
20
65.224588259061193
10
110.13992470105495
20
64.168901324272142
10
109.00551800727848
20
63.090061934789013
10
107.86185598373413
20
61.98344242572783
10
106.71356629530594
20
60.844408067067448
10
105.56064894199378
20
59.682228318850179
10
104.40309685866039
20
58.492264918486271
10
103.24091004530594
20
57.269890201091741
10
102.07873029708865
20
56.024363029003126
10
100.91191581885026
20
54.751055737336486
10
99.740473675727884
20
53.454599523544317
10
98.57365919748942
20
52.125728460152928
10
97.402217054367085
20
50.778339672088606
10
96.230774911244708
20
49.398536034425078
10
95.063960433006287
20
47.995583474636057
10
93.897153019905147
20
46.569478460152929
10
92.730338541666697
20
45.120224523544294
10
91.568158793449442
20
43.643186934789
10
90.41060671011607
20
42.143000423908212
10
89.257682291666697
20
40.619661458333319
10
88.109392603238433
20
39.077801235516858
10
86.965730579694167
20
37.508160893122358
10
85.826696221033743
20
35.919999293486256
10
84.692296592394541
20
34.30868877172469
10
83.571787023544331
20
32.674222262700376
10
82.451277454694164
20
31.02123802900314
10
81.34465794563296
20
29.349734304348626
10
80.247293766339681
20
27.659707556168208
10
79.154564317067496
20
25.946531885862353
10
78.075731992721586
20
24.214833192030561
10
77.01078266302747
20
22.469244438409785
10
75.950460998217281
20
20.705136193831734
10
74.90403645833338
20
18.922504925727822
10
73.871501978238456
20
17.125983597834882
10
72.852857557932566
20
15.310942778984675
10
71.843468467394558
20
13.486640448371549
10
70.847976501782753
20
11.643817743659017
10
69.871002260843923
20
9.7871040960152893
10
68.903283349672961
20
7.9165003885825369
10
67.954096293449425
20
6.0366356109579371
10
67.018792231877683
20
4.1428803319732266
10
66.102012960116113
20
2.2398646451532596
10
65.199116683006309
20
0.32758855049806634
10
64.310117530822779
20
-1.5985781559100083
10
63.444270833333356
20
-3.5293749558429024
10
62.59231419563298
20
-5.474062588314216
10
61.758875282605516
20
-7.4233803143104113
10
60.943961159388245
20
-9.3773279130459173
10
60.147564760843927
20
-11.340536140402172
10
59.369686086972578
20
-13.308374682068848
10
58.610332202911394
20
-15.280843538045893
10
57.869499576091798
20
-17.253313277165102
10
57.151819403966293
20
-19.235041878620788
10
56.452656956513742
20
-21.21677048007648
10
55.772015766302758
20
-23.203130278984712
10
55.114527030785908
20
-25.184858880440405
10
54.475556019941976
20
-27.171218679348645
10
53.855109798908252
20
-29.157578478256898
10
53.257812500000028
20
-31.13930884599689
10
52.683667655785911
20
-33.121037447452572
10
52.12804053624474
20
-35.102766048908251
10
51.595569403966294
20
-37.079863452911383
10
51.08624366124473
20
-39.052333192030602
10
50.595442708333366
20
-41.015540536244728
10
50.127790677547488
20
-42.97875141302746
10
49.683291101455737
20
-44.932696362336515
10
49.257312782605503
20
-46.882017179330226
10
48.854483385880812
20
-48.822072068850233
10
48.474806443850227
20
-50.752868096033751
10
48.113650759061215
20
-52.67440526088081
10
47.780275193850237
20
-54.586683563391382
10
47.465420885880825
20
-56.489699470996868
10
47.173719032605504
20
-58.378821786244742
10
46.900534904003159
20
-60.254057574272188
10
46.650506762663554
20
-62.120030967394527
10
46.423624010880815
20
-63.967486635843933
10
46.219897246360809
20
-65.805679909388246
10
46.034688206513728
20
-67.625348393122394
10
45.872631621360796
20
-69.431126817067508
10
45.73372395833335
20
-71.218387516339632
10
45.613337552547463
20
-72.991758155822779
10
45.511472404003179
20
-74.741976340611799
10
45.432759710152972
20
-76.478304465611814
10
45.377199470996892
20
-78.196114865938867
10
45.335525759061198
20
-79.890772811571793
10
45.321635699272171
20
-81.562278302510606
10
45.321635699272171
20
-83.219893733660399
10
45.344788153966313
20
-84.849721980094941
10
45.386458333333351
20
-86.461039566993762
10
45.446649769941999
20
-88.044569969177275
10
45.525365996360811
20
-89.609575581550601
10
45.622599947452571
20
-91.146808139483127
10
45.738355155785882
20
-92.660888242721583
10
45.872631621360789
20
-94.147181161244745
10
46.020798146724715
20
-95.610328690210991
10
46.192113594214163
20
-97.045696099599212
10
46.377322634061187
20
-98.453276324272196
10
46.576421733697266
20
-99.837711159388249
10
46.794042090574933
20
-101.18973114490515
10
47.025552507241571
20
-102.51397101084395
10
47.275584181149846
20
-103.81042369206747
10
47.539505914847084
20
-105.07447565396629
10
47.817317708333356
20
-106.3107404311498
10
48.104391896724735
20
-107.51459035873417
10
48.409983809789033
20
-108.6906672318777
10
48.729469315211006
20
-109.83432925542201
10
49.058213682969445
20
-110.94557642936708
10
49.40084811051689
20
-112.02441581885026
10
49.752744932969442
20
-113.07084035873416
10
50.118531815210986
20
-114.08485711415615
10
50.493577559789067
20
-115.06646608511613
10
50.87788569927217
20
-116.01565314133967
10
51.271452701091775
20
-116.93243947823848
10
51.678909762700414
20
-117.81217623551689
10
52.091001554330205
20
-118.6548704783122
10
52.50771747827531
20
-119.46979166666668
10
52.938326994578084
20
-120.24766327540085
10
53.3689365108808
20
-120.98849943478903
10
53.80880842208866
20
-121.69228601455693
10
54.257939195632957
20
-122.36367187500007
10
54.707066436608649
20
-123.00264288584398
10
55.165459605058054
20
-123.5999437173208
10
55.623849240938846
20
-124.16482969919842
10
56.086870074272198
20
-124.6926661014557
10
56.554522105058076
20
-125.18346705436707
10
57.022170603275327
20
-125.64185315767926
10
57.494453831513738
20
-126.05858321189883
10
57.966733527183564
20
-126.44288428624472
10
58.439016755421996
20
-126.79014991124473
10
58.906665253639247
20
-127.10038008689885
10
59.378948481877657
20
-127.37818128267925
10
59.851231710116089
20
-127.6143264293671
10
60.318880208333361
20
-127.81805672645572
10
60.786528706550634
20
-127.98011684417732
10
61.249549539883965
20
-128.10976211229962
10
61.707942708333363
20
-128.20699253082279
10
62.161701146761587
20
-128.2625527699789
10
62.610831920305912
20
-128.28571228981025
10
63.059962693850231
20
-128.27182223002117
10
63.495203407605523
20
-128.22088259061184
10
63.930444121360793
20
-128.13290750185655
10
64.356422440210991
20
-128.0171522935232
10
64.773138364156111
20
-127.85972690582277
10
65.185226623217289
20
-127.66988666852322
10
65.5880595525106
20
-127.44764571189884
10
65.976995356877666
20
-127.18835517565411
10
66.361303496360819
20
-126.89201505978906
10
66.731721576054923
20
-126.56789482434597
10
67.092877260843963
20
-126.20673913955693
10
67.444770550727895
20
-125.81318273544314
10
67.782773780822779
20
-125.39183208147685
10
68.106894016265883
20
-124.93343184789029
10
68.421744791666697
20
-124.44263089497889
10
68.722705507278462
20
-123.91941509246827
10
69.005148498217309
20
-123.36843330065415
10
69.278336159388246
20
-122.78502252896629
10
69.532991965611785
20
-122.16919690767931
10
69.773764777183544
20
-121.52560529708865
10
69.996012798945131
20
-120.85421943664556
10
70.204377826054909
20
-120.15043285687767
10
70.398845728238442
20
-119.4234867572785
10
70.574788840611788
20
-118.66413993835451
10
70.732221293449427
20
-117.87699886957809
10
70.871121891339655
20
-117.06208474636084
10
70.991511829694161
20
-116.22401816844942
10
71.093376978238439
20
-115.35816440582282
10
71.17208967208866
20
-114.46916525363929
10
71.236912306149833
20
-113.55238598187765
10
71.283210150400834
20
-112.61245425542197
10
71.306362605094932
20
-111.64937007427216
10
71.306362605094961
20
-110.66313343842828
10
71.287844880421986
20
-109.65375141302749
10
71.250802365938867
20
-108.62121693293255
10
71.190607396761607
20
-107.57015766302744
10
71.107267038027459
20
-106.49594593842824
10
71.00077422459924
20
-105.40785121917725
10
70.875756621360807
20
-104.29659698009495
10
70.727586563428275
20
-103.16682501633969
10
70.551643451054915
20
-102.01853532791142
10
70.357168483734156
20
-100.85172084967296
10
70.139555191993736
20
-99.671023376782756
10
69.898782380421977
20
-98.476428778966266
10
69.634857114156119
20
-97.263309391339646
10
69.347786458333374
20
-96.036307009061233
10
69.032935682932589
20
-94.79541456699377
10
68.699560117721575
20
-93.545252664883975
10
68.338404432932549
20
-92.276580103238487
10
67.954096293449425
20
-91.003272811571776
10
67.546635699272173
20
-89.716075460116116
10
67.116022650400822
20
-88.414980983734139
10
66.657636547088657
20
-87.109265907605518
10
66.176090923945139
20
-85.794288436571776
10
65.671399911244748
20
-84.474676235516881
10
65.138928778966317
20
-83.145808704694147
10
64.587932856877686
20
-81.807678778966292
10
64.009156815211014
20
-80.464914123217298
10
63.407228318850244
20
-79.122156532605544
10
62.777519702911391
20
-77.77013654708864
10
62.12929336229962
20
-76.418116561571793
10
61.453279836972577
20
-75.061461846033779
10
60.754120922088653
20
-73.704814195632963
10
60.031809552510602
20
-72.343531815210994
10
59.281710998217292
20
-70.986877099672967
10
58.513098251819649
20
-69.625601784388238
10
57.721333050727857
20
-68.268947068850224
10
56.901787730058054
20
-66.916927083333363
10
56.063717619578071
20
-65.564907097816501
10
55.197870922088626
20
-64.21288711229964
10
54.313499434789051
20
-62.870122456550625
10
53.405979025363962
20
-61.53199253082277
10
52.475306161244745
20
-60.193862605094935
10
51.526115572452575
20
-58.869626271724734
10
50.553772528966292
20
-57.550014070669839
10
49.558277030785895
20
-56.235036599636103
10
48.5396290779114
20
-54.929317990938827
10
47.502463400363965
20
-53.637489442030628
10
46.446776465574914
20
-52.350292090574911
10
45.372568273544346
20
-51.076984798908278
10
44.27520762681965
20
-49.812936369578068
10
43.159329255421994
20
-48.562781532605534
10
42.024926094214138
20
-47.321885557969424
10
40.872005208333363
20
-46.094879643122368
10
39.700563065211007
20
-44.88176732063296
10
38.510599664847092
20
-43.687172722816491
10
37.306746204694122
20
-42.501836987336496
10
36.079740289847059
20
-41.335026041666708
10
34.843475512663531
20
-40.186732820669818
10
33.58868594566983
20
-39.05233319203063
10
32.315378654003155
20
-37.93645482063296
10
31.028181302547484
20
-36.839094173908265
10
29.731725088755301
20
-35.75562358697259
10
28.416744085152978
20
-34.69530898729964
10
27.087874788045909
20
-33.658139777183564
10
25.749744862318042
20
-32.634864159425121
10
24.397723110516893
20
-31.634740996360819
10
23.031813065211008
20
-30.657766755421974
10
21.656640625000012
20
-29.699313771724725
10
20.267578125000011
20
-28.764009710152965
10
18.873886193831765
20
-27.851859869559625
10
17.466302436590201
20
-26.958229519923542
10
16.054089248180397
20
-26.092381056149833
10
14.627984233697276
20
-25.24968151450161
10
13.197249788045893
20
-24.430136193831792
10
11.757255596915908
20
-23.638369226455708
10
10.312630208333356
20
-22.869754713773748
10
8.8633753885825541
20
-22.124290889501591
10
7.4094893713792231
20
-21.406608951091791
10
5.9463436086972621
20
-20.712077701091779
10
4.4831978460153028
20
-20.049957768122383
10
3.0154217690229745
20
-19.406359092394531
10
1.543015598505761
20
-18.795171733697288
10
0.070609372792156677
20
-18.211766260862355
10
-1.406427056839066
20
-17.651509710152972
10
-2.8834635416666599
20
-17.119036811590231
10
-4.3558699329693944
20
-16.618973463773738
10
-5.8329061970114484
20
-16.142062570651397
10
-7.3099429026245755
20
-15.692931797107097
10
-8.7823488523562769
20
-15.276214106877653
10
-10.250124929348628
20
-14.882645338773738
10
-11.717901006340981
20
-14.521489653984734
10
-13.181046769022943
20
-14.188114971915892
10
-14.639562217394481
20
-13.88252040942513
10
-16.093447351455673
20
-13.60933893024923
10
-17.542703054348621
20
-13.359307256341006
10
-18.987327559789012
20
-13.141687782605501
10
-20.422693202892908
20
-12.951849311590211
10
-21.848796451091765
20
-12.789791843295127
10
-23.270270268122324
20
-12.660145692030619
10
-24.677854025363928
20
-12.558281426628442
10
-26.080806585152931
20
-12.484198163946473
10
-27.469869085152922
20
-12.437895903984717
10
-28.854302153984683
20
-12.419374646743144
10
-30.220213965574882
20
-12.433265589674329
10
-31.576865148544311
20
-12.474937535325687
10
-32.919626271724709
20
-12.544390483697271
10
-34.253124999999976
20
-12.636995003620786
10
-35.568102471033718
20
-12.762010840574904
10
-36.873824612299593
20
-12.914807680249234
10
-38.161021963755296
20
-13.095385522643738
10
-39.429698057969389
20
-13.303744367758465
10
-40.689115289847031
20
-13.539885098735496
10
-41.925380067030588
20
-13.803807715574919
10
-43.147754784425089
20
-14.090880137681978
10
-44.351608244578038
20
-14.405734445651406
10
-45.536943980058034
20
-14.74836975634101
10
-46.703754925727822
20
-15.114155755440414
10
-47.852048146724698
20
-15.507724523544331
10
-48.97718891302744
20
-15.92907341122628
10
-50.083808422088616
20
-16.368943556149837
10
-51.171906673908218
20
-16.836593820651391
10
-52.232224806149787
20
-17.332025971015319
10
-53.274021681149797
20
-17.84597937862079
10
-54.297297298908241
20
-18.387712905804349
10
-55.292792797088602
20
-18.947969456513739
10
-56.265135840574885
20
-19.531374929348651
10
-57.214326429367055
20
-20.142562288045887
10
-58.14036809603374
20
-20.767641472816489
10
-59.043260840574909
20
-21.42050077716511
10
-59.918366400400785
20
-22.091879572470994
10
-60.770330103238415
20
-22.781781391302765
10
-61.594506621360772
20
-23.490202701091796
10
-62.390903019905082
20
-24.221776465574916
10
-63.164146963755272
20
-24.971869721015317
10
-63.909610788027422
20
-25.740484233697277
10
-64.631922157605487
20
-26.522988806168264
10
-65.321825742721572
20
-27.324016402165114
10
-65.983942143122349
20
-28.143561722834928
10
-66.622913153966266
20
-28.981630067030618
10
-67.229469315210963
20
-29.828959039847078
10
-67.812873021761561
20
-30.694805737336509
10
-68.363868943850193
20
-31.574546027183565
10
-68.882450016339604
20
-32.468176376819628
10
-69.377885699272156
20
-33.375696786244724
10
-69.840906532605487
20
-34.292479590574928
10
-70.27614724636075
20
-35.223152454694137
10
-70.683600775400805
20
-36.16771184603374
10
-71.058653585116048
20
-37.121537164847062
10
-71.405919210116068
20
-38.084621345996872
10
-71.725397650400794
20
-39.05696438948317
10
-72.012475371360765
20
-40.03856629530592
10
-72.267138242721558
20
-41.024802931149836
10
-72.494013929367057
20
-42.020298429330211
10
-72.693116561571742
20
-43.025052789847066
10
-72.859804344177235
20
-44.034438347816504
10
-72.998704942067462
20
-45.048451570669826
10
-73.105204820632935
20
-46.071730720996882
10
-73.183917514483127
20
-47.095006338755297
10
-73.230215358734114
20
-48.122913153966287
10
-73.2487401485443
20
-49.15081643660865
10
-73.23485008875528
20
-50.183354449272187
10
-73.19317990938822
20
-51.215888929367104
10
-73.123722545305881
20
-52.253058139483159
10
-73.021857396761575
20
-53.285592619578068
10
-72.892212128639216
20
-54.322761829694116
10
-72.734786740938816
20
-55.355296309789054
10
-72.544946503639224
20
-56.383203125000023
10
-72.33196087678273
20
-57.415741137663552
10
-72.086560400327045
20
-58.439016755421989
10
-71.81337273915608
20
-59.462288840611812
10
-71.512412023544314
20
-60.476305596033768
10
-71.183664123217255
20
-61.490322351455703
10
-70.827143168449396
20
-62.495076711972587
10
-70.442835028966257
20
-63.495203407605523
10
-70.03537443478902
20
-64.486067708333366
10
-69.600133721033714
20
-65.472304344177289
10
-69.137112887700411
20
-66.449278585116105
10
-68.646311934789026
20
-67.416990431149827
10
-68.132358527183527
20
-68.375439882278471
10
-67.595252664883901
20
-69.320006338755306
10
-67.030366683006292
20
-70.259938065211017
10
-66.442335311571753
20
-71.181352066993739
10
-65.831144420305876
20
-72.098131338755323
10
-65.192180474599212
20
-72.996392885843932
10
-64.534684673945108
20
-73.885392038027462
10
-63.854043483734138
20
-74.755866400400834
10
-63.150256903966245
20
-75.617085433006324
10
-62.427945534388208
20
-76.459786740938853
10
-61.682481710116058
20
-77.288590923945151
10
-60.913865431149802
20
-78.10351211229964
10
-60.131359092394504
20
-78.899908510843943
10
-59.325700298945101
20
-79.677780119578074
10
-58.501527313391371
20
-80.441768733660425
10
-57.658829538027433
20
-81.182597827911394
10
-56.797610505421957
20
-81.909543927510612
10
-55.917870215574901
20
-82.617965237299629
10
-55.024239865938796
20
-83.303234092394533
10
-54.112088259061181
20
-83.969985222816504
10
-53.186046592394518
20
-84.618211563428289
10
-52.246114865938807
20
-85.243292514483187
10
-51.292293079694097
20
-85.849848675727884
10
-50.319946503639216
20
-86.433252382278468
10
-49.338344597816466
20
-86.998138364156134
10
-48.347480297088595
20
-87.535244226455745
10
-47.342722404003119
20
-88.053825298945142
10
-46.324077983697251
20
-88.544633316993725
10
-45.296171168486275
20
-89.016909480094967
10
-44.259005490938819
20
-89.466040253639235
10
-43.21720861593883
20
-89.887390907605521
10
-42.161521681149779
20
-90.285589106877694
10
-41.101203548908238
20
-90.660634851455754
10
-40.031626554330174
20
-91.012528141339658
10
-38.957418362299606
20
-91.33664837678279
10
-37.878578972816477
20
-91.632981427510614
10
-36.795108385880759
20
-91.910789688428238
10
-35.707010134061179
20
-92.156190164883981
10
-34.614280684789016
20
-92.37844525178275
10
-33.521551235516853
20
-92.577540818850224
10
-32.424194121360784
20
-92.748856266339672
10
-31.326833474636068
20
-92.892398659388277
10
-30.229472827911369
20
-93.008153867721603
10
-29.13211394747098
20
-93.100756621360773
10
-28.034755067030581
20
-93.165579255422003
10
-26.942025617758418
20
-93.202621769905136
10
-25.849296168486262
20
-93.211877099672961
10
-24.761197916666653
20
-93.197987039883984
10
-23.673099664847058
20
-93.156316860516938
10
-22.594260275363908
20
-93.086866561571782
10
-21.520052083333326
20
-92.989629077911374
10
-20.45047332247097
20
-92.864611474672955
10
-19.3901569565137
20
-92.716448481877677
10
-18.334468255440378
20
-92.540498304367077
10
-17.288041949272127
20
-92.336768007278479
10
-16.250874505440368
20
-92.105257590611785
10
-15.222969456513709
20
-91.845967054367122
10
-14.20432326992352
20
-91.563524063428304
10
-13.199568026264494
20
-91.25330095291136
10
-12.204072528084103
20
-90.919925387700431
10
-11.222468855977061
20
-90.558769702911405
10
-10.250124929348605
20
-90.16983389854434
10
-9.29630225996174
20
-89.757745639483204
10
-8.3517393360535301
20
-89.317877260843943
10
-7.4256976693868459
20
-88.854856427510612
10
-6.5181772599617496
20
-88.36405547459924
10
-5.6199165960152744
20
-87.850102066993742
10
-4.744807503620776
20
-87.31299620469413
10
-3.8835884710152921
20
-86.748110222816507
10
-3.0408906956513411
20
-86.160071786244742
10
-2.2213438294827936
20
-85.54888796011609
10
-1.4156874646742903
20
-84.914544614156114
10
-0.63318228504307639
20
-84.257055878639235
10
0.13080207891762438
20
-83.581049418449425
10
0.87626562720787182
20
-82.877255773544363
10
1.5939479519923727
20
-82.150309673945117
10
2.2931092955172288
20
-81.404845849672981
10
2.9691197298467409
20
-80.636236635843943
10
3.6219792549809036
20
-79.849095567067479
10
4.2516874293486309
20
-79.038809108734142
10
4.8582449153065692
20
-78.210004925727901
10
5.4370209569732477
20
-77.362675952911417
10
5.9926458686590314
20
-76.492194525400834
10
6.5204897776246264
20
-75.60783010323847
10
7.0251821150382554
20
-74.700306161244725
10
7.5020938913027742
20
-73.778899224599243
10
7.9512237817049281
20
-72.838960433006307
10
8.3772029836972646
20
-71.880510981877663
10
8.7707708686590209
20
-70.90816440582276
10
9.1411871820688528
20
-69.917300105094938
10
9.4791930615902249
20
-68.912545744578068
10
9.7894170552492241
20
-67.889273659388252
10
10.071859163045904
20
-66.856732114156102
10
10.326521151264519
20
-65.810307574272173
10
10.548770939310415
20
-64.745358244578057
10
10.738609410325704
20
-63.67115358511608
10
10.905297192931204
20
-62.587679465611814
10
11.034942461053534
20
-61.490322351455731
10
11.136807609597865
20
-60.3790751775106
10
11.210890872279835
20
-59.258562076091799
10
11.252562817931192
20
-58.128790112336517
10
11.261822563409806
20
-56.994390483697273
10
11.238671875000035
20
-55.846097262700425
10
11.18310898641748
20
-54.68854517936709
10
11.099765978256862
20
-53.52636543114982
10
10.984010769923549
20
-52.359550952911398
10
10.835843361417458
20
-51.183477612336503
10
10.655265519022954
20
-49.998145409425128
10
10.442276359597875
20
-48.812813206513745
10
10.201505314310397
20
-47.622849806149802
10
9.9236926376819632
20
-46.428255208333354
10
9.6180989583333538
20
-45.229032945632959
10
9.2800939619541349
20
-44.025175952911383
10
8.9050464510917813
20
-42.825953690210987
10
8.5022188206513931
20
-41.617469032605506
10
8.0716093043486445
20
-40.413615572452571
10
7.6039581567049037
20
-39.209762112299629
10
7.1038956920305978
20
-38.001277454694147
10
6.5760522246361122
20
-36.797420461972564
10
6.0157969986399076
20
-35.598198199272176
10
5.4231300140420666
20
-34.394344739119219
10
4.7980521539847309
20
-33.199750141302772
10
4.1451928496361043
20
-32.005155543486296
10
3.4599217866857983
20
-30.815192143122374
10
2.7468697210153192
20
-29.629859940211002
10
2.001406338314232
20
-28.449155402183557
10
1.2281615113218707
20
-27.273083827892968
10
0.42250520170976635
20
-26.106271115938849
10
-0.41093230380984419
20
-24.944087835152949
10
-1.2721510328352317
20
-23.791166949272181
10
-2.1657811616857705
20
-22.647504925727869
10
-3.0825624205172026
20
-21.508474099636086
10
-4.0317549963791919
20
-20.383333333333368
10
-5.0087292373180095
20
-19.262823764483155
10
-6.0088541666666444
20
-18.156202489137673
10
-7.0413904130458569
20
-17.05884360869727
10
-8.0970782309770453
20
-15.975374788045917
10
-9.1759167373180155
20
-14.901166596015312
10
-10.287166560689602
20
-13.836219032605506
10
-11.416937641302734
20
-12.789791843295109
10
-12.574489724636075
20
-11.752625282605516
10
-13.759822810689608
20
-10.729348781704935
10
-14.963677153984696
20
-9.7245935380458839
10
-16.190683068831749
20
-8.729098923007669
10
-17.445469103256833
20
-7.7521246820688301
10
-18.718776394923516
20
-6.7890418256322622
10
-20.010604943831733
20
-5.844479343295097
10
-21.330213612318033
20
-4.9138073623180532
10
-22.663714106877645
20
-4.0016561970114735
10
-24.020365289847039
20
-3.103395753850573
10
-25.400167161226261
20
-2.2236563471456687
10
-26.793859092394495
20
-1.3624375353256997
10
-28.206072280804285
20
-0.51973959437263173
10
-29.636806726455688
20
0.29980729939414946
10
-31.081432998180368
20
1.105463581408042
10
-32.544576994578037
20
1.8925990201532594
10
-34.026245780785857
20
2.6565834393103898
10
-35.517173429330178
20
3.4066771363218287
10
-37.026618802547446
20
4.1289893890420455
10
-38.549957768122354
20
4.8374115819732149
10
-40.082555596033735
20
5.5226822033524448
10
-41.629047016302735
20
6.1848021363218475
10
-43.189428496360762
20
6.8284012536207719
10
-44.754437641302729
20
7.4534795552491833
10
-46.333336846033745
20
8.0507759710152964
10
-47.921498445669791
20
8.6295520126819429
10
-49.518922440210972
20
9.1898076802491868
10
-51.125605297088597
20
9.722281461954088
10
-52.736915818850179
20
10.236233986417453
10
-54.352861070632912
20
10.727036705613104
10
-55.978061652183527
20
11.194687853256845
10
-57.607896963755266
20
11.639187429348606
10
-59.242359940210974
20
12.065166631340976
10
-60.876822916666654
20
12.46336483061312
10
-62.515913558006275
20
12.843041772643717
10
-64.155011264483122
20
13.199568026264483
10
-65.798736635843895
20
13.53294270833331
10
-67.442454942067442
20
13.843166701992352
10
-69.081552648544289
20
14.130240007241564
10
-70.72527801990509
20
14.394161740938792
10
-72.364368661244711
20
14.634931903084123
10
-73.998831637700391
20
14.857182574272132
10
-75.633294614156071
20
15.056281673908229
10
-77.263129925727839
20
15.227598887681935
10
-78.883702842394499
20
15.380396610498401
10
-80.504275759061159
20
15.514671309788991
10
-82.115586280822754
20
15.621165889501565
10
-83.722269137700408
20
15.709140978256844
10
-85.319689599672955
20
15.773963612318017
10
-86.903227066993708
20
15.820264989137627
10
-88.482122739156083
20
15.84341744383174
10
-90.051763081550604
20
15.843417443831747
10
-91.612148094177257
20
15.824896186590196
10
-93.158635981877637
20
15.787853672107046
10
-94.691233809789026
20
15.727662235498398
10
-96.20994157791138
20
15.644318344195669
10
-97.719394016265881
20
15.547082626819579
10
-99.210314599672955
20
15.426697987318034
10
-100.68735218842824
20
15.287792090574897
10
-102.1504997173945
20
15.130364936590198
10
-103.5951224565506
20
14.954416525363914
10
-105.02586220105488
20
14.759947740038236
10
-106.43344242572783
20
14.546958580613115
10
-107.8271325906118
20
14.320078478256859
10
-109.19767736593883
20
14.074677118659022
10
-110.5543250163396
20
13.810755384961741
10
-111.88319961229962
20
13.528312394022944
10
-113.19817708333332
20
13.23660965760549
10
-114.48537443478901
20
12.926385663946437
10
-115.75405406157175
20
12.597640413045871
10
-116.99958123366038
20
12.259635416666645
10
-118.22195595105489
20
11.903109163045865
10
-119.4211782137553
20
11.537323163946468
10
-120.59262035687765
20
11.153015907605468
10
-121.74553771018981
20
10.759448022643722
10
-122.86605434417726
20
10.356619509061176
10
-123.96341145833333
20
9.9399009356895789
10
-125.03762318293253
20
9.5092914193868552
10
-126.07942005793254
20
9.0694221576054588
10
-127.0980574131012
20
8.6202913840611757
10
-128.08429404894514
20
8.1619008650382305
10
-129.04275056521098
20
7.694249717394511
10
-129.9780475616455
20
7.217338382701052
10
-130.88094383875529
20
6.7357967336972449
10
-131.75142526626587
20
6.2449948976436982
10
-132.59412657419841
20
5.7449324329694047
10
-133.40903363227847
20
5.244869968295081
10
-134.19153997103373
20
4.7355468749999812
10
-134.94163146018983
20
4.216963594655172
10
-135.65932223002116
20
3.7030106286207749
10
-136.34921875000001
20
3.1797968131800265
10
-137.0067145506541
20
2.651953124999999
10
-137.62716077168784
20
2.1241094368199436
10
-138.21982687314352
20
1.5962656382471136
10
-138.78007812499999
20
1.0637916357566923
10
-139.30329392751059
20
0.53131768846261174
10
-139.7987296104431
20
0.0034739580228291406
10
-140.2571157137553
20
-0.52900000220785437
10
-140.68308696746828
20
-1.0568437455842945
10
-141.07665750185649
20
-1.5846875441571264
10
-141.43319258689883
20
-2.1125312323371763
10
-141.75729869206745
20
-2.6357448269923744
10
-142.04900407791141
20
-3.1543281073371676
10
-142.30365988413493
20
-3.6682812941571097
10
-142.52591497103373
20
-4.1776041666666837
10
-142.71575520833335
20
-4.6776666313410127
10
-142.8685458660126
20
-5.1777290960153159
10
-142.98893580436709
20
-5.6685313736399143
10
-143.07227616310121
20
-6.150073022643733
10
-143.12321580251057
20
-6.6269843573371698
10
-143.14174059232076
20
-7.0900051906705155
10
-143.12321580251057
20
-7.5483961512645088
10
-143.07227616310121
20
-7.9975260416666938
10
-142.98430107434592
20
-8.4327658722798269
10
-142.86392526626588
20
-8.8587450742721803
10
-142.71112047831218
20
-9.2708333333333375
10
-142.52128024101259
20
-9.6736618469159055
10
-142.29903928438824
20
-10.057969103256879
10
-142.04436934789021
20
-10.433015730977083
10
-141.75729869206745
20
-10.794172298908236
10
-141.43781318664551
20
-11.141437923908253
10
-141.08129223187765
20
-11.474812605977078
10
-140.69235642751059
20
-11.789666913946499
10
-140.27564050356548
20
-12.085999964674333
10
-139.82187500000001
20
-12.368442955613151
10
-139.34032937685649
20
-12.6369950036208
10
-138.82174830436708
20
-12.882395480076474
10
-138.2753871122996
20
-13.113905896743145
10
-137.69661107063294
20
-13.322265625000021
10
-137.09005490938824
20
-13.51210409601531
10
-136.45108389854431
20
-13.683422192931191
10
-135.7796980381012
20
-13.836219032605516
10
-135.0805461883545
20
-13.965864300727866
10
-134.35360008875531
20
-14.076989194750789
10
-133.59423913955689
20
-14.160333086053555
10
-132.81173280080162
20
-14.229786034425134
10
-131.99682574272157
20
-14.271457980076498
10
-131.15412443478903
20
-14.289979237318065
10
-130.28827773729961
20
-14.28997923731805
10
-129.39001619021099
20
-14.26219823459785
10
-128.46860925356549
20
-14.21126566032571
10
-127.52404279708863
20
-14.137182397643738
10
-126.55169622103374
20
-14.039947563409839
10
-125.55156952540081
20
-13.91493260959786
10
-124.53293217023214
20
-13.766765201091768
10
-123.48650056521097
20
-13.590817673007676
10
-122.41692357063293
20
-13.391718573371577
10
-121.32418705622355
20
-13.164838471015299
10
-120.21293988227845
20
-12.914807680249227
10
-119.07854731877646
20
-12.636995003620793
10
-117.92098817030589
20
-12.331401324272171
10
-116.7449183622996
20
-11.998025759061196
10
-115.55032376448312
20
-11.636870074272188
10
-114.33257671197255
20
-11.252562817931198
10
-113.10093959967296
20
-10.835843361417458
10
-111.85078476270041
20
-10.395974099636083
10
-110.57747747103372
20
-9.9236926376819863
10
-109.29491484959919
20
-9.4282604873180702
10
-107.99382037321726
20
-8.9004170199235393
10
-106.67421523729959
20
-8.3494219809770733
10
-105.34071297645568
20
-7.7660156250000068
10
-103.99332065582274
20
-7.154828266302756
10
-102.63667300542195
20
-6.5204897776246415
10
-101.26150056521098
20
-5.8537395303448134
10
-99.877065730094913
20
-5.15920828034481
10
-98.483375565210963
20
-4.4368960276246403
10
-97.075788275400811
20
-3.6868021098276103
10
-95.654317990938836
20
-2.9089271893103996
10
-94.228212976455694
20
-2.1032708245019385
10
-92.792845567067474
20
-1.265203142662864
10
-91.348222827911371
20
-0.40398438603929748
10
-89.89433769385019
20
0.48501564928639151
10
-88.435824894905096
20
1.4017968529214186
10
-86.972677365938836
20
2.3463594456513408
10
-85.500267442067468
20
3.3187031514942484
10
-84.027864583333326
20
4.3188283016284306
10
-82.546199329694119
20
5.3421043609579328
10
-81.064534076054883
20
6.3931614230076175
10
-79.57823409239451
20
7.471999929348625
10
-78.091934108734137
20
8.5786194384097829
10
-76.601013525327033
20
9.7083905190229167
10
-75.110085876782733
20
10.86594260235627
10
-73.619158228238433
20
12.046646257241553
10
-72.132858244578031
20
13.250499717394513
10
-70.641930596033717
20
14.482135063409803
10
-69.155637677510583
20
15.736921097834886
10
-67.669337693850196
20
17.019489018122346
10
-66.192300105094887
20
18.320578195651343
10
-64.71063485145568
20
19.649447492758412
10
-63.238231992721552
20
20.996838047107047
10
-61.770449733734118
20
22.367381056149792
10
-60.307309269905069
20
23.761072987318027
10
-58.853420603275282
20
25.173286175727814
10
-57.404166666666654
20
26.613281249999975
10
-55.959540394941946
20
28.067166384061156
10
-54.524176518122331
20
29.54420397281644
10
-53.098071503639218
20
31.03975928624471
10
-51.681228884061163
20
32.553839389483116
10
-50.273645126819602
20
34.091068414847044
10
-48.87995142936704
20
35.642187499999977
10
-47.490888929367053
20
37.211827842394506
10
-46.120347686608611
20
38.795358244578047
10
-44.754437641302729
20
40.397409904003148
10
-43.407045320669788
20
42.017982820669808
10
-42.068915394941946
20
43.6524493296941
10
-40.744675529003125
20
45.296171168486261
10
-39.43432925542195
20
46.958417797088615
10
-38.137869509061169
20
48.634550952911368
10
-36.855303355058012
20
50.324577701091762
10
-35.591254925727839
20
52.023863311608629
10
-34.341100088755276
20
53.737042514483136
10
-33.104831779003121
20
55.459480579694102
10
-31.887088259061169
20
57.191177507241555
10
-30.687865996360753
20
58.932136829694109
10
-29.502532027165074
20
60.682355014483129
10
-28.335719315210959
20
62.441835594177242
10
-27.187427860498417
20
64.205943838755289
10
-26.057655896743114
20
65.979314478238408
10
-24.946406956513716
20
67.757312782605467
10
-23.858306938409783
20
69.539945816993736
10
-22.784098746379208
20
71.327206516265861
10
-21.728411811590181
20
73.119094880421954
10
-20.695875565210969
20
74.915617974599201
10
-19.686490007241552
20
76.712134003639221
10
-18.690994509061156
20
78.513284762700394
10
-17.718651465574887
20
80.309807856877654
10
-16.769459110498399
20
82.110958615938827
10
-15.838786246379204
20
83.907481710116073
10
-14.931265836954104
20
85.708632469177246
10
-14.042265801628433
20
87.500520833333326
10
-13.176416454712523
20
89.29240919748942
10
-12.333718679348621
20
91.084304626782725
10
-11.509541278084093
20
92.866930596033725
10
-10.708515448371536
20
94.644928900400799
10
-9.9306403070688116
20
96.418299539883918
10
-9.1759167373180279
20
98.182414849599198
10
-8.4397135416666362
20
99.9418883641561
10
-7.7312913487354686
20
101.69210654894511
10
-7.0413904130458533
20
103.43306940396627
10
-6.3746406073371444
20
105.16476279894511
10
-5.7264116172989024
20
106.88720086415609
10
-5.1059636299808799
20
108.59574886957803
10
-4.5040364583333323
20
110.29040681521097
10
-3.9298907309770597
20
111.97580236593882
10
-3.3742655985057119
20
113.64730785687766
10
-2.8371615024904262
20
115.30492328802744
10
-2.3278386299808713
20
116.94401392936706
10
-1.8370364627490223
20
118.5738421758016
10
-1.3693854254980842
20
120.18052503267924
10
-0.92488540783524198
20
121.77331782976786
10
-0.498906261039268
20
123.34759996732076
10
-0.096078126931848917
20
124.90797791481017
10
0.2835989461901457
20
126.44519634246826
10
0.64475521054121665
20
127.95928351084392
10
0.98739057642718242
20
129.45483175913492
10
1.3022447740038514
20
130.93186934789023
10
1.6032083598276321
20
132.38576154708863
10
1.8810208156705077
20
133.81649422645569
10
2.1403124558428925
20
135.22408151626587
10
2.3764531868199601
20
136.60850928624473
10
2.5987031956514057
20
137.96515693664551
10
2.7978020745019458
20
139.30329392751059
10
2.9783801376819934
20
140.60901606877647
10
3.14043760597706
20
141.89157869021099
10
3.2886041313409859
20
143.14636119206747
10
3.4136197475095784
20
144.37799830436708
10
3.5247448623180659
20
145.57722056706749
10
3.6173489406705017
20
146.74866271018982
10
3.6914322033524578
20
147.89232473373414
10
3.7516249646743285
20
149.00357190767926
10
3.7932969103257146
20
150.08705309232076
10
3.8210779130459063
20
151.13810529708863
10
3.8349688559770811
20
152.16137738227846
10
3.8349688559770585
20
153.14761401812237
10
3.816448040306585
20
154.10607053438824
10
3.7886665960153101
20
155.03211220105493
10
3.7423647776246405
20
155.92573901812239
10
3.6868021098276249
20
156.78696511586509
10
3.6173489406704995
20
157.61114163398742
10
3.5386353636781394
20
158.40290330251059
10
3.44603128532572
20
159.16225012143454
10
3.3441665783524579
20
159.88456149101259
10
3.2284113700191188
20
160.56983741124472
10
3.1080260681609522
20
161.22269848187761
10
2.9737500441571152
20
161.83850997289022
10
2.8348437058428977
20
162.42192074457805
10
2.6820468661685832
20
162.96366133689884
10
2.524619712183886
20
163.47297294934592
10
2.357932371149464
20
163.94526324272158
10
2.1866144950191186
20
164.38050395647682
10
2.0106667461494618
20
164.7740744908651
10
1.8254583686590518
20
165.1352301756541
10
1.6356197872509834
20
165.45933628082278
10
1.4457812058428963
20
165.74178633689883
10
1.2466823269923761
20
165.99180741310121
10
1.0475833377490456
20
166.20017244021099
10
0.84385414458811858
20
166.37148788770043
10
0.63549480270595726
20
166.50576788584391
10
0.42713540562740965
20
166.60299830436708
10
0.21877603614705426
20
166.65855854352316
10
0.01041666666669272
20
166.67708333333334
10
-0.19794270281369203
20
166.65855854352316
10
-0.40630207229404552
20
166.60299830436708
10
-0.61466146937259503
20
166.50576788584391
10
-0.82302081125475057
20
166.37148788770043
10
-1.0267500044156979
20
166.20017244021099
10
-1.2258489936589947
20
165.99180741310121
10
-1.424947872509539
20
165.74178633689883
10
-1.6147864539176073
20
165.45933628082278
10
-1.8046250353256699
20
165.13523017565407
10
-1.9898334128161137
20
164.7740744908651
10
-2.1657811616857812
20
164.38050395647684
10
-2.3370990378161154
20
163.94526324272158
10
-2.5037863788505281
20
163.47297294934589
10
-2.661213532835236
20
162.96366133689878
10
-2.8140103725095278
20
162.42192074457805
10
-2.9529167108237582
20
161.83850997289025
10
-3.0871927348275872
20
161.22269848187767
10
-3.2075780366857662
20
160.56983741124472
10
-3.3233332450191035
20
159.88456149101256
10
-3.4251979519923452
20
159.16225012143454
10
-3.5178020303447788
20
158.40290330251059
10
-3.5965156073371385
20
157.61114163398744
10
-3.6659687764942639
20
156.78696511586509
10
-3.7215314442912737
20
155.92573901812236
10
-3.7678332626819442
20
155.0321122010549
10
-3.7956147069732054
20
154.10607053438824
10
-3.8141355226436957
20
153.14761401812237
10
-3.814135522643701
20
152.16137738227846
10
-3.8002445797125479
20
151.13810529708866
10
-3.7724635769923429
20
150.08705309232079
10
-3.7307916313409755
20
149.00357190767923
10
-3.6705988700190928
20
147.89232473373414
10
-3.5965156073371247
20
146.74866271018982
10
-3.5039115289846947
20
145.57722056706749
10
-3.3927864141762103
20
144.37799830436708
10
-3.2677707980076276
20
143.14636119206747
10
-3.1196042726437074
20
141.89157869021099
10
-2.9575468043486088
20
140.60901606877647
10
-2.7769687411685711
20
139.30329392751059
10
-2.577869862318023
20
137.96515693664551
10
-2.3556198534866186
20
136.60850928624473
10
-2.1194791225095413
20
135.22408151626587
10
-1.8601874823371327
20
133.81649422645569
10
-1.5823750264942491
20
132.38576154708863
10
-1.2814114406704662
20
130.93186934789023
10
-0.96655724309384872
20
129.45483175913492
10
-0.62392187720782799
20
127.95928351084392
10
-0.2627656128567879
20
126.44519634246826
10
0.11691146026521999
20
124.90797791481017
10
0.51973959437262252
20
123.34759996732076
10
0.94571874116860866
20
121.77331782976786
10
1.3902187588314272
20
120.18052503267924
10
1.8578697960823791
20
118.5738421758016
10
2.3486719633142434
20
116.94401392936709
10
2.8579948358237921
20
115.30492328802745
10
3.3950989318390841
20
113.64730785687766
10
3.9507240643104065
20
111.97580236593882
10
4.5248697916667
20
110.29040681521099
10
5.1267969633142183
20
108.59574886957805
10
5.7472449506322763
20
106.88720086415609
10
6.3954739406705201
20
105.16476279894511
10
7.0622237463792379
20
103.43306940396629
10
7.7521246820688301
20
101.69210654894511
10
8.4605468750000039
20
99.941888364156085
10
9.1967500706513921
20
98.182414849599212
10
9.9514736404021829
20
96.418299539883918
10
10.729348781704914
20
94.644928900400785
10
11.530374611417479
20
92.866930596033725
10
12.354552012681978
20
91.084304626782725
10
13.197249788045886
20
89.29240919748942
10
14.063099134961767
20
87.500520833333326
10
14.952099170287472
20
85.708632469177246
10
15.859619579712554
20
83.907481710116073
10
16.790292443831795
20
82.110958615938813
10
17.739484798908272
20
80.309807856877626
10
18.71182784239452
20
78.513284762700394
10
19.707323340574938
20
76.712134003639221
10
20.716708898544315
20
74.915617974599201
10
21.749245144923556
20
73.119094880421969
10
22.804932079712557
20
71.327206516265846
10
23.879140271743164
20
69.539945816993708
10
24.967240289847062
20
67.757312782605496
10
26.078489230076507
20
65.979314478238422
10
27.208261193831795
20
64.205943838755275
10
28.356552648544337
20
62.441835594177249
10
29.523365360498435
20
60.682355014483129
10
30.708699329694138
20
58.932136829694102
10
31.907921592394544
20
57.191177507241576
10
33.125665112336485
20
55.459480579694109
10
34.361933422088654
20
53.737042514483129
10
35.612088259061188
20
52.023863311608622
10
36.876136688391377
20
50.324577701091755
10
38.15870284239454
20
48.634550952911361
10
39.455162588755321
20
46.958417797088615
10
40.765508862336503
20
45.296171168486275
10
42.089748728275332
20
43.652449329694115
10
43.427878654003173
20
42.017982820669815
10
44.775270974636086
20
40.39740990400314
10
46.141181019942003
20
38.795358244578026
10
47.511722262700417
20
37.211827842394499
10
48.90078476270044
20
35.642187499999977
10
50.294478460152952
20
34.091068414847058
10
51.702062217394541
20
32.553839389483102
10
53.118904836972582
20
31.039759286244688
10
54.545009851455724
20
29.544203972816444
10
55.980373728275332
20
28.067166384061149
10
57.425000000000026
20
26.613281249999989
10
58.874253936608667
20
25.173286175727835
10
60.328142603238433
20
23.761072987318027
10
61.791283067067475
20
22.367381056149782
10
63.25906532605493
20
20.996838047107033
10
64.731468184789065
20
19.649447492758426
10
66.213133438428258
20
18.320578195651354
10
67.690171027183567
20
17.01948901812235
10
69.176471010843954
20
15.736921097834905
10
70.662763929367102
20
14.482135063409791
10
72.153691577911388
20
13.250499717394506
10
73.639991561571804
20
12.046646257241541
10
75.130919210116105
20
10.865942602356252
10
76.621846858660419
20
9.7083905190229398
10
78.112767442067494
20
8.5786194384097758
10
79.599067425727853
20
7.4719999293486214
10
81.08536740938824
20
6.3931614230076477
10
82.567032663027476
20
5.342104360957924
10
84.048697916666683
20
4.3188283016283995
10
85.521100775400811
20
3.3187031514942373
10
86.993510699272193
20
2.3463594456513546
10
88.456658228238467
20
1.401796852921426
10
89.91517102718359
20
0.48501564928638857
10
91.369056161244742
20
-0.40398438603930331
10
92.813678900400816
20
-1.2652031426628505
10
94.24904630978908
20
-2.1032708245019238
10
95.675151324272193
20
-2.9089271893104254
10
97.096621608734196
20
-3.686802109827604
10
98.50420889854432
20
-4.4368960276246163
10
99.89789906342827
20
-5.1592082803448394
10
101.28233389854432
20
-5.8537395303448161
10
102.65750633875534
20
-6.5204897776246131
10
104.0141539891561
20
-7.1548282663027596
10
105.36154630978906
20
-7.7660156250000112
10
106.69504857063296
20
-8.3494219809770893
10
108.01465370655066
20
-8.9004170199235517
10
109.31574818293259
20
-9.4282604873180436
10
110.5983108043671
20
-9.9236926376819685
10
111.87161809603376
20
-10.395974099636101
10
113.12177293300635
20
-10.835843361417483
10
114.35341004530594
20
-11.252562817931192
10
115.5711570978165
20
-11.636870074272171
10
116.76575169563299
20
-11.998025759061186
10
117.94182150363926
20
-12.331401324272168
10
119.09938065210982
20
-12.636995003620788
10
120.23377321561182
20
-12.91480768024922
10
121.34502038955689
20
-13.164838471015322
10
122.43775690396632
20
-13.391718573371572
10
123.50733389854435
20
-13.590817673007667
10
124.55376550356549
20
-13.766765201091802
10
125.57240285873414
20
-13.914932609597855
10
126.57252955436709
20
-14.039947563409829
10
127.54487613042201
20
-14.137182397643732
10
128.48944258689883
20
-14.211265660325697
10
129.41084952354436
20
-14.262198234597868
10
130.30911107063295
20
-14.289979237318065
10
131.1749577681224
20
-14.289979237318072
10
132.01765907605491
20
-14.271457980076496
10
132.83256613413494
20
-14.229786034425103
10
133.61507247289029
20
-14.160333086053553
10
134.37443342208866
20
-14.076989194750816
10
135.10137952168785
20
-13.965864300727862
10
135.8005313714346
20
-13.836219032605504
10
136.47191723187765
20
-13.683422192931193
10
137.11088824272156
20
-13.5121040960153
10
137.71744440396631
20
-13.322265625000004
10
138.296220445633
20
-13.113905896743157
10
138.84258163770045
20
-12.882395480076486
10
139.36116271018986
20
-12.6369950036208
10
139.84270833333341
20
-12.368442955613165
10
140.29647383689883
20
-12.085999964674334
10
140.71318976084396
20
-11.78966691394649
10
141.102125565211
20
-11.474812605977061
10
141.45864651997888
20
-11.141437923908256
10
141.77813202540082
20
-10.794172298908251
10
142.06520268122358
20
-10.433015730977084
10
142.31987261772159
20
-10.057969103256866
10
142.54211357434593
20
-9.6736618469159037
10
142.73195381164558
20
-9.2708333333333552
10
142.88475859959922
20
-8.8587450742721821
10
143.00513440767926
20
-8.4327658722798038
10
143.09310949643455
20
-7.997526041666692
10
143.14404913584397
20
-7.5483961512645212
10
143.1625739256541
20
-7.0900051906704977
10
143.14404913584394
20
-6.6269843573371698
10
143.09310949643458
20
-6.1500730226437463
10
143.00976913770043
20
-5.668531373639933
10
142.88937919934597
20
-5.1777290960153106
10
142.73658854166669
20
-4.6776666313409825
10
142.5467483043671
20
-4.1776041666666774
10
142.32449321746833
20
-3.6682812941571297
10
142.06983741124475
20
-3.1543281073371765
10
141.77813202540085
20
-2.6357448269923718
10
141.4540259202322
20
-2.1125312323371621
10
141.09749083518983
20
-1.5846875441571067
10
140.70392030080166
20
-1.056843745584314
10
140.27794904708867
20
-0.52900000220787868
10
139.8195629437765
20
0.0034739580228545369
10
139.32412726084397
20
0.53131768846261584
10
138.80091145833336
20
1.0637916357566839
10
138.24066020647686
20
1.5962656382471314
10
137.64799410502118
20
2.124109436819928
10
137.02754788398747
20
2.651953124999991
10
136.37005208333332
20
3.1797968131800252
10
135.68015556335453
20
3.7030106286207642
10
134.96246479352317
20
4.2169635946551782
10
134.21237330436708
20
4.7355468749999936
10
133.42986696561184
20
5.2448699682950721
10
132.61495990753176
20
5.7449324329694011
10
131.77225859959921
20
6.2449948976436973
10
130.90177717208869
20
6.7357967336972555
10
129.9988808949789
20
7.2173383827010742
10
129.06358389854432
20
7.6942497173945092
10
128.10512738227845
20
8.1619008650382057
10
127.11889074643457
20
8.6202913840611686
10
126.10025339126591
20
9.0694221576054588
10
125.05845651626588
20
9.5092914193868623
10
123.98424479166673
20
9.9399009356896055
10
122.88688767751063
20
10.356619509061156
10
121.76637104352318
20
10.759448022643721
10
120.61345369021103
20
11.153015907605472
10
119.44201154708865
20
11.53732316394645
10
118.24278928438824
20
11.903109163045871
10
117.02041456699378
20
12.259635416666635
10
115.77488739490514
20
12.597640413045884
10
114.50620776812237
20
12.926385663946471
10
113.21901041666672
20
13.236609657605467
10
111.90403294563299
20
13.528312394022944
10
110.57515834967298
20
13.810755384961762
10
109.21851069927222
20
14.074677118658999
10
107.84796592394515
20
14.32007847825686
10
106.45427575906123
20
14.546958580613129
10
105.04669553438825
20
14.759947740038239
10
103.61595578988398
20
14.954416525363918
10
102.17133305072787
20
15.13036493659019
10
100.70818552176161
20
15.28779209057487
10
99.231147933006326
20
15.426697987318024
10
97.740227349599223
20
15.547082626819579
10
96.230774911244765
20
15.644318344195669
10
94.712067143122397
20
15.72766223549843
10
93.179469315211037
20
15.787853672107046
10
91.632981427510629
20
15.824896186590173
10
90.072596414883918
20
15.84341744383174
10
88.502956072489454
20
15.84341744383174
10
86.924060400327079
20
15.82026498913763
10
85.340522933006326
20
15.773963612318031
10
83.743102471033751
20
15.70914097825683
10
82.136419614156125
20
15.621165889501544
10
80.525109092394558
20
15.514671309788994
10
78.904536175727884
20
15.380396610498423
10
77.283963259061196
20
15.227598887681937
10
75.654127947489457
20
15.056281673908236
10
74.019664971033748
20
14.857182574272123
10
72.385201994578082
20
14.634931903084116
10
70.746111353238462
20
14.394161740938824
10
69.102385981877674
20
14.130240007241547
10
67.463288275400842
20
13.843166701992329
10
65.81956996917728
20
13.532942708333326
10
64.175844597816507
20
13.199568026264492
10
62.536746891339646
20
12.843041772643719
10
60.89765625000004
20
12.463364830613113
10
59.263193273544331
20
12.065166631340961
10
57.628730297088651
20
11.639187429348596
10
55.998894985516898
20
11.194687853256864
10
54.373694403966297
20
10.727036705613109
10
52.75774915218355
20
10.236233986417425
10
51.146438630421983
20
9.7222814619540987
10
49.539755773544336
20
9.1898076802492152
10
47.942331779003176
20
8.6295520126819287
10
46.354170179367095
20
8.0507759710152822
10
44.775270974636079
20
7.4534795552491993
10
43.210261829694133
20
6.8284012536207772
10
41.649880349636099
20
6.1848021363218431
10
40.103388929367078
20
5.5226822033524385
10
38.570791101455697
20
4.8374115819732015
10
37.047452135880825
20
4.1289893890420579
10
35.538006762663535
20
3.406677136321838
10
34.047079114119242
20
2.6565834393103707
10
32.565410327911394
20
1.8925990201532734
10
31.102266331513746
20
1.1054635814080425
10
29.65764005978906
20
0.29980729939414741
10
28.226905614137653
20
-0.51973959437264183
10
26.81469242572788
20
-1.3624375353257197
10
25.421000494559625
20
-2.223656347145639
10
24.041198623180403
20
-3.1033957538505534
10
22.684547440211006
20
-4.0016561970114708
10
21.35104694565138
20
-4.9138073623180469
10
20.031438277165119
20
-5.8444793432951041
10
18.739609728256866
20
-6.7890418256322764
10
17.466302436590201
20
-7.7521246820688248
10
16.21151640216511
20
-8.7290989230076796
10
14.984510487318053
20
-9.7245935380459088
10
13.780656144022947
20
-10.729348781704912
10
12.59532305796942
20
-11.752625282605504
10
11.437770974636106
20
-12.789791843295113
10
10.307999894022945
20
-13.836219032605523
10
9.1967500706513992
20
-14.90116659601531
10
8.1179115643104218
20
-15.975374788045908
10
7.0622237463792388
20
-17.058843608697277
10
6.0296875000000281
20
-18.15620248913768
10
5.029562570651386
20
-19.262823764483141
10
4.0525883297125525
20
-20.383333333333358
10
3.1033957538505428
20
-21.508474099636107
10
2.1866144950191431
20
-22.647504925727851
10
1.292984366168596
20
-23.791166949272181
10
0.43176563714321325
20
-24.944087835152974
10
-0.40167186837643365
20
-26.106271115938846
10
-1.2073281779885017
20
-27.273083827892961
10
-1.980573004980879
20
-28.449155402183553
10
-2.7260363876819356
20
-29.629859940210999
10
-3.4390884533524249
20
-30.815192143122381
10
-4.1243595163027358
20
-32.005155543486282
10
-4.7772188206513615
20
-33.199750141302765
10
-5.4022966807087078
20
-34.394344739119227
10
-5.9949636653065594
20
-35.59819819927219
10
-6.5552188913027294
20
-36.797420461972578
10
-7.0830623586972568
20
-38.00127745469414
10
-7.5831248233715378
20
-39.209762112299622
10
-8.0507759710152911
20
-40.413615572452557
10
-8.4813854873180397
20
-41.617469032605499
10
-8.8842131177584012
20
-42.825953690211009
10
-9.2592606286207673
20
-44.025175952911404
10
-9.5972656249999879
20
-45.229032945632937
10
-9.9028593043486079
20
-46.428255208333354
10
-10.180671980977055
20
-47.62284980614983
10
-10.421443026264498
20
-48.812813206513752
10
-10.634432185689578
20
-49.998145409425128
10
-10.815010028084105
20
-51.183477612336496
10
-10.963177436590172
20
-52.359550952911398
10
-11.078932644923512
20
-53.526365431149827
10
-11.162275653084103
20
-54.688545179367082
10
-11.217838541666667
20
-55.84609726270044
10
-11.240989230076451
20
-56.994390483697288
10
-11.231729484597812
20
-58.128790112336503
10
-11.190057538946457
20
-59.258562076091806
10
-11.115974276264486
20
-60.379075177510614
10
-11.0141091277202
20
-61.490322351455696
10
-10.884463859597812
20
-62.587679465611785
10
-10.717776076992344
20
-63.671153585116087
10
-10.527937605977026
20
-64.745358244578057
10
-10.305687817931169
20
-65.810307574272187
10
-10.051025829712529
20
-66.856732114156117
10
-9.7685837219158582
20
-67.889273659388252
10
-9.4583597282568466
20
-68.912545744578054
10
-9.1203538487354834
20
-69.917300105094924
10
-8.7499375353256585
20
-70.908164405822774
10
-8.3563696503638987
20
-71.880510981877691
10
-7.9303904483715719
20
-72.838960433006307
10
-7.4812605579693781
20
-73.778899224599257
10
-7.0043487817048975
20
-74.70030616124474
10
-6.4996564442912694
20
-75.60783010323847
10
-5.9718125353256699
20
-76.492194525400834
10
-5.4161876236398871
20
-77.362675952911388
10
-4.8374115819732042
20
-78.210004925727858
10
-4.2308540960152676
20
-79.038809108734171
10
-3.6011459216475195
20
-79.849095567067494
10
-2.9482863965133506
20
-80.636236635843929
10
-2.2722759621838726
20
-81.404845849672995
10
-1.573114618659005
20
-82.150309673945117
10
-0.85543229387449415
20
-82.877255773544334
10
-0.10996874558426087
20
-83.581049418449425
10
0.65401561837644984
20
-84.257055878639235
10
1.4365207980076677
20
-84.914544614156128
10
2.2421771628161418
20
-85.548887960116105
10
3.061724028984715
20
-86.160071786244728
10
3.9044218043486589
20
-86.748110222816507
10
4.7656408369541188
20
-87.312996204694159
10
5.6407499293486616
20
-87.850102066993742
10
6.5390105932951137
20
-88.364055474599212
10
7.4465310027202234
20
-88.85485642751064
10
8.3725726693868925
20
-89.317877260843943
10
9.3171355932951165
20
-89.757745639483176
10
10.270958262681996
20
-90.16983389854434
10
11.243302189310393
20
-90.558769702911377
10
12.224905861417461
20
-90.919925387700459
10
13.220401359597844
20
-91.253300952911445
10
14.225156603256885
20
-91.563524063428247
10
15.243802789847079
20
-91.845967054367094
10
16.271707838773729
20
-92.105257590611785
10
17.30887528260552
20
-92.336768007278479
10
18.355301588773763
20
-92.540498304367077
10
19.410990289847064
20
-92.716448481877649
10
20.471306655804355
20
-92.864611474672984
10
21.540885416666683
20
-92.989629077911431
10
22.615093608697258
20
-93.086866561571796
10
23.693932998180429
20
-93.156316860516867
10
24.782031250000038
20
-93.197987039883984
10
25.870129501819619
20
-93.211877099673018
10
26.962858951091782
20
-93.202621769905093
10
28.055588400363934
20
-93.165579255422003
10
29.152947280804323
20
-93.10075662136083
10
30.25030616124473
20
-93.008153867721603
10
31.347666807969446
20
-92.892398659388249
10
32.44502745469412
20
-92.748856266339629
10
33.542384568850217
20
-92.577540818850252
10
34.63511401812238
20
-92.378445251782736
10
35.727843467394536
20
-92.156190164883967
10
36.815941719214138
20
-91.910789688428295
10
37.899412306149806
20
-91.632981427510629
10
38.978251695632956
20
-91.336648376782804
10
40.052459887663552
20
-91.012528141339658
10
41.122036882241588
20
-90.660634851455711
10
42.182355014483136
20
-90.285589106877651
10
43.238041949272166
20
-89.88739090760555
10
44.279838824272161
20
-89.466040253639235
10
45.317004501819639
20
-89.016909480094938
10
46.344911317030615
20
-88.544633316993767
10
47.363555737336497
20
-88.053825298945142
10
48.368313630421973
20
-87.535244226455703
10
49.35917793114983
20
-86.998138364156134
10
50.340779836972558
20
-86.433252382278482
10
51.313126413027476
20
-85.849848675727884
10
52.266948199272171
20
-85.243292514483187
10
53.206879925727868
20
-84.618211563428275
10
54.132921592394531
20
-83.969985222816504
10
55.045073199272174
20
-83.303234092394547
10
55.938703548908265
20
-82.617965237299615
10
56.8184438387553
20
-81.90954392751064
10
57.67966287136079
20
-81.182597827911408
10
58.522360646724749
20
-80.44176873366041
10
59.346533632278465
20
-79.677780119578074
10
60.15219242572789
20
-78.899908510843943
10
60.934698764483166
20
-78.10351211229964
10
61.703315043449429
20
-77.288590923945151
10
62.448778867721579
20
-76.459786740938853
10
63.171090237299616
20
-75.617085433006309
10
63.874876817067488
20
-74.755866400400819
10
64.555518007278479
20
-73.885392038027476
10
65.213013807932555
20
-72.996392885843932
10
65.851977753639247
20
-72.098131338755323
10
66.463168644905124
20
-71.181352066993739
10
67.051200016339664
20
-70.259938065211017
10
67.616085998217287
20
-69.320006338755306
10
68.153191860516898
20
-68.375439882278485
10
68.667145268122397
20
-67.416990431149841
10
69.157946221033782
20
-66.44927858511609
10
69.6209670543671
20
-65.472304344177275
10
70.056207768122391
20
-64.486067708333366
10
70.463668362299643
20
-63.495203407605501
10
70.847976501782753
20
-62.495076711972587
10
71.204497456550612
20
-61.490322351455724
10
71.533245356877671
20
-60.476305596033768
10
71.834206072489465
20
-59.462288840611812
10
72.107393733660388
20
-58.439016755421981
10
72.352794210116102
20
-57.415741137663552
10
72.565779836972581
20
-56.383203125000009
10
72.755620074272173
20
-55.355296309789054
10
72.913045461972573
20
-54.322761829694137
10
73.042690730094947
20
-53.285592619578082
10
73.144555878639252
20
-52.253058139483173
10
73.214013242721578
20
-51.215888929367082
10
73.255683422088666
20
-50.18335444927218
10
73.269573481877686
20
-49.15081643660865
10
73.251048692067485
20
-48.122913153966294
10
73.204750847816513
20
-47.095006338755312
10
73.126038153966292
20
-46.071730720996896
10
73.019538275400834
20
-45.048451570669819
10
72.88063767751062
20
-44.034438347816483
10
72.713949894905113
20
-43.025052789847095
10
72.514847262700414
20
-42.020298429330218
10
72.287971576054929
20
-41.024802931149829
10
72.03330870469415
20
-40.038566295305898
10
71.746230983734165
20
-39.056964389483142
10
71.426752543449425
20
-38.084621345996872
10
71.079486918449433
20
-37.121537164847084
10
70.704434108734176
20
-36.167711846033768
10
70.29698057969415
20
-35.22315245469413
10
69.861739865938858
20
-34.292479590574914
10
69.398719032605499
20
-33.375696786244745
10
68.903283349672989
20
-32.468176376819642
10
68.384702277183578
20
-31.574546027183551
10
67.833706355094961
20
-30.694805737336502
10
67.250302648544363
20
-29.828959039847081
10
66.643746487299623
20
-28.981630067030611
10
66.004775476455706
20
-28.143561722834932
10
65.342659076054915
20
-27.324016402165114
10
64.652755490938858
20
-26.522988806168261
10
63.930444121360821
20
-25.740484233697273
10
63.184980297088664
20
-24.971869721015327
10
62.411736353238432
20
-24.221776465574926
10
61.615339954694157
20
-23.490202701091782
10
60.791163436571779
20
-22.781781391302758
10
59.939199733734156
20
-22.091879572471001
10
59.064094173908245
20
-21.420500777165099
10
58.161201429367104
20
-20.767641472816493
10
57.235159762700427
20
-20.142562288045902
10
56.285969173908256
20
-19.531374929348658
10
55.313626130421973
20
-18.947969456513725
10
54.318130632241612
20
-18.387712905804342
10
53.294855014483176
20
-17.845979378620804
10
52.253058139483144
20
-17.33202597101533
10
51.192740007241575
20
-16.83659382065138
10
50.104641755421973
20
-16.368943556149819
10
48.998022246360819
20
-15.929073411226293
10
47.872881480058055
20
-15.50772452354434
10
46.724588259061186
20
-15.114155755440425
10
45.557777313391405
20
-14.748369756340997
10
44.372441577911388
20
-14.40573444565139
10
43.16858811775846
20
-14.090880137681964
10
41.946213400363952
20
-13.803807715574933
10
40.709948623180416
20
-13.539885098735507
10
39.450531391302754
20
-13.303744367758455
10
38.18185529708866
20
-13.095385522643729
10
36.894657945632964
20
-12.914807680249217
10
35.58893580436709
20
-12.762010840574913
10
34.273958333333347
20
-12.636995003620783
10
32.940459605058066
20
-12.544390483697271
10
31.597698481877675
20
-12.474937535325692
10
30.241047298908263
20
-12.433265589674328
10
28.875135487318076
20
-12.419374646743144
10
27.490702418486297
20
-12.437895903984717
10
26.101639918486299
20
-12.4841981639465
10
24.698687358697271
20
-12.55828142662846
10
23.29110360145571
20
-12.660145692030603
10
21.869629784425108
20
-12.789791843295111
10
20.443526536226283
20
-12.951849311590223
10
19.008160893122358
20
-13.141687782605507
10
17.563536387681985
20
-13.359307256341012
10
16.114280684789041
20
-13.609338930249226
10
14.660395550727861
20
-13.882520409425128
10
13.201880102356292
20
-14.188114971915891
10
11.738734339674332
20
-14.521489653984712
10
10.270958262681981
20
-14.882645338773763
10
8.8031821856896375
20
-15.276214106877671
10
7.3307762359579751
20
-15.692931797107072
10
5.8537395303448143
20
-16.142062570651408
10
4.3767032663027594
20
-16.618973463773752
10
2.9042968750000053
20
-17.119036811590199
10
1.4272603901724292
20
-17.651509710152979
10
-0.049776039458791499
20
-18.211766260862369
10
-1.5221822651723937
20
-18.795171733697281
10
-2.994588435689598
20
-19.406359092394524
10
-4.4623645126819511
20
-20.049957768122383
10
-5.9255102753639122
20
-20.712077701091786
10
-7.388656038045851
20
-21.406608951091787
10
-8.8425420552491882
20
-22.124290889501591
10
-10.291796874999992
20
-22.869754713773752
10
-11.736422263582549
20
-23.638369226455723
10
-13.176416454712538
20
-24.430136193831792
10
-14.607150900363912
20
-25.249681514501582
10
-16.033255914847043
20
-26.092381056149819
10
-17.445469103256855
20
-26.958229519923549
10
-18.853052860498426
20
-27.851859869559629
10
-20.246744791666647
20
-28.764009710152962
10
-21.635807291666641
20
-29.699313771724739
10
-23.010979731877633
20
-30.657766755421974
10
-24.376889777183539
20
-31.634740996360804
10
-25.728911528984682
20
-32.634864159425135
10
-27.067041454712545
20
-33.658139777183571
10
-28.395910751819589
20
-34.695308987299633
10
-29.710891755421951
20
-35.755623586972575
10
-31.007347969214123
20
-36.839094173908272
10
-32.294545320669798
20
-37.936454820632939
10
-33.567852612336466
20
-39.052333192030623
10
-34.822642179330188
20
-40.186732820669832
10
-36.058906956513709
20
-41.335026041666694
10
-37.285912871360757
20
-42.50183698733651
10
-38.489766331513707
20
-43.687172722816484
10
-39.679729731877643
20
-44.881767320632946
10
-40.851171874999977
20
-46.094879643122397
10
-42.004092760880773
20
-47.321885557969424
10
-43.138495922088609
20
-48.562781532605527
10
-44.254374293486279
20
-49.812936369578054
10
-45.35173494021096
20
-51.076984798908278
10
-46.425943132241571
20
-52.350292090574911
10
-47.481630067030586
20
-53.637489442030613
10
-48.51879574457805
20
-54.929317990938848
10
-49.537443697452524
20
-56.235036599636111
10
-50.53293919563292
20
-57.550014070669839
10
-51.505282239119204
20
-58.869626271724712
10
-52.454472827911388
20
-60.193862605094928
10
-53.385145692030576
20
-61.531992530822784
10
-54.292666101455673
20
-62.870122456550625
10
-55.177037588755297
20
-64.212887112299612
10
-56.042884286244707
20
-65.564907097816473
10
-56.88095439672469
20
-66.916927083333334
10
-57.700499717394493
20
-68.268947068850224
10
-58.492264918486285
20
-69.625601784388238
10
-59.260877664883907
20
-70.986877099672981
10
-60.010976219177252
20
-72.343531815211023
10
-60.733287588755289
20
-73.704814195632977
10
-61.43244650363922
20
-75.061461846033751
10
-62.108460028966263
20
-76.418116561571793
10
-62.756686369578034
20
-77.770136547088654
10
-63.386394985516858
20
-79.122156532605516
10
-63.988323481877636
20
-80.464914123217298
10
-64.567099523544286
20
-81.807678778966292
10
-65.118095445632918
20
-83.145808704694133
10
-65.650566577911377
20
-84.474676235516895
10
-66.155257590611782
20
-85.794288436571776
10
-66.636803213755286
20
-87.109265907605533
10
-67.095189317067465
20
-88.414980983734139
10
-67.52580236593883
20
-89.716075460116116
10
-67.933262960116068
20
-91.00327281157179
10
-68.317571099599206
20
-92.276580103238473
10
-68.678726784388203
20
-93.545252664883975
10
-69.012102349599175
20
-94.795414566993728
10
-69.326953125000003
20
-96.036307009061176
10
-69.614023780822762
20
-97.263309391339646
10
-69.877949047088606
20
-98.476428778966266
10
-70.118721858660379
20
-99.671023376782784
10
-70.336335150400771
20
-100.85172084967303
10
-70.530810117721529
20
-102.01853532791142
10
-70.706753230094904
20
-103.16682501633963
10
-70.85492328802745
20
-104.2965969800949
10
-70.979940891265883
20
-105.40785121917725
10
-71.086433704694102
20
-106.49594593842826
10
-71.16977406342825
20
-107.57015766302749
10
-71.229969032605482
20
-108.62121693293255
10
-71.2670115470886
20
-109.65375141302745
10
-71.285529271761561
20
-110.66313343842825
10
-71.28552927176159
20
-111.64937007427216
10
-71.262376817067448
20
-112.61245425542202
10
-71.216078972816462
20
-113.55238598187771
10
-71.151256338755275
20
-114.46916525363923
10
-71.072543644905068
20
-115.35816440582281
10
-70.97067849636079
20
-116.22401816844943
10
-70.850288558006284
20
-117.0620847463608
10
-70.71138796011607
20
-117.8769988695781
10
-70.553955507278445
20
-118.66413993835451
10
-70.378012394905085
20
-119.4234867572785
10
-70.183544492721552
20
-120.15043285687767
10
-69.975179465611774
20
-120.85421943664556
10
-69.752931443850201
20
-121.52560529708865
10
-69.512158632278428
20
-122.16919690767931
10
-69.257502826054903
20
-122.78502252896628
10
-68.98431516488391
20
-123.36843330065413
10
-68.701872173945119
20
-123.91941509246833
10
-68.400911458333354
20
-124.44263089497883
10
-68.086060682932526
20
-124.93343184789025
10
-67.761940447489408
20
-125.39183208147689
10
-67.423937217394482
20
-125.81318273544318
10
-67.072043927510549
20
-126.20673913955692
10
-66.710888242721552
20
-126.56789482434591
10
-66.340470163027447
20
-126.89201505978906
10
-65.956162023544323
20
-127.18835517565415
10
-65.567226219177257
20
-127.44764571189882
10
-65.164393289883947
20
-127.6698866685232
10
-64.752305030822754
20
-127.85972690582282
10
-64.335589106877634
20
-128.01715229352322
10
-63.909610788027429
20
-128.13290750185649
10
-63.474370074272137
20
-128.22088259061184
10
-63.039129360516867
20
-128.2718222300212
10
-62.58999858697257
20
-128.28571228981022
10
-62.140867813428223
20
-128.26255276997887
10
-61.687109374999984
20
-128.20699253082282
10
-61.228716206550573
20
-128.10976211229962
10
-60.76569537321727
20
-127.98011684417727
10
-60.298046874999997
20
-127.81805672645569
10
-59.830398376782753
20
-127.61432642936711
10
-59.3581151485443
20
-127.37818128267925
10
-58.885831920305868
20
-127.10038008689881
10
-58.418183422088617
20
-126.79014991124474
10
-57.945900193850179
20
-126.44288428624472
10
-57.473620498180381
20
-126.05858321189882
10
-57.001337269941949
20
-125.64185315767928
10
-56.533688771724698
20
-125.1834670543671
10
-56.06603674093882
20
-124.69266610145573
10
-55.603015907605489
20
-124.16482969919846
10
-55.144626271724704
20
-123.59994371732083
10
-54.686233103275285
20
-123.00264288584395
10
-54.2371058622996
20
-122.36367187500001
10
-53.787975088755282
20
-121.69228601455693
10
-53.348103177547451
20
-120.98849943478903
10
-52.917493661244713
20
-120.24766327540081
10
-52.486884144941968
20
-119.46979166666668
10
-52.070168220996848
20
-118.65487047831225
10
-51.658076429367064
20
-117.81217623551694
10
-51.250619367758425
20
-116.93243947823848
10
-50.857052365938813
20
-116.01565314133967
10
-50.47274422645566
20
-115.06646608511609
10
-50.09769848187765
20
-114.08485711415615
10
-49.731911599636064
20
-113.07084035873416
10
-49.380014777183519
20
-112.02441581885024
10
-49.037380349636081
20
-110.94557642936709
10
-48.708635981877634
20
-109.83432925542198
10
-48.389150476455697
20
-108.69066723187764
10
-48.083558563391371
20
-107.51459035873415
10
-47.796484374999991
20
-106.31074043114981
10
-47.518672581513712
20
-105.0744756539663
10
-47.254750847816453
20
-103.81042369206752
10
-47.004719173908228
20
-102.51397101084393
10
-46.773208757241562
20
-101.18973114490512
10
-46.555588400363909
20
-99.837711159388235
10
-46.356489300727837
20
-98.453276324272167
10
-46.171280260880785
20
-97.04569609959924
10
-45.999964813391365
20
-95.610328690210991
10
-45.851798288027453
20
-94.147181161244703
10
-45.717521822452525
20
-92.660888242721583
10
-45.601766614119192
20
-91.14680813948317
10
-45.504532663027447
20
-89.609575581550644
10
-45.425816436608613
20
-88.044569969177275
10
-45.365624999999994
20
-86.461039566993747
10
-45.323954820632935
20
-84.849721980094941
10
-45.300802365938821
20
-83.219893733660427
10
-45.300802365938807
20
-81.56227830251062
10
-45.31469242572782
20
-79.890772811571779
10
-45.356366137663507
20
-78.196114865938839
10
-45.411926376819601
20
-76.478304465611814
10
-45.490639070669808
20
-74.741976340611799
10
-45.592504219214121
20
-72.991758155822794
10
-45.712890624999993
20
-71.218387516339661
10
-45.851798288027432
20
-69.431126817067494
10
-46.013854873180399
20
-67.62534839312238
10
-46.199063913027423
20
-65.805679909388246
10
-46.402790677547458
20
-63.967486635843954
10
-46.629673429330197
20
-62.120030967394548
10
-46.879701570669795
20
-60.254057574272167
10
-47.15288569927214
20
-58.378821786244721
10
-47.444587552547439
20
-56.489699470996875
10
-47.759441860516844
20
-54.586683563391382
10
-48.092817425727823
20
-52.674405260880818
10
-48.45397311051687
20
-50.752868096033772
10
-48.833650052547448
20
-48.82207206885024
10
-49.236479449272124
20
-46.882017179330198
10
-49.662457768122337
20
-44.932696362336493
10
-50.106957344214123
20
-42.97875141302746
10
-50.574609374999973
20
-41.015540536244721
10
-51.065410327911358
20
-39.052333192030609
10
-51.574736070632916
20
-37.079863452911411
10
-52.107207202911354
20
-35.102766048908272
10
-52.662834322452554
20
-33.121037447452586
10
-53.236979166666664
20
-31.139308845996876
10
-53.834276465574874
20
-29.157578478256877
10
-54.454722686608633
20
-27.171218679348637
10
-55.093693697452551
20
-25.184858880440405
10
-55.751182432969422
20
-23.203130278984712
10
-56.431823623180399
20
-21.21677048007648
10
-57.130986070632929
20
-19.235041878620795
10
-57.848666242758412
20
-17.25331327716512
10
-58.589498869578037
20
-15.280843538045897
10
-59.348852753639221
20
-13.308374682068859
10
-60.126731427510585
20
-11.340536140402177
10
-60.923127826054881
20
-9.3773279130458835
10
-61.738041949272159
20
-7.4233803143104025
10
-62.57148086229958
20
-5.4740625883142489
10
-63.423437500000006
20
-3.5293749558429148
10
-64.289284197489408
20
-1.5985781559100003
10
-65.178283349672924
20
0.32758855049807939
10
-66.081179626782742
20
2.23986464515328
10
-66.997958898544312
20
4.1428803319732239
10
-67.933262960116068
20
6.0366356109579344
10
-68.882450016339632
20
7.9165003885825431
10
-69.850168927510566
20
9.7871040960152751
10
-70.827143168449396
20
11.643817743658989
10
-71.822635134061187
20
13.486640448371546
10
-72.832024224599195
20
15.310942778984682
10
-73.850668644905085
20
17.125983597834875
10
-74.883203124999994
20
18.922504925727822
10
-75.929627664883924
20
20.705136193831738
10
-76.989949329694113
20
22.46924443840981
10
-78.054898659388215
20
24.214833192030557
10
-79.133730983734139
20
25.946531885862349
10
-80.226460433006281
20
27.659707556168232
10
-81.323824612299589
20
29.349734304348605
10
-82.430444121360779
20
31.021238029003136
10
-83.550953690210989
20
32.674222262700383
10
-84.67146325906117
20
34.308688771724704
10
-85.805862887700385
20
35.919999293486264
10
-86.944897246360782
20
37.508160893122337
10
-88.08855926990509
20
39.077801235516844
10
-89.23684895833334
20
40.619661458333312
10
-90.389773376782742
20
42.143000423908212
10
-91.54732546011607
20
43.643186934789
10
-92.709505208333326
20
45.120224523544287
10
-93.876319686571748
20
46.569478460152922
10
-95.043127099672958
20
47.995583474636057
10
-96.20994157791138
20
49.398536034425078
10
-97.381383721033728
20
50.77833967208862
10
-98.552825864156091
20
52.125728460152949
10
-99.719640342394513
20
53.454599523544303
10
-100.89108248551688
20
54.751055737336458
10
-102.0578969637553
20
56.02436302900314
10
-103.22007671197257
20
57.269890201091741
10
-104.38226352532706
20
58.492264918486264
10
-105.53981560866038
20
59.682228318850186
10
-106.69273296197255
20
60.844408067067455
10
-107.84102265040082
20
61.98344242572783
10
-108.9846846739451
20
63.090061934789034
10
-110.11909136772155
20
64.168901324272142
10
-111.24885626633962
20
65.224588259061193
10
-112.36937290032705
20
66.247867409388235
10
-113.48062007427215
20
67.243359374999997
10
-114.58723958333334
20
68.206443556149793
10
-115.67996903260548
20
69.146375282605476
10
-116.76343608697255
20
70.053899224599206
10
-117.83301308155059
20
70.933635981877643
10
-118.89332768122355
20
71.780964954694113
10
-119.93975928624472
20
72.605141472816456
10
-120.97230083147684
20
73.396903141339621
10
-121.99093818664552
20
74.160891755421943
10
-123.00033434232076
20
74.892465519905087
10
-123.98655684789023
20
75.596252099672938
10
-124.96353815396628
20
76.272265625000003
10
-125.91735994021099
20
76.920491965611774
10
-126.85729166666668
20
77.536310521761578
10
-127.78333333333335
20
78.124348958333329
10
-128.68622961044312
20
78.684607275327053
10
-129.57058696746827
20
79.217078407605484
10
-130.43644779523214
20
79.717141755421949
10
-131.27913497289023
20
80.1940526485443
10
-132.10331149101256
20
80.638548692067474
10
-132.90434261957807
20
81.059899346033731
10
-133.68684895833334
20
81.448835150400797
10
-134.44157517751057
20
81.809997900327033
10
-135.17777660687767
20
82.148001130421946
10
-135.88619791666667
20
82.453596576054892
10
-136.5714738368988
20
82.736039566993725
10
-137.23359023729961
20
82.990695373217264
10
-137.86792651812237
20
83.217578124999989
10
-138.47448267936707
20
83.421308422088615
10
-139.05789345105489
20
83.597258599599201
10
-139.61350997289023
20
83.745421592394521
10
-140.14136050542197
20
83.870439195632912
10
-140.6414167881012
20
83.972304344177232
10
-141.11370708147686
20
84.051017038027439
10
-141.55820312500001
20
84.101949612299606
10
-141.97029844919842
20
84.129729731877632
10
-142.35459952354432
20
84.134357396761587
10
-142.71112047831218
20
84.120467336972553
10
-143.03060598373412
20
84.078797157605493
10
-143.32231136957805
20
84.018602188428247
10
-143.5862366358439
20
83.935261829694099
10
-143.81311232248942
20
83.828769016265866
10
-144.01220788955692
20
83.703751413027433
10
-144.17426800727844
20
83.560216085116053
10
-144.30854800542195
20
83.393528302510575
10
-144.40577842394509
20
83.20831573009491
10
-144.47522872289022
20
83.004585433006284
10
-144.50764357248943
20
82.782337411244697
10
-144.50300884246826
20
82.546199329694119
10
-144.47060812314353
20
82.286908793449399
10
-144.40115782419841
20
82.01372113227842
10
-144.29465794563296
20
81.726650476455688
10
-144.15574321746826
20
81.421055030822743
10
-143.98442776997885
20
81.101569525400791
10
-143.77607687314352
20
80.763566295305878
10
-143.53067639668782
20
80.416300670305887
10
-143.25286107063295
20
80.055144985516876
10
-142.93801029523215
20
79.680099240938802
10
-142.59074467023214
20
79.295791101455677
10
-142.20642946561179
20
78.897592902183519
10
-141.78507881164552
20
78.48550464312234
10
-141.33132743835449
20
78.064153989156097
10
-140.84052648544312
20
77.638175670305884
10
-140.31267595291138
20
77.198307291666666
10
-139.74778997103374
20
76.74917651812234
10
-139.1504891395569
20
76.295418079694116
10
-138.51615285873413
20
75.832397246360784
10
-137.84940172831216
20
75.360114018122346
10
-137.14561514854432
20
74.883203124999994
10
-136.40477898915609
20
74.401664566993702
10
-135.63154211044312
20
73.915491278966272
10
-134.82125565210978
20
73.424690326054886
10
-133.9739196141561
20
72.929254643122349
10
-133.09418285687767
20
72.429191295305884
10
-132.18203124999999
20
71.929127947489434
10
-131.23284419377646
20
71.424436934789
10
-130.25122815767924
20
70.919745922088609
10
-129.23722553253174
20
70.415054909388203
10
-128.18615919748942
20
69.910356831550587
10
-127.10269214312237
20
69.401038153966269
10
-125.9868102391561
20
68.900974806149804
10
-124.83852761586508
20
68.396283793449385
10
-123.65781601270041
20
67.89622044563292
10
-122.44470369021099
20
67.39615709781647
10
-121.19917651812236
20
66.900721414883918
10
-119.92123449643452
20
66.409920461972533
10
-118.61552648544313
20
65.923747173945102
10
-117.27738949457805
20
65.442208615938824
10
-115.90685178438821
20
64.965297722816459
10
-114.50852688948314
20
64.497649224599186
10
-113.08242187500001
20
64.029993661244703
10
-111.6239090760549
20
63.576235222816479
10
-110.13760909239451
20
63.12710444927216
10
-108.62816371917724
20
62.687236070632935
10
-107.08630349636078
20
62.251995356877629
10
-105.5212908188502
20
61.830644702911357
10
-103.92849802176158
20
61.418556443850193
10
-102.30792510509491
20
61.015730579694093
10
-100.66419973373412
20
60.622160045305868
10
-98.992701307932549
20
60.237851905822737
10
-97.298043362299609
20
59.867440891265858
10
-95.580232961972555
20
59.510912871360794
0
CIRCLE
5
108
100
AcDbEntity
8
0
100
AcDbCircle
10
-160
20
160
30
0
40
2.5000000000000089
210
0
220
0
230
1
0
CIRCLE
5
109
100
AcDbEntity
8
0
100
AcDbCircle
10
-160.00000000000003
20
-159.99999999999997
30
0
40
2.5000000000000089
210
0
220
0
230
1
0
CIRCLE
5
110
100
AcDbEntity
8
0
100
AcDbCircle
10
159.99999999999997
20
-160.00000000000003
30
0
40
2.5000000000000089
210
0
220
0
230
1
0
CIRCLE
5
111
100
AcDbEntity
8
0
100
AcDbCircle
10
160.00000000000003
20
159.99999999999997
30
0
40
2.5000000000000089
210
0
220
0
230
1
0
ENDSEC
0
SECTION
2
OBJECTS
0
DICTIONARY
5
C
100
AcDbDictionary
3
ACAD_GROUP
350
D
3
ACAD_MLINESTYLE
350
17
0
DICTIONARY
5
D
100
AcDbDictionary
0
DICTIONARY
5
1A
330
C
100
AcDbDictionary
0
DICTIONARY
5
17
100
AcDbDictionary
0
ENDSEC
0
EOF
