0
SECTION
2
HEADER
9
$INSUNITS
70
4
9
$ACADVER
1
AC1014
9
$HANDSEED
5
FFFF
0
ENDSEC
0
SECTION
2
TABLES
0
TABLE
2
VPORT
5
8
100
AcDbSymbolTable
0
ENDTAB
0
TABLE
2
LTYPE
5
5
100
AcDbSymbolTable
0
LTYPE
5
14
100
AcDbSymbolTableRecord
100
AcDbLinetypeTableRecord
2
BYBLOCK
70
0
0
LTYPE
5
15
100
AcDbSymbolTableRecord
100
AcDbLinetypeTableRecord
2
BYLAYER
70
0
0
ENDTAB
0
TABLE
2
LAYER
5
2
100
AcDbSymbolTable
70
2
0
LAYER
5
50
100
AcDbSymbolTableRecord
100
AcDbLayerTableRecord
2
0
70
0
6
CONTINUOUS
0
ENDTAB
0
TABLE
2
STYLE
5
3
100
AcDbSymbolTable
70
1
0
STYLE
5
11
100
AcDbSymbolTableRecord
100
AcDbTextStyleTableRecord
2
STANDARD
70
0
0
ENDTAB
0
TABLE
2
VIEW
5
6
100
AcDbSymbolTable
70
0
0
ENDTAB
0
TABLE
2
UCS
5
7
100
AcDbSymbolTable
70
0
0
ENDTAB
0
TABLE
2
APPID
5
9
100
AcDbSymbolTable
70
2
0
APPID
5
12
100
AcDbSymbolTableRecord
100
AcDbRegAppTableRecord
2
ACAD
70
0
0
ENDTAB
0
TABLE
2
DIMSTYLE
5
A
100
AcDbSymbolTable
70
1
0
ENDTAB
0
TABLE
2
BLOCK_RECORD
5
1
100
AcDbSymbolTable
70
1
0
BLOCK_RECORD
5
1F
100
AcDbSymbolTableRecord
100
AcDbBlockTableRecord
2
*MODEL_SPACE
0
BLOCK_RECORD
5
1B
100
AcDbSymbolTableRecord
100
AcDbBlockTableRecord
2
*PAPER_SPACE
0
ENDTAB
0
ENDSEC
0
SECTION
2
BLOCKS
0
BLOCK
5
20
100
AcDbEntity
100
AcDbBlockBegin
2
*MODEL_SPACE
0
ENDBLK
5
21
100
AcDbEntity
100
AcDbBlockEnd
0
BLOCK
5
1C
100
AcDbEntity
100
AcDbBlockBegin
2
*PAPER_SPACE
0
ENDBLK
5
1D
100
AcDbEntity
100
AcDbBlockEnd
0
ENDSEC
0
SECTION
2
ENTITIES
0
CIRCLE
5
100
100
AcDbEntity
8
0
100
AcDbCircle
10
-45
20
0
30
0
40
2.5499999999999998
210
0
220
-0
230
1
0
CIRCLE
5
101
100
AcDbEntity
8
0
100
AcDbCircle
10
-45
20
-10
30
0
40
2.0499999999999998
210
0
220
-0
230
1
0
CIRCLE
5
102
100
AcDbEntity
8
0
100
AcDbCircle
10
-35
20
0
30
0
40
2.5499999999999998
210
0
220
-0
230
1
0
CIRCLE
5
103
100
AcDbEntity
8
0
100
AcDbCircle
10
-45
20
-40
30
0
40
2.0499999999999998
210
0
220
-0
230
1
0
CIRCLE
5
104
100
AcDbEntity
8
0
100
AcDbCircle
10
-45
20
10
30
0
40
2.0499999999999998
210
0
220
-0
230
1
0
CIRCLE
5
105
100
AcDbEntity
8
0
100
AcDbCircle
10
-55
20
0
30
0
40
2.5499999999999989
210
0
220
-0
230
1
0
CIRCLE
5
106
100
AcDbEntity
8
0
100
AcDbCircle
10
-45
20
-80
30
0
40
2.0499999999999998
210
0
220
-0
230
1
0
LWPOLYLINE
5
107
100
AcDbEntity
8
0
100
AcDbPolyline
90
4
70
1
43
0.0
10
-51
20
-19.078784028338916
42
-6.5131306713898152
10
-39
20
-19.078784028338909
10
-39
20
-80
42
-0.99999999999999989
10
-51
20
-80
0
CIRCLE
5
108
100
AcDbEntity
8
0
100
AcDbCircle
10
-10
20
0
30
0
40
2.5499999999999989
210
0
220
-0
230
1
0
CIRCLE
5
109
100
AcDbEntity
8
0
100
AcDbCircle
10
0
20
10
30
0
40
2.0499999999999998
210
0
220
-0
230
1
0
CIRCLE
5
110
100
AcDbEntity
8
0
100
AcDbCircle
10
0
20
-10
30
0
40
2.0499999999999998
210
0
220
-0
230
1
0
CIRCLE
5
111
100
AcDbEntity
8
0
100
AcDbCircle
10
0
20
0
30
0
40
2.5499999999999998
210
0
220
-0
230
1
0
CIRCLE
5
112
100
AcDbEntity
8
0
100
AcDbCircle
10
10
20
0
30
0
40
2.5499999999999998
210
0
220
-0
230
1
0
LWPOLYLINE
5
113
100
AcDbEntity
8
0
100
AcDbPolyline
90
2508
70
1
43
0.0
10
-6.0000000000000009
20
-17.605038473875474
10
-6.0000000000000009
20
-16.899440735969847
10
-5.9958039670729963
20
-16.86745767561014
10
-5.9863599566700278
20
-16.804554562981533
10
-5.9767600680011981
20
-16.747810695830715
10
-5.9672296177913591
20
-16.697208078208476
10
-5.957993161769223
20
-16.652722473792711
10
-5.9492743406819173
20
-16.614323428667742
10
-5.9412957269065449
20
-16.581974297668911
10
-5.9342786717379941
20
-16.555632274277944
10
-5.9284431534319779
20
-16.535248424052867
10
-5.9240076260818588
20
-16.52076772157433
10
-5.9211888694073567
20
-16.512129090888838
10
-5.9202018395329663
20
-16.509265449427346
10
-5.832890368203528
20
-16.265785869502849
10
-6.5492528670563921
20
-15.990800070145134
10
-6.6472874378839828
20
-16.230163437828185
10
-6.6484700818877567
20
-16.232951990060652
10
-6.6521557096395174
20
-16.24125786011658
10
-6.6585489516709773
20
-16.254987066338092
10
-6.6678517744989199
20
-16.274039943058682
10
-6.6802633403446388
20
-16.29831120781407
10
-6.695979868443418
20
-16.32769003179796
10
-6.7151944980161957
20
-16.362060113526741
10
-6.7380971529745537
20
-16.40129975567525
10
-6.7648744084295584
20
-16.445281945044613
10
-6.7957093590739301
20
-16.493874435621269
10
-6.8307814895062506
20
-16.546939834685041
10
-6.8702665465649115
20
-16.604335691922529
10
-6.9143364137386403
20
-16.665914591500652
10
-6.9631589877192868
20
-16.731524247053745
10
-7.0168980571617814
20
-16.801007599536135
10
-7.0757131837148659
20
-16.87420291789083
10
-7.1397595853853044
20
-16.95094390248348
10
-7.2091880222971039
20
-17.031059791249472
10
-7.2841446849061118
20
-17.114375468500608
10
-7.8444154208765893
20
-16.864926865307634
10
-7.8326556035484609
20
-16.753474139716438
10
-7.8195745874628306
20
-16.648270762855486
10
-7.8054003294456065
20
-16.549325269310597
10
-7.7903606086546828
20
-16.456639884599568
10
-7.7746828709217901
20
-16.370210535439018
10
-7.7585940734278269
20
-16.290026863615577
10
-7.7423205297918578
20
-16.216072243452324
10
-7.7260877556537588
20
-16.148323802859689
10
-7.7101203148300979
20
-16.086752447958229
10
-7.6946416661227133
20
-16.031322891258963
10
-7.6798740108589385
20
-15.981993683385383
10
-7.6660381412422032
20
-15.93871724831925
10
-7.6533532895912204
20
-15.901439922150995
10
-7.6420369785455735
20
-15.870101995313464
10
-7.6323048723150233
20
-15.844637758276274
10
-7.6243706290493662
20
-15.824975550676427
10
-7.6184457544050455
20
-15.811037813858901
10
-7.6147394563842496
20
-15.802741146799679
10
-7.6134585015214649
20
-15.799996365381721
10
-7.5011747852409609
20
-15.566977125995443
10
-8.1848691323435894
20
-15.218617456471177
10
-8.3073869445211379
20
-15.446422163545348
10
-8.3088545929569158
20
-15.449071819836604
10
-8.3133882302872681
20
-15.456946936462241
10
-8.3211815422981612
20
-15.469932656890709
10
-8.3324249712137153
20
-15.487908750184838
10
-8.3473055832095273
20
-15.510749692507753
10
-8.3660069378465813
20
-15.538324751689832
10
-8.3887089594935933
20
-15.570498074813202
10
-8.415587810804702
20
-15.607128778768759
10
-8.4468157683185012
20
-15.648071043739593
10
-8.4825611002432559
20
-15.693174209562759
10
-8.5229879464922309
20
-15.742282874920527
10
-8.5682562010319003
20
-15.795236999310255
10
-8.6185213966047591
20
-15.85187200774131
10
-8.6739345918872317
20
-15.912018898105462
10
-8.734642261142179
20
-15.975504351166531
10
-8.8007861864240802
20
-16.042150843113241
10
-8.872503352394002
20
-16.111776760618319
10
-8.9499258438000115
20
-16.184196518345519
10
-9.0331807456775692
20
-16.259220678845026
10
-9.5643077807782753
20
-15.95257434215574
10
-9.5409624028268833
20
-15.842961401890445
10
-9.5169562986022154
20
-15.739701678644957
10
-9.4925170682659807
20
-15.642779832275043
10
-9.4678714758079678
20
-15.55217426670154
10
-9.4432452953137869
20
-15.467857156391675
10
-9.4188631579410327
20
-15.389794476390115
10
-9.3949483996826224
20
-15.317946035882295
10
-9.3717229099957873
20
-15.252265515271098
10
-9.3494069813745018
20
-15.192700506745718
10
-9.3282191599429112
20
-15.139192558320589
10
-9.3083760971465992
20
-15.091677221319921
10
-9.2900924026181322
20
-15.050084101282177
10
-9.2735804982926382
20
-15.014336912256914
10
-9.2590504738486228
20
-14.984353534465008
10
-9.2467099435485096
20
-14.960046075291311
10
-9.2367639045527739
20
-14.941320933577735
10
-9.2294145967807211
20
-14.928078867182448
10
-9.2248613643903337
20
-14.920215063770002
10
-9.2233005189486938
20
-14.917619214795161
10
-9.0872747616095655
20
-14.697613323496228
10
-9.7308102586228316
20
-14.279696485243683
10
-9.8764689813616222
20
-14.493446655667059
10
-9.8782055543660228
20
-14.495928385828311
10
-9.883537529795646
20
-14.503286467597931
10
-9.8926455266287263
20
-14.515386427962911
10
-9.9057063762718514
20
-14.5320887879907
10
-9.9228929993187691
20
-14.553249157737278
10
-9.9443742845391832
20
-14.578718333998699
10
-9.9703149701605618
20
-14.608342400855816
10
-10.000875527504693
20
-14.641962832960429
10
-10.036212047039895
20
-14.679416601509976
10
-10.076476126908272
20
-14.720536282856465
10
-10.121814763986537
20
-14.765150169693904
10
-10.172370247537486
20
-14.813082384767711
10
-10.228280055508108
20
-14.864152997047679
10
-10.289676753528941
20
-14.918178140305518
10
-10.356687896668085
20
-14.974970134036347
10
-10.429435933991906
20
-15.034337606662627
10
-10.508038115983158
20
-15.096085620957787
10
-10.592606404865839
20
-15.160015801625725
10
-10.683247387884766
20
-15.225926464971351
10
-11.179411583173668
20
-14.865442076220408
10
-11.144736421445181
20
-14.758869863592533
10
-11.110068244982962
20
-14.658685129098876
10
-11.075631803649518
20
-14.564848825934966
10
-11.041650361792804
20
-14.477315773035853
10
-11.008345548124193
20
-14.396034697481717
10
-10.975937206671993
20
-14.320948280359788
10
-10.944643248887102
20
-14.25199320605687
10
-10.914679506976787
20
-14.189100214955449
10
-10.886259588541765
20
-14.13219415950433
10
-10.859594732591409
20
-14.081194063633538
10
-10.834893667010984
20
-14.036013185481195
10
-10.812362467554147
20
-13.996559083398894
10
-10.792204418433265
20
-13.962733685200172
10
-10.774619874579297
20
-13.934433360615392
10
-10.759806125642008
20
-13.911548996914561
10
-10.747957261800774
20
-13.893966077658362
10
-10.739264041454881
20
-13.88156476453582
10
-10.733913760861801
20
-13.874219982245936
10
-10.732090125790585
20
-13.871801506378807
10
-10.573812654055462
20
-13.667219393751482
10
-11.170138591405658
20
-13.184324171105251
10
-11.33734235725832
20
-13.381677913280585
10
-11.3393288285741
20
-13.383964526956849
10
-11.345400723864405
20
-13.390724957186801
10
-11.355723616400395
20
-13.401806587790455
10
-11.370458789369245
20
-13.417052220000246
10
-11.389763123228633
20
-13.436300179731457
10
-11.413788985576286
20
-13.459384427447329
10
-11.442684123591921
20
-13.486134670562471
10
-11.476591559107606
20
-13.516376478326464
10
-11.515649486361539
20
-13.549931399128806
10
-11.559991172488699
20
-13.58661708016492
10
-11.609744860800706
20
-13.626247389401803
10
-11.665033676905734
20
-13.668632539780869
10
-11.725975537718119
20
-13.713579215594404
10
-11.792683063405704
20
-13.760890700970904
10
-11.865263492321832
20
-13.810367010403688
10
-11.943818598967153
20
-13.861805021256002
10
-12.028444615025276
20
-13.914998608175022
10
-12.119232153514574
20
-13.969738779346061
10
-12.216266136097069
20
-14.025813814517484
10
-12.67203141282155
20
-13.615440916104243
10
-12.626406375644104
20
-13.513077058577016
10
-12.581455958740442
20
-13.417064957751306
10
-12.537399599267323
20
-13.327342287967374
10
-12.494454615799969
20
-13.243840778187671
10
-12.452836063464954
20
-13.166486269862208
10
-12.412756590504141
20
-13.095198778118739
10
-12.37442629634295
20
-13.029892556244562
10
-12.338052591235835
20
-12.970476163424625
10
-12.303840057560695
20
-12.916852535699654
10
-12.271990312833355
20
-12.868919060106014
10
-12.242701874512347
20
-12.826567651957738
10
-12.21617002666334
20
-12.789684835229595
10
-12.192586688551588
20
-12.758151825998496
10
-12.172140285229926
20
-12.731844618899224
10
-12.155015620188806
20
-12.710634076548821
10
-12.141393750133847
20
-12.694386021892829
10
-12.131451861955396
20
-12.682961333424752
10
-12.125363151953412
20
-12.676216043229193
10
-12.123296707380087
20
-12.674001437797466
10
-11.944501642350993
20
-12.487084548279253
10
-12.487084548279256
20
-11.944501642350989
10
-12.674001437797466
20
-12.12329670738008
10
-12.676216043229198
20
-12.125363151953405
10
-12.682961333424752
20
-12.131451861955389
10
-12.694386021892834
20
-12.14139375013384
10
-12.710634076548825
20
-12.155015620188793
10
-12.731844618899224
20
-12.17214028522992
10
-12.7581518259985
20
-12.192586688551581
10
-12.7896848352296
20
-12.216170026663338
10
-12.826567651957745
20
-12.242701874512338
10
-12.86891906010602
20
-12.271990312833347
10
-12.916852535699661
20
-12.303840057560691
10
-12.970476163424632
20
-12.338052591235833
10
-13.029892556244565
20
-12.374426296342946
10
-13.095198778118746
20
-12.412756590504134
10
-13.166486269862208
20
-12.452836063464947
10
-13.243840778187677
20
-12.494454615799961
10
-13.327342287967374
20
-12.537399599267314
10
-13.417064957751307
20
-12.581455958740435
10
-13.513077058577021
20
-12.626406375644097
10
-13.615440916104244
20
-12.672031412821546
10
-14.025813814517491
20
-12.216266136097065
10
-13.969738779346068
20
-12.11923215351457
10
-13.914998608175022
20
-12.028444615025274
10
-13.861805021256011
20
-11.943818598967152
10
-13.81036701040369
20
-11.865263492321825
10
-13.76089070097091
20
-11.7926830634057
10
-13.713579215594409
20
-11.725975537718117
10
-13.668632539780871
20
-11.665033676905727
10
-13.626247389401806
20
-11.609744860800701
10
-13.586617080164928
20
-11.559991172488695
10
-13.549931399128807
20
-11.515649486361534
10
-13.516376478326464
20
-11.476591559107598
10
-13.486134670562473
20
-11.442684123591913
10
-13.459384427447333
20
-11.413788985576277
10
-13.436300179731457
20
-11.389763123228624
10
-13.417052220000251
20
-11.370458789369239
10
-13.401806587790457
20
-11.355723616400393
10
-13.390724957186803
20
-11.345400723864396
10
-13.383964526956849
20
-11.339328828574097
10
-13.381677913280587
20
-11.337342357258313
10
-13.184324171105253
20
-11.170138591405651
10
-13.667219393751475
20
-10.57381265405547
10
-13.871801506378802
20
-10.73209012579059
10
-13.874219982245936
20
-10.733913760861807
10
-13.881564764535813
20
-10.739264041454888
10
-13.893966077658355
20
-10.74795726180078
10
-13.911548996914556
20
-10.759806125642015
10
-13.934433360615389
20
-10.774619874579301
10
-13.96273368520017
20
-10.792204418433274
10
-13.996559083398893
20
-10.812362467554152
10
-14.036013185481195
20
-10.83489366701099
10
-14.081194063633538
20
-10.859594732591418
10
-14.132194159504326
20
-10.886259588541767
10
-14.189100214955443
20
-10.914679506976793
10
-14.251993206056866
20
-10.944643248887109
10
-14.320948280359787
20
-10.975937206672002
10
-14.396034697481713
20
-11.008345548124193
10
-14.477315773035846
20
-11.04165036179281
10
-14.564848825934966
20
-11.075631803649523
10
-14.65868512909887
20
-11.110068244982967
10
-14.758869863592528
20
-11.144736421445188
10
-14.8654420762204
20
-11.179411583173675
10
-15.225926464971346
20
-10.683247387884773
10
-15.160015801625724
20
-10.592606404865846
10
-15.09608562095778
20
-10.508038115983165
10
-15.034337606662625
20
-10.429435933991913
10
-14.97497013403634
20
-10.356687896668092
10
-14.918178140305514
20
-10.289676753528942
10
-14.864152997047677
20
-10.228280055508115
10
-14.813082384767704
20
-10.17237024753749
10
-14.765150169693904
20
-10.121814763986539
10
-14.720536282856456
20
-10.076476126908275
10
-14.679416601509976
20
-10.0362120470399
10
-14.64196283296042
20
-10.000875527504698
10
-14.608342400855815
20
-9.9703149701605689
10
-14.578718333998694
20
-9.9443742845391885
10
-14.553249157737278
20
-9.9228929993187762
10
-14.532088787990698
20
-9.9057063762718567
10
-14.515386427962904
20
-9.8926455266287334
10
-14.503286467597928
20
-9.8835375297956531
10
-14.495928385828307
20
-9.8782055543660263
10
-14.493446655667057
20
-9.8764689813616311
10
-14.279696485243676
20
-9.7308102586228351
10
-14.697613323496233
20
-9.0872747616095566
10
-14.917619214795169
20
-9.2233005189486832
10
-14.92021506377001
20
-9.2248613643903283
10
-14.928078867182455
20
-9.2294145967807122
10
-14.941320933577742
20
-9.2367639045527632
10
-14.96004607529132
20
-9.2467099435485043
10
-14.984353534465011
20
-9.2590504738486175
10
-15.014336912256924
20
-9.2735804982926311
10
-15.050084101282179
20
-9.2900924026181251
10
-15.091677221319928
20
-9.3083760971465921
10
-15.139192558320591
20
-9.3282191599429041
10
-15.192700506745719
20
-9.3494069813744964
10
-15.2522655152711
20
-9.3717229099957784
10
-15.317946035882306
20
-9.3949483996826153
10
-15.389794476390119
20
-9.4188631579410238
10
-15.467857156391682
20
-9.4432452953137798
10
-15.552174266701545
20
-9.4678714758079572
10
-15.64277983227505
20
-9.4925170682659736
10
-15.739701678644966
20
-9.5169562986022136
10
-15.842961401890449
20
-9.5409624028268745
10
-15.952574342155748
20
-9.5643077807782682
10
-16.259220678845029
20
-9.0331807456775604
10
-16.18419651834553
20
-8.9499258438000027
10
-16.111776760618323
20
-8.8725033523939913
10
-16.042150843113244
20
-8.8007861864240731
10
-15.975504351166537
20
-8.7346422611421701
10
-15.912018898105465
20
-8.6739345918872246
10
-15.851872007741317
20
-8.618521396604752
10
-15.79523699931026
20
-8.5682562010318915
10
-15.74228287492053
20
-8.5229879464922202
10
-15.693174209562768
20
-8.4825611002432471
10
-15.648071043739593
20
-8.4468157683184923
10
-15.607128778768766
20
-8.4155878108046931
10
-15.570498074813209
20
-8.388708959493588
10
-15.538324751689839
20
-8.366006937846576
10
-15.510749692507757
20
-8.3473055832095238
10
-15.48790875018484
20
-8.3324249712137064
10
-15.469932656890713
20
-8.3211815422981559
10
-15.456946936462245
20
-8.3133882302872628
10
-15.449071819836615
20
-8.3088545929569086
10
-15.446422163545348
20
-8.3073869445211308
10
-15.218617456471179
20
-8.1848691323435787
10
-15.566977125995436
20
-7.5011747852409671
10
-15.799996365381716
20
-7.6134585015214729
10
-15.802741146799677
20
-7.6147394563842568
10
-15.811037813858897
20
-7.6184457544050534
10
-15.82497555067642
20
-7.6243706290493733
10
-15.844637758276271
20
-7.6323048723150286
10
-15.870101995313457
20
-7.6420369785455824
10
-15.901439922150988
20
-7.6533532895912284
10
-15.938717248319245
20
-7.6660381412422094
10
-15.981993683385376
20
-7.6798740108589421
10
-16.031322891258963
20
-7.6946416661227186
10
-16.086752447958222
20
-7.7101203148301067
10
-16.148323802859686
20
-7.726087755653765
10
-16.216072243452317
20
-7.7423205297918649
10
-16.290026863615573
20
-7.7585940734278322
10
-16.370210535439011
20
-7.774682870921799
10
-16.456639884599561
20
-7.7903606086546917
10
-16.549325269310589
20
-7.8054003294456145
10
-16.648270762855482
20
-7.8195745874628386
10
-16.753474139716438
20
-7.8326556035484689
10
-16.864926865307631
20
-7.8444154208765982
10
-17.114375468500608
20
-7.2841446849061207
10
-17.031059791249472
20
-7.2091880222971128
10
-16.950943902483477
20
-7.1397595853853133
10
-16.87420291789083
20
-7.075713183714873
10
-16.801007599536135
20
-7.0168980571617867
10
-16.731524247053741
20
-6.963158987719293
10
-16.665914591500652
20
-6.9143364137386474
10
-16.604335691922529
20
-6.8702665465649204
10
-16.546939834685041
20
-6.8307814895062577
10
-16.493874435621265
20
-6.7957093590739381
10
-16.445281945044609
20
-6.7648744084295664
10
-16.401299755675247
20
-6.738097152974559
10
-16.362060113526738
20
-6.7151944980162011
10
-16.32769003179796
20
-6.6959798684434233
10
-16.29831120781407
20
-6.6802633403446432
10
-16.274039943058682
20
-6.6678517744989252
10
-16.254987066338089
20
-6.6585489516709826
10
-16.241257860116576
20
-6.6521557096395254
10
-16.232951990060652
20
-6.6484700818877629
10
-16.230163437828182
20
-6.6472874378839908
10
-15.990800070145132
20
-6.5492528670563992
10
-16.265785869502846
20
-5.832890368203536
10
-16.509265449427346
20
-5.9202018395329725
10
-16.512129090888831
20
-5.9211888694073629
10
-16.52076772157433
20
-5.9240076260818633
10
-16.53524842405286
20
-5.9284431534319868
10
-16.555632274277944
20
-5.9342786717379994
10
-16.581974297668907
20
-5.9412957269065503
10
-16.614323428667742
20
-5.9492743406819244
10
-16.652722473792711
20
-5.9579931617692283
10
-16.697208078208476
20
-5.9672296177913662
10
-16.747810695830715
20
-5.9767600680012043
10
-16.804554562981533
20
-5.9863599566700341
10
-16.867457675610133
20
-5.9958039670730034
10
-16.936531770091797
20
-6.0048661759919844
10
-17.011782307615984
20
-6.013320208655978
10
-17.093208462173287
20
-6.0209393940390088
10
-17.180803112148617
20
-6.0274969204352384
10
-17.274552835526613
20
-6.0327659912308214
10
-17.374437908713528
20
-6.0365199807920433
10
-17.480432308977836
20
-6.038532590389023
10
-17.592503720510372
20
-6.0385780040743375
10
-17.782021579109987
20
-5.4553020106615779
10
-17.691327209102102
20
-5.3894648282023514
10
-17.604392955739968
20
-5.3287911182684047
10
-17.521377694346025
20
-5.2731171866767168
10
-17.442435492808343
20
-5.2222752496868203
10
-17.367715515054755
20
-5.1760935565472135
10
-17.297361927428671
20
-5.134396514205708
10
-17.231513808013457
20
-5.0970048141180815
10
-17.170305058950962
20
-5.063735561088337
10
-17.113864321797973
20
-5.0344024040730053
10
-17.062314895963226
20
-5.0088156688809029
10
-17.015774660265922
20
-4.9867824926989561
10
-16.97435599765527
20
-4.9681069603737615
10
-16.938165723128904
20
-4.9525902423777364
10
-16.907305014886688
20
-4.9400307343879746
10
-16.881869348754574
20
-4.9302241984050461
10
-16.86194843591193
20
-4.9229639053383565
10
-16.84762616395377
20
-4.9180407789839036
10
-16.838980541317998
20
-4.9152435413196436
10
-16.836083645106122
20
-4.9143588590430687
10
-16.587784131960532
20
-4.8418816168384771
10
-16.786383259189464
20
-4.1006995836812719
10
-17.037655566423151
20
-4.1620822073086536
10
-17.040606693273045
20
-4.1627644980888014
10
-17.049492640939292
20
-4.1646648305290155
10
-17.064357655472197
20
-4.1675624140190966
10
-17.085239818593841
20
-4.1712352722057435
10
-17.112171019617893
20
-4.1754603959874581
10
-17.145176930929313
20
-4.1800138971304008
10
-17.184276987037094
20
-4.1846711624256674
10
-17.229484367211295
20
-4.1892070083081761
10
-17.280805981714252
20
-4.1933958358572045
10
-17.338242461633694
20
-4.1970117860983152
10
-17.401788152324173
20
-4.1998288955263323
10
-17.471431110461026
20
-4.201621251768886
10
-17.547153104709846
20
-4.2021631493099187
10
-17.628929620012165
20
-4.2012292451925441
10
-17.71672986548678
20
-4.1985947146206604
10
-17.810516785944031
20
-4.1940354063786431
10
-17.91024707700884
20
-4.1873279979886568
10
-18.015871203846451
20
-4.1782501505250762
10
-18.127333423483122
20
-4.1665806630057398
10
-18.2548441401714
20
-3.5666899059928747
10
-18.157764743903588
20
-3.5106935296317712
10
-18.064964595817315
20
-3.4594393005385013
10
-17.97658459019797
20
-3.4127478142706047
10
-17.892760412757067
20
-3.3704361017449185
10
-17.813622457444712
20
-3.3323177612023764
10
-17.73929574637409
20
-3.2982030920215721
10
-17.669899852897714
20
-3.26789923031092
10
-17.605548827873704
20
-3.241210286208331
10
-17.546351129158726
20
-3.2179374828166019
10
-17.492409554362737
20
-3.1978792967019025
10
-17.443821176898965
20
-3.1808315998820036
10
-17.400677285361144
20
-3.1665878032302319
10
-17.363063326258199
20
-3.1549390012204057
10
-17.331058850135179
20
-3.1456741179374466
10
-17.304737461107234
20
-3.138580054277686
10
-17.284166769832375
20
-3.1334418362624028
10
-17.269408349946261
20
-3.1300427643875217
10
-17.260517697981456
20
-3.1281645639319766
10
-17.257544196791283
20
-3.127587536146752
10
-17.003028959609185
20
-3.0814616983975918
10
-17.123065521111869
20
-2.3235806763936533
10
-17.379377563674581
20
-2.3583619314493798
10
-17.382383842749569
20
-2.3587320078147158
10
-17.391419751094411
20
-2.3596930955807585
10
-17.406506213471761
20
-2.3610209886797282
10
-17.42765790014094
20
-2.3624909461441206
10
-17.454883214923946
20
-2.3638778471986801
10
-17.488184286876695
20
-2.364956346597789
10
-17.527556965570355
20
-2.3655010301278452
10
-17.572990819985552
20
-2.3652865701940509
10
-17.624469141020978
20
-2.3640878814110726
10
-17.681968947615701
20
-2.3616802761169344
10
-17.74546099648305
20
-2.3578396197295897
10
-17.814909795452031
20
-2.3523424858656528
10
-17.890273620410646
20
-2.3449663111408641
10
-17.971504535843483
20
-2.3354895495720243
10
-18.058548418954594
20
-2.3236918265002835
10
-18.151344987364396
20
-2.3093540919558637
10
-18.249827830368279
20
-2.292258773384606
10
-18.353924443742297
20
-2.2721899276569384
10
-18.463556268079792
20
-2.2489333922802079
10
-18.527662808761367
20
-1.6390004003362821
10
-18.425262008414308
20
-1.5934583380907079
10
-18.327612703446007
20
-1.5521851418976991
10
-18.234836263437526
20
-1.5149876626479652
10
-18.147048505322772
20
-1.4816697505632153
10
-18.064359624450738
20
-1.4520323951334966
10
-17.986874128935945
20
-1.4258738665678927
10
-17.914690777329355
20
-1.4029898586846079
10
-17.847902519640304
20
-1.3831736331657816
10
-17.786596441738382
20
-1.3662161651017648
10
-17.730853713162613
20
-1.3519062897489857
10
-17.680749538363642
20
-1.3400308504249536
10
-17.636353111402773
20
-1.3303748474634278
10
-17.597727574130417
20
-1.3227215881522887
10
-17.564929977864352
20
-1.3168528375761801
10
-17.538011248586891
20
-1.3125489702855719
10
-17.517016155678107
20
-1.3095891227135124
10
-17.501983284200705
20
-1.3077513462609667
10
-17.492945010750283
20
-1.3068127609713651
10
-17.4899274828831
20
-1.3065497097146559
10
-17.231985043863801
20
-1.2872806407517583
10
-17.27214389395315
20
-0.5210041329749393
10
-17.530687463469825
20
-0.52880294875017386
10
-17.533715957347248
20
-0.52885675606659666
10
-17.542802827067987
20
-0.52886806927978303
10
-17.55794544685093
20
-0.52861172331296702
10
-17.579134914762214
20
-0.52786267489351713
10
-17.60635605705815
20
-0.52639615804273987
10
-17.639587436139212
20
-0.52398783943290916
10
-17.678801362111727
20
-0.52041397353101715
10
-17.723963907951298
20
-0.51545155744883264
10
-17.775034928261412
20
-0.50887848541899605
10
-17.831968081617752
20
-0.5004737028170374
10
-17.894710856488018
20
-0.49001735964941923
10
-17.963204600714519
20
-0.47729096342795096
10
-18.037384554545788
20
-0.46207753135119017
10
-18.117179887201011
20
-0.44416174171377498
10
-18.202513736950145
20
-0.42333008446498377
10
-18.293303254690059
20
-0.39937101083819182
10
-18.389459650996208
20
-0.37207508197335448
10
-18.490888246626895
20
-0.34123511645506832
10
-18.597488526455837
20
-0.30664633668927532
10
-18.597488526455837
20
0.30664633668927532
10
-18.490888246626895
20
0.34123511645506832
10
-18.389459650996208
20
0.37207508197335448
10
-18.293303254690059
20
0.39937101083819182
10
-18.202513736950145
20
0.42333008446498377
10
-18.117179887201011
20
0.44416174171377498
10
-18.037384554545788
20
0.46207753135119017
10
-17.963204600714519
20
0.47729096342795096
10
-17.894710856488018
20
0.49001735964941923
10
-17.831968081617752
20
0.5004737028170374
10
-17.775034928261412
20
0.50887848541899605
10
-17.723963907951298
20
0.51545155744883264
10
-17.678801362111727
20
0.52041397353101715
10
-17.639587436139212
20
0.52398783943290916
10
-17.60635605705815
20
0.52639615804273987
10
-17.579134914762214
20
0.52786267489351713
10
-17.55794544685093
20
0.52861172331296702
10
-17.542802827067987
20
0.52886806927978303
10
-17.533715957347248
20
0.52885675606659666
10
-17.530687463469825
20
0.52880294875017386
10
-17.27214389395315
20
0.5210041329749393
10
-17.231985043863801
20
1.2872806407517665
10
-17.4899274828831
20
1.3065497097146641
10
-17.492945010750283
20
1.3068127609713729
10
-17.501983284200705
20
1.3077513462609744
10
-17.517016155678107
20
1.3095891227135201
10
-17.538011248586891
20
1.3125489702855797
10
-17.564929977864352
20
1.3168528375761881
10
-17.597727574130417
20
1.3227215881522962
10
-17.636353111402773
20
1.3303748474634356
10
-17.680749538363642
20
1.3400308504249614
10
-17.730853713162613
20
1.3519062897489937
10
-17.786596441738382
20
1.3662161651017726
10
-17.847902519640304
20
1.3831736331657896
10
-17.914690777329355
20
1.4029898586846159
10
-17.986874128935945
20
1.4258738665679007
10
-18.064359624450738
20
1.4520323951335046
10
-18.147048505322772
20
1.4816697505632235
10
-18.234836263437526
20
1.5149876626479739
10
-18.327612703446007
20
1.5521851418977066
10
-18.425262008414308
20
1.5934583380907161
10
-18.527662808761363
20
1.6390004003362904
10
-18.463556268079792
20
2.2489333922802017
10
-18.353924443742297
20
2.2721899276569326
10
-18.249827830368279
20
2.2922587733846003
10
-18.151344987364396
20
2.3093540919558571
10
-18.058548418954594
20
2.3236918265002773
10
-17.971504535843483
20
2.3354895495720185
10
-17.890273620410646
20
2.3449663111408583
10
-17.814909795452031
20
2.3523424858656465
10
-17.74546099648305
20
2.3578396197295843
10
-17.681968947615701
20
2.3616802761169287
10
-17.624469141020978
20
2.3640878814110668
10
-17.572990819985552
20
2.3652865701940451
10
-17.527556965570355
20
2.3655010301278394
10
-17.488184286876695
20
2.3649563465977828
10
-17.454883214923946
20
2.3638778471986739
10
-17.42765790014094
20
2.3624909461441153
10
-17.406506213471761
20
2.361020988679722
10
-17.391419751094411
20
2.3596930955807527
10
-17.382383842749569
20
2.3587320078147096
10
-17.379377563674581
20
2.358361931449374
10
-17.123065521111869
20
2.3235806763936475
10
-17.003028959609185
20
3.0814616983976029
10
-17.257544196791283
20
3.1275875361467635
10
-17.260517697981456
20
3.1281645639319891
10
-17.269408349946257
20
3.1300427643875333
10
-17.284166769832371
20
3.1334418362624143
10
-17.304737461107234
20
3.1385800542776976
10
-17.331058850135168
20
3.1456741179374585
10
-17.363063326258196
20
3.1549390012204181
10
-17.400677285361141
20
3.1665878032302439
10
-17.443821176898961
20
3.1808315998820165
10
-17.492409554362737
20
3.1978792967019154
10
-17.546351129158726
20
3.2179374828166147
10
-17.605548827873704
20
3.2412102862083438
10
-17.669899852897714
20
3.267899230310932
10
-17.739295746374086
20
3.2982030920215855
10
-17.813622457444708
20
3.3323177612023884
10
-17.89276041275706
20
3.3704361017449314
10
-17.976584590197962
20
3.4127478142706167
10
-18.064964595817308
20
3.4594393005385142
10
-18.157764743903588
20
3.5106935296317845
10
-18.2548441401714
20
3.566689905992888
10
-18.127333423483122
20
4.166580663005738
10
-18.015871203846451
20
4.1782501505250762
10
-17.91024707700884
20
4.187327997988656
10
-17.810516785944031
20
4.1940354063786414
10
-17.71672986548678
20
4.1985947146206586
10
-17.628929620012165
20
4.2012292451925424
10
-17.547153104709846
20
4.2021631493099179
10
-17.471431110461026
20
4.201621251768886
10
-17.401788152324173
20
4.1998288955263305
10
-17.338242461633694
20
4.1970117860983125
10
-17.280805981714252
20
4.1933958358572028
10
-17.229484367211295
20
4.1892070083081743
10
-17.184276987037094
20
4.1846711624256665
10
-17.145176930929313
20
4.1800138971303999
10
-17.112171019617893
20
4.1754603959874572
10
-17.085239818593841
20
4.1712352722057444
10
-17.064357655472197
20
4.1675624140190966
10
-17.049492640939292
20
4.1646648305290137
10
-17.040606693273045
20
4.1627644980887997
10
-17.037655566423151
20
4.1620822073086536
10
-16.786383259189464
20
4.1006995836812719
10
-16.587784131960532
20
4.8418816168384815
10
-16.836083645106122
20
4.9143588590430722
10
-16.838980541317998
20
4.9152435413196489
10
-16.84762616395377
20
4.9180407789839062
10
-16.86194843591193
20
4.92296390533836
10
-16.881869348754574
20
4.9302241984050497
10
-16.907305014886688
20
4.9400307343879781
10
-16.938165723128904
20
4.9525902423777382
10
-16.97435599765527
20
4.9681069603737633
10
-17.015774660265922
20
4.9867824926989606
10
-17.062314895963226
20
5.0088156688809073
10
-17.113864321797973
20
5.0344024040730098
10
-17.170305058950962
20
5.0637355610883406
10
-17.231513808013457
20
5.097004814118085
10
-17.297361927428671
20
5.1343965142057124
10
-17.367715515054755
20
5.1760935565472179
10
-17.442435492808343
20
5.2222752496868265
10
-17.521377694346025
20
5.2731171866767212
10
-17.604392955739968
20
5.3287911182684091
10
-17.691327209102102
20
5.3894648282023558
10
-17.782021579109987
20
5.4553020106615815
10
-17.592503720510372
20
6.0385780040743278
10
-17.480432308977839
20
6.0385325903890132
10
-17.374437908713535
20
6.0365199807920309
10
-17.27455283552662
20
6.0327659912308107
10
-17.180803112148617
20
6.0274969204352269
10
-17.09320846217329
20
6.0209393940389964
10
-17.011782307615988
20
6.0133202086559674
10
-16.936531770091801
20
6.0048661759919746
10
-16.86745767561014
20
5.9958039670729928
10
-16.804554562981533
20
5.9863599566700216
10
-16.747810695830722
20
5.9767600680011945
10
-16.697208078208476
20
5.9672296177913564
10
-16.652722473792714
20
5.9579931617692186
10
-16.614323428667742
20
5.9492743406819129
10
-16.581974297668911
20
5.9412957269065405
10
-16.555632274277947
20
5.934278671737987
10
-16.535248424052867
20
5.9284431534319744
10
-16.520767721574334
20
5.9240076260818544
10
-16.512129090888838
20
5.9211888694073522
10
-16.50926544942735
20
5.920201839532961
10
-16.265785869502849
20
5.8328903682035262
10
-15.990800070145132
20
6.5492528670564063
10
-16.230163437828182
20
6.6472874378839979
10
-16.232951990060652
20
6.6484700818877709
10
-16.241257860116576
20
6.6521557096395334
10
-16.254987066338089
20
6.6585489516709906
10
-16.274039943058682
20
6.6678517744989332
10
-16.298311207814066
20
6.6802633403446521
10
-16.327690031797957
20
6.695979868443434
10
-16.362060113526738
20
6.7151944980162082
10
-16.401299755675247
20
6.738097152974567
10
-16.445281945044609
20
6.7648744084295744
10
-16.493874435621258
20
6.7957093590739461
10
-16.546939834685034
20
6.8307814895062657
10
-16.604335691922518
20
6.8702665465649293
10
-16.665914591500652
20
6.9143364137386554
10
-16.731524247053741
20
6.9631589877193001
10
-16.801007599536135
20
7.0168980571617965
10
-16.874202917890827
20
7.0757131837148801
10
-16.950943902483477
20
7.1397595853853213
10
-17.031059791249472
20
7.2091880222971207
10
-17.114375468500608
20
7.2841446849061287
10
-16.864926865307634
20
7.8444154208765893
10
-16.753474139716438
20
7.8326556035484609
10
-16.648270762855486
20
7.8195745874628306
10
-16.549325269310597
20
7.8054003294456065
10
-16.456639884599568
20
7.7903606086546828
10
-16.370210535439018
20
7.7746828709217901
10
-16.290026863615577
20
7.7585940734278269
10
-16.216072243452324
20
7.7423205297918578
10
-16.148323802859689
20
7.7260877556537588
10
-16.086752447958229
20
7.7101203148300979
10
-16.031322891258963
20
7.6946416661227133
10
-15.981993683385383
20
7.6798740108589385
10
-15.93871724831925
20
7.6660381412422032
10
-15.901439922150995
20
7.6533532895912204
10
-15.870101995313464
20
7.6420369785455735
10
-15.844637758276274
20
7.6323048723150233
10
-15.824975550676427
20
7.6243706290493662
10
-15.811037813858901
20
7.6184457544050455
10
-15.802741146799679
20
7.6147394563842496
10
-15.799996365381721
20
7.6134585015214649
10
-15.566977125995443
20
7.5011747852409609
10
-15.218617456471177
20
8.1848691323435911
10
-15.446422163545339
20
8.3073869445211415
10
-15.449071819836604
20
8.3088545929569193
10
-15.45694693646224
20
8.3133882302872735
10
-15.469932656890709
20
8.3211815422981648
10
-15.487908750184838
20
8.3324249712137153
10
-15.510749692507753
20
8.3473055832095326
10
-15.538324751689832
20
8.3660069378465884
10
-15.570498074813198
20
8.3887089594935986
10
-15.607128778768757
20
8.4155878108047055
10
-15.648071043739588
20
8.446815768318503
10
-15.693174209562759
20
8.4825611002432595
10
-15.742282874920519
20
8.5229879464922327
10
-15.795236999310255
20
8.5682562010319039
10
-15.851872007741308
20
8.6185213966047627
10
-15.912018898105458
20
8.6739345918872353
10
-15.97550435116653
20
8.7346422611421826
10
-16.042150843113234
20
8.8007861864240837
10
-16.111776760618316
20
8.8725033523940038
10
-16.184196518345519
20
8.9499258438000115
10
-16.259220678845026
20
9.0331807456775728
10
-15.952574342155748
20
9.5643077807782682
10
-15.842961401890449
20
9.5409624028268745
10
-15.739701678644966
20
9.5169562986022136
10
-15.64277983227505
20
9.4925170682659736
10
-15.552174266701545
20
9.4678714758079572
10
-15.467857156391682
20
9.4432452953137798
10
-15.389794476390119
20
9.4188631579410238
10
-15.317946035882306
20
9.3949483996826153
10
-15.2522655152711
20
9.3717229099957784
10
-15.192700506745719
20
9.3494069813744964
10
-15.139192558320591
20
9.3282191599429041
10
-15.091677221319928
20
9.3083760971465921
10
-15.050084101282179
20
9.2900924026181251
10
-15.014336912256924
20
9.2735804982926311
10
-14.984353534465011
20
9.2590504738486175
10
-14.96004607529132
20
9.2467099435485043
10
-14.941320933577742
20
9.2367639045527632
10
-14.928078867182455
20
9.2294145967807122
10
-14.92021506377001
20
9.2248613643903283
10
-14.917619214795169
20
9.2233005189486832
10
-14.697613323496233
20
9.0872747616095566
10
-14.279696485243676
20
9.7308102586228387
10
-14.493446655667057
20
9.8764689813616329
10
-14.495928385828307
20
9.8782055543660299
10
-14.503286467597928
20
9.8835375297956531
10
-14.515386427962904
20
9.8926455266287334
10
-14.532088787990698
20
9.905706376271862
10
-14.553249157737278
20
9.9228929993187762
10
-14.578718333998694
20
9.944374284539192
10
-14.608342400855815
20
9.9703149701605689
10
-14.64196283296042
20
10.0008755275047
10
-14.679416601509976
20
10.036212047039903
10
-14.720536282856456
20
10.076476126908281
10
-14.765150169693904
20
10.121814763986546
10
-14.813082384767704
20
10.172370247537494
10
-14.864152997047677
20
10.228280055508117
10
-14.918178140305514
20
10.289676753528948
10
-14.97497013403634
20
10.356687896668094
10
-15.034337606662625
20
10.429435933991918
10
-15.09608562095778
20
10.508038115983167
10
-15.160015801625724
20
10.592606404865847
10
-15.225926464971346
20
10.683247387884776
10
-14.865442076220408
20
11.179411583173666
10
-14.758869863592533
20
11.144736421445177
10
-14.658685129098878
20
11.110068244982962
10
-14.564848825934966
20
11.075631803649514
10
-14.477315773035853
20
11.041650361792801
10
-14.396034697481721
20
11.00834554812419
10
-14.320948280359794
20
10.975937206671993
10
-14.251993206056873
20
10.944643248887102
10
-14.189100214955449
20
10.914679506976784
10
-14.132194159504332
20
10.88625958854176
10
-14.081194063633539
20
10.859594732591409
10
-14.036013185481195
20
10.834893667010984
10
-13.996559083398896
20
10.812362467554147
10
-13.962733685200178
20
10.792204418433265
10
-13.934433360615392
20
10.774619874579294
10
-13.911548996914567
20
10.759806125642008
10
-13.893966077658362
20
10.747957261800769
10
-13.881564764535824
20
10.739264041454881
10
-13.874219982245943
20
10.733913760861798
10
-13.871801506378807
20
10.732090125790585
10
-13.667219393751484
20
10.573812654055462
10
-13.184324171105251
20
11.170138591405658
10
-13.381677913280585
20
11.33734235725832
10
-13.383964526956849
20
11.3393288285741
10
-13.390724957186801
20
11.345400723864405
10
-13.401806587790455
20
11.355723616400395
10
-13.417052220000246
20
11.370458789369245
10
-13.436300179731457
20
11.389763123228633
10
-13.459384427447329
20
11.413788985576286
10
-13.486134670562471
20
11.442684123591921
10
-13.516376478326464
20
11.476591559107606
10
-13.549931399128806
20
11.515649486361539
10
-13.58661708016492
20
11.559991172488699
10
-13.626247389401803
20
11.609744860800706
10
-13.668632539780869
20
11.665033676905734
10
-13.713579215594404
20
11.725975537718119
10
-13.760890700970904
20
11.792683063405704
10
-13.810367010403688
20
11.865263492321832
10
-13.861805021256002
20
11.943818598967153
10
-13.914998608175022
20
12.028444615025276
10
-13.969738779346061
20
12.119232153514574
10
-14.025813814517484
20
12.216266136097069
10
-13.615440916104248
20
12.672031412821541
10
-13.513077058577025
20
12.626406375644095
10
-13.417064957751315
20
12.581455958740433
10
-13.327342287967383
20
12.537399599267314
10
-13.243840778187684
20
12.494454615799954
10
-13.166486269862212
20
12.452836063464945
10
-13.095198778118753
20
12.412756590504134
10
-13.029892556244569
20
12.374426296342946
10
-12.970476163424633
20
12.338052591235833
10
-12.916852535699663
20
12.303840057560688
10
-12.868919060106021
20
12.271990312833347
10
-12.826567651957747
20
12.242701874512338
10
-12.789684835229602
20
12.216170026663333
10
-12.758151825998507
20
12.192586688551581
10
-12.731844618899233
20
12.17214028522992
10
-12.71063407654883
20
12.155015620188793
10
-12.694386021892836
20
12.14139375013384
10
-12.682961333424759
20
12.131451861955389
10
-12.676216043229205
20
12.125363151953405
10
-12.674001437797472
20
12.12329670738008
10
-12.487084548279261
20
11.944501642350984
10
-11.944501642350989
20
12.487084548279261
10
-12.12329670738008
20
12.674001437797472
10
-12.125363151953405
20
12.676216043229205
10
-12.131451861955389
20
12.682961333424759
10
-12.14139375013384
20
12.694386021892836
10
-12.155015620188793
20
12.71063407654883
10
-12.17214028522992
20
12.731844618899233
10
-12.192586688551581
20
12.758151825998507
10
-12.216170026663338
20
12.789684835229602
10
-12.242701874512338
20
12.826567651957747
10
-12.271990312833347
20
12.868919060106021
10
-12.303840057560691
20
12.916852535699663
10
-12.338052591235833
20
12.970476163424633
10
-12.374426296342946
20
13.029892556244569
10
-12.412756590504134
20
13.095198778118753
10
-12.452836063464947
20
13.166486269862212
10
-12.494454615799961
20
13.243840778187684
10
-12.537399599267314
20
13.327342287967383
10
-12.581455958740435
20
13.417064957751315
10
-12.626406375644097
20
13.513077058577025
10
-12.672031412821546
20
13.615440916104248
10
-12.216266136097072
20
14.025813814517484
10
-12.119232153514574
20
13.969738779346056
10
-12.028444615025279
20
13.914998608175015
10
-11.943818598967153
20
13.861805021256002
10
-11.865263492321837
20
13.810367010403688
10
-11.792683063405709
20
13.760890700970903
10
-11.725975537718124
20
13.713579215594402
10
-11.66503367690574
20
13.668632539780866
10
-11.609744860800706
20
13.626247389401803
10
-11.559991172488706
20
13.586617080164913
10
-11.515649486361539
20
13.549931399128802
10
-11.476591559107606
20
13.516376478326455
10
-11.442684123591921
20
13.486134670562468
10
-11.413788985576286
20
13.459384427447326
10
-11.389763123228633
20
13.436300179731454
10
-11.370458789369247
20
13.417052220000246
10
-11.3557236164004
20
13.401806587790448
10
-11.345400723864405
20
13.390724957186794
10
-11.339328828574102
20
13.383964526956849
10
-11.33734235725832
20
13.381677913280585
10
-11.170138591405664
20
13.184324171105244
10
-10.573812654055462
20
13.667219393751482
10
-10.732090125790585
20
13.871801506378807
10
-10.733913760861801
20
13.874219982245936
10
-10.739264041454881
20
13.88156476453582
10
-10.747957261800774
20
13.893966077658362
10
-10.759806125642008
20
13.911548996914561
10
-10.774619874579297
20
13.934433360615392
10
-10.792204418433265
20
13.962733685200172
10
-10.812362467554147
20
13.996559083398894
10
-10.834893667010984
20
14.036013185481195
10
-10.859594732591409
20
14.081194063633538
10
-10.886259588541765
20
14.13219415950433
10
-10.914679506976787
20
14.189100214955449
10
-10.944643248887102
20
14.25199320605687
10
-10.975937206671993
20
14.320948280359788
10
-11.008345548124193
20
14.396034697481717
10
-11.041650361792804
20
14.477315773035853
10
-11.075631803649518
20
14.564848825934966
10
-11.110068244982962
20
14.658685129098876
10
-11.144736421445181
20
14.758869863592533
10
-11.179411583173668
20
14.865442076220408
10
-10.683247387884776
20
15.225926464971346
10
-10.592606404865849
20
15.160015801625724
10
-10.508038115983167
20
15.09608562095778
10
-10.429435933991918
20
15.03433760666262
10
-10.356687896668094
20
14.97497013403634
10
-10.28967675352895
20
14.918178140305507
10
-10.228280055508119
20
14.864152997047677
10
-10.172370247537497
20
14.813082384767704
10
-10.121814763986547
20
14.765150169693904
10
-10.076476126908281
20
14.720536282856456
10
-10.036212047039905
20
14.679416601509974
10
-10.000875527504704
20
14.641962832960418
10
-9.9703149701605707
20
14.608342400855815
10
-9.944374284539192
20
14.578718333998694
10
-9.922892999318778
20
14.553249157737277
10
-9.9057063762718638
20
14.532088787990695
10
-9.892645526628737
20
14.515386427962904
10
-9.8835375297956567
20
14.503286467597928
10
-9.8782055543660334
20
14.495928385828307
10
-9.8764689813616329
20
14.493446655667057
10
-9.7308102586228387
20
14.279696485243676
10
-9.0872747616095566
20
14.697613323496233
10
-9.2233005189486832
20
14.917619214795167
10
-9.2248613643903283
20
14.920215063770005
10
-9.2294145967807122
20
14.928078867182455
10
-9.2367639045527632
20
14.941320933577735
10
-9.2467099435485043
20
14.960046075291316
10
-9.2590504738486175
20
14.98435353446501
10
-9.2735804982926329
20
15.014336912256923
10
-9.2900924026181251
20
15.050084101282179
10
-9.3083760971465939
20
15.091677221319928
10
-9.3282191599429058
20
15.139192558320591
10
-9.3494069813744964
20
15.192700506745719
10
-9.3717229099957837
20
15.2522655152711
10
-9.3949483996826171
20
15.317946035882301
10
-9.4188631579410256
20
15.389794476390117
10
-9.4432452953137833
20
15.467857156391682
10
-9.4678714758079607
20
15.552174266701545
10
-9.4925170682659772
20
15.642779832275044
10
-9.5169562986022136
20
15.739701678644959
10
-9.5409624028268762
20
15.842961401890447
10
-9.5643077807782699
20
15.952574342155748
10
-9.0331807456775763
20
16.259220678845026
10
-8.9499258438000204
20
16.184196518345516
10
-8.8725033523940073
20
16.111776760618316
10
-8.8007861864240908
20
16.042150843113234
10
-8.7346422611421879
20
15.975504351166524
10
-8.6739345918872388
20
15.912018898105455
10
-8.6185213966047662
20
15.851872007741308
10
-8.5682562010319074
20
15.795236999310253
10
-8.5229879464922362
20
15.742282874920519
10
-8.482561100243263
20
15.693174209562759
10
-8.4468157683185083
20
15.648071043739586
10
-8.4155878108047091
20
15.607128778768757
10
-8.3887089594936022
20
15.570498074813194
10
-8.3660069378465902
20
15.538324751689832
10
-8.3473055832095362
20
15.510749692507753
10
-8.3324249712137206
20
15.487908750184832
10
-8.3211815422981683
20
15.469932656890705
10
-8.3133882302872752
20
15.456946936462238
10
-8.3088545929569229
20
15.449071819836604
10
-8.307386944521145
20
15.446422163545339
10
-8.1848691323435947
20
15.218617456471172
10
-7.5011747852409636
20
15.566977125995443
10
-7.6134585015214684
20
15.79999636538172
10
-7.6147394563842541
20
15.802741146799679
10
-7.6184457544050499
20
15.811037813858897
10
-7.6243706290493698
20
15.824975550676424
10
-7.6323048723150277
20
15.844637758276274
10
-7.6420369785455788
20
15.870101995313462
10
-7.653353289591224
20
15.90143992215099
10
-7.6660381412422085
20
15.93871724831925
10
-7.6798740108589403
20
15.981993683385378
10
-7.6946416661227177
20
16.031322891258963
10
-7.7101203148301032
20
16.086752447958222
10
-7.7260877556537633
20
16.148323802859686
10
-7.7423205297918614
20
16.216072243452324
10
-7.7585940734278314
20
16.290026863615577
10
-7.7746828709217954
20
16.370210535439014
10
-7.7903606086546873
20
16.456639884599564
10
-7.8054003294456109
20
16.549325269310589
10
-7.8195745874628377
20
16.648270762855482
10
-7.8326556035484654
20
16.753474139716435
10
-7.8444154208765937
20
16.864926865307631
10
-7.2841446849061322
20
17.114375468500604
10
-7.2091880222971225
20
17.031059791249465
10
-7.1397595853853257
20
16.950943902483473
10
-7.0757131837148846
20
16.874202917890827
10
-7.0168980571618
20
16.801007599536128
10
-6.9631589877193045
20
16.731524247053741
10
-6.9143364137386598
20
16.665914591500652
10
-6.8702665465649337
20
16.604335691922518
10
-6.8307814895062684
20
16.546939834685034
10
-6.7957093590739506
20
16.493874435621258
10
-6.7648744084295771
20
16.445281945044606
10
-6.7380971529745723
20
16.40129975567524
10
-6.7151944980162135
20
16.362060113526734
10
-6.6959798684434366
20
16.327690031797953
10
-6.6802633403446565
20
16.298311207814066
10
-6.6678517744989376
20
16.274039943058682
10
-6.6585489516709924
20
16.254987066338078
10
-6.6521557096395378
20
16.241257860116573
10
-6.6484700818877744
20
16.232951990060652
10
-6.6472874378840014
20
16.230163437828182
10
-6.5492528670564116
20
15.990800070145127
10
-5.8328903682035262
20
16.265785869502849
10
-5.920201839532961
20
16.50926544942735
10
-5.9211888694073522
20
16.512129090888838
10
-5.9240076260818544
20
16.520767721574334
10
-5.9284431534319744
20
16.535248424052867
10
-5.934278671737987
20
16.555632274277947
10
-5.9412957269065405
20
16.581974297668911
10
-5.9492743406819129
20
16.614323428667742
10
-5.9579931617692186
20
16.652722473792714
10
-5.9672296177913564
20
16.697208078208476
10
-5.9767600680011945
20
16.747810695830722
10
-5.9863599566700216
20
16.804554562981533
10
-5.9958039670729928
20
16.86745767561014
10
-6.0048661759919746
20
16.936531770091801
10
-6.0133202086559674
20
17.011782307615988
10
-6.0209393940389964
20
17.09320846217329
10
-6.0274969204352269
20
17.180803112148617
10
-6.0327659912308107
20
17.27455283552662
10
-6.0365199807920309
20
17.374437908713535
10
-6.0385325903890132
20
17.480432308977839
10
-6.0385780040743278
20
17.592503720510372
10
-5.4553020106615815
20
17.782021579109987
10
-5.3894648282023558
20
17.691327209102102
10
-5.3287911182684091
20
17.604392955739968
10
-5.2731171866767212
20
17.521377694346025
10
-5.2222752496868265
20
17.442435492808343
10
-5.1760935565472179
20
17.367715515054755
10
-5.1343965142057124
20
17.297361927428671
10
-5.0970048141180859
20
17.231513808013457
10
-5.0637355610883432
20
17.170305058950962
10
-5.0344024040730098
20
17.113864321797973
10
-5.0088156688809073
20
17.062314895963226
10
-4.9867824926989615
20
17.015774660265922
10
-4.9681069603737642
20
16.97435599765527
10
-4.9525902423777417
20
16.938165723128904
10
-4.9400307343879781
20
16.907305014886688
10
-4.9302241984050514
20
16.881869348754574
10
-4.9229639053383627
20
16.86194843591193
10
-4.918040778983908
20
16.84762616395377
10
-4.9152435413196489
20
16.838980541317998
10
-4.9143588590430731
20
16.836083645106122
10
-4.8418816168384815
20
16.587784131960532
10
-4.1006995836812692
20
16.786383259189464
10
-4.1620822073086501
20
17.037655566423151
10
-4.162764498088797
20
17.040606693273045
10
-4.1646648305290128
20
17.049492640939292
10
-4.1675624140190939
20
17.064357655472197
10
-4.1712352722057418
20
17.085239818593841
10
-4.1754603959874554
20
17.112171019617893
10
-4.1800138971303973
20
17.145176930929313
10
-4.1846711624256638
20
17.184276987037094
10
-4.1892070083081725
20
17.229484367211295
10
-4.193395835857201
20
17.280805981714252
10
-4.1970117860983107
20
17.338242461633694
10
-4.1998288955263279
20
17.401788152324173
10
-4.2016212517688833
20
17.471431110461026
10
-4.2021631493099152
20
17.547153104709846
10
-4.2012292451925406
20
17.628929620012165
10
-4.1985947146206568
20
17.71672986548678
10
-4.1940354063786405
20
17.810516785944031
10
-4.1873279979886533
20
17.91024707700884
10
-4.1782501505250735
20
18.015871203846451
10
-4.1665806630057372
20
18.127333423483122
10
-3.5666899059928872
20
18.2548441401714
10
-3.5106935296317832
20
18.157764743903588
10
-3.4594393005385138
20
18.064964595817308
10
-3.4127478142706167
20
17.976584590197962
10
-3.3704361017449309
20
17.89276041275706
10
-3.332317761202388
20
17.813622457444708
10
-3.2982030920215841
20
17.739295746374086
10
-3.2678992303109315
20
17.669899852897714
10
-3.2412102862083425
20
17.605548827873704
10
-3.2179374828166143
20
17.546351129158726
10
-3.197879296701915
20
17.492409554362737
10
-3.1808315998820165
20
17.443821176898961
10
-3.1665878032302435
20
17.400677285361141
10
-3.1549390012204177
20
17.363063326258196
10
-3.1456741179374581
20
17.331058850135168
10
-3.1385800542776972
20
17.304737461107234
10
-3.1334418362624139
20
17.284166769832371
10
-3.1300427643875333
20
17.269408349946257
10
-3.1281645639319882
20
17.260517697981456
10
-3.1275875361467631
20
17.257544196791283
10
-3.0814616983976029
20
17.003028959609185
10
-2.3235806763936462
20
17.123065521111869
10
-2.3583619314493731
20
17.379377563674581
10
-2.3587320078147087
20
17.382383842749569
10
-2.3596930955807514
20
17.391419751094411
10
-2.3610209886797207
20
17.406506213471761
10
-2.3624909461441135
20
17.42765790014094
10
-2.3638778471986734
20
17.454883214923946
10
-2.3649563465977819
20
17.488184286876695
10
-2.3655010301278381
20
17.527556965570355
10
-2.3652865701940442
20
17.572990819985552
10
-2.3640878814110655
20
17.624469141020978
10
-2.3616802761169287
20
17.681968947615701
10
-2.3578396197295834
20
17.74546099648305
10
-2.3523424858656461
20
17.814909795452031
10
-2.344966311140857
20
17.890273620410646
10
-2.3354895495720172
20
17.971504535843483
10
-2.3236918265002759
20
18.058548418954594
10
-2.3093540919558562
20
18.151344987364396
10
-2.2922587733845989
20
18.249827830368279
10
-2.2721899276569313
20
18.353924443742297
10
-2.2489333922802013
20
18.463556268079792
10
-1.6390004003362912
20
18.527662808761363
10
-1.5934583380907164
20
18.425262008414308
10
-1.5521851418977073
20
18.327612703446007
10
-1.5149876626479741
20
18.234836263437526
10
-1.4816697505632248
20
18.147048505322772
10
-1.4520323951335057
20
18.064359624450738
10
-1.4258738665679016
20
17.986874128935945
10
-1.4029898586846168
20
17.914690777329355
10
-1.3831736331657907
20
17.847902519640304
10
-1.3662161651017735
20
17.786596441738382
10
-1.3519062897489942
20
17.730853713162613
10
-1.3400308504249625
20
17.680749538363642
10
-1.3303748474634358
20
17.636353111402773
10
-1.3227215881522969
20
17.597727574130417
10
-1.3168528375761879
20
17.564929977864352
10
-1.3125489702855808
20
17.538011248586891
10
-1.3095891227135203
20
17.517016155678107
10
-1.3077513462609747
20
17.501983284200705
10
-1.3068127609713731
20
17.492945010750283
10
-1.3065497097146639
20
17.4899274828831
10
-1.2872806407517667
20
17.231985043863801
10
-0.52100413297494375
20
17.27214389395315
10
-0.52880294875017775
20
17.530687463469825
10
-0.52885675606660021
20
17.533715957347248
10
-0.52886806927978758
20
17.542802827067987
10
-0.52861172331297057
20
17.55794544685093
10
-0.52786267489352112
20
17.579134914762214
10
-0.52639615804274453
20
17.60635605705815
10
-0.52398783943291338
20
17.639587436139212
10
-0.52041397353102203
20
17.678801362111727
10
-0.51545155744883719
20
17.723963907951298
10
-0.50887848541899983
20
17.775034928261412
10
-0.5004737028170414
20
17.831968081617752
10
-0.49001735964942394
20
17.894710856488018
10
-0.47729096342795541
20
17.963204600714519
10
-0.46207753135119489
20
18.037384554545788
10
-0.44416174171377887
20
18.117179887201011
10
-0.42333008446498788
20
18.202513736950145
10
-0.39937101083819648
20
18.293303254690059
10
-0.3720750819733587
20
18.389459650996208
10
-0.3412351164550731
20
18.490888246626895
10
-0.30664633668928021
20
18.597488526455837
10
0.30664633668926911
20
18.597488526455837
10
0.34123511645506199
20
18.490888246626895
10
0.37207508197334871
20
18.389459650996208
10
0.39937101083818538
20
18.293303254690059
10
0.42333008446497788
20
18.202513736950145
10
0.44416174171376888
20
18.117179887201011
10
0.4620775313511849
20
18.037384554545788
10
0.47729096342794541
20
17.963204600714519
10
0.49001735964941284
20
17.894710856488018
10
0.50047370281703141
20
17.831968081617752
10
0.50887848541898983
20
17.775034928261412
10
0.5154515574488272
20
17.723963907951298
10
0.52041397353101093
20
17.678801362111727
10
0.52398783943290339
20
17.639587436139212
10
0.52639615804273454
20
17.60635605705815
10
0.52786267489351113
20
17.579134914762214
10
0.52861172331296169
20
17.55794544685093
10
0.52886806927977759
20
17.542802827067987
10
0.52885675606659133
20
17.533715957347248
10
0.52880294875016776
20
17.530687463469825
10
0.52100413297493375
20
17.27214389395315
10
1.2872806407517645
20
17.231985043863801
10
1.3065497097146628
20
17.4899274828831
10
1.306812760971372
20
17.492945010750283
10
1.3077513462609724
20
17.501983284200705
10
1.3095891227135181
20
17.517016155678107
10
1.3125489702855786
20
17.538011248586891
10
1.3168528375761868
20
17.564929977864352
10
1.3227215881522947
20
17.597727574130417
10
1.3303748474634336
20
17.636353111402773
10
1.3400308504249603
20
17.680749538363642
10
1.351906289748992
20
17.730853713162613
10
1.3662161651017712
20
17.786596441738382
10
1.3831736331657885
20
17.847902519640304
10
1.4029898586846146
20
17.914690777329355
10
1.4258738665678994
20
17.986874128935945
10
1.4520323951335035
20
18.064359624450738
10
1.4816697505632215
20
18.147048505322772
10
1.5149876626479719
20
18.234836263437526
10
1.5521851418977062
20
18.327612703446007
10
1.5934583380907141
20
18.425262008414308
10
1.639000400336289
20
18.527662808761363
10
2.2489333922801991
20
18.463556268079799
10
2.2721899276569291
20
18.353924443742297
10
2.2922587733845967
20
18.249827830368279
10
2.3093540919558544
20
18.151344987364403
10
2.3236918265002737
20
18.058548418954601
10
2.3354895495720163
20
17.97150453584349
10
2.3449663111408547
20
17.890273620410646
10
2.3523424858656439
20
17.814909795452031
10
2.3578396197295803
20
17.74546099648305
10
2.3616802761169255
20
17.681968947615708
10
2.3640878814110646
20
17.624469141020981
10
2.3652865701940415
20
17.572990819985552
10
2.3655010301278367
20
17.527556965570355
10
2.3649563465977796
20
17.488184286876699
10
2.3638778471986708
20
17.454883214923946
10
2.3624909461441126
20
17.427657900140947
10
2.3610209886797193
20
17.406506213471761
10
2.3596930955807505
20
17.391419751094411
10
2.3587320078147069
20
17.382383842749569
10
2.3583619314493709
20
17.379377563674581
10
2.3235806763936449
20
17.123065521111869
10
3.0814616983976029
20
17.003028959609185
10
3.1275875361467653
20
17.257544196791283
10
3.1281645639319899
20
17.260517697981456
10
3.130042764387535
20
17.269408349946257
10
3.1334418362624161
20
17.284166769832371
10
3.1385800542776998
20
17.304737461107234
10
3.1456741179374603
20
17.331058850135168
10
3.1549390012204204
20
17.363063326258196
10
3.1665878032302452
20
17.400677285361141
10
3.1808315998820191
20
17.443821176898961
10
3.1978792967019176
20
17.492409554362737
10
3.2179374828166174
20
17.546351129158726
10
3.2412102862083447
20
17.605548827873704
10
3.2678992303109333
20
17.669899852897714
10
3.2982030920215877
20
17.739295746374086
10
3.3323177612023902
20
17.813622457444708
10
3.3704361017449336
20
17.89276041275706
10
3.412747814270618
20
17.976584590197962
10
3.459439300538516
20
18.064964595817308
10
3.5106935296317854
20
18.157764743903588
10
3.566689905992888
20
18.2548441401714
10
4.1665806630057389
20
18.127333423483122
10
4.1782501505250753
20
18.015871203846451
10
4.1873279979886551
20
17.91024707700884
10
4.1940354063786423
20
17.810516785944031
10
4.1985947146206577
20
17.71672986548678
10
4.2012292451925415
20
17.628929620012165
10
4.2021631493099161
20
17.547153104709846
10
4.2016212517688833
20
17.471431110461026
10
4.1998288955263297
20
17.401788152324173
10
4.1970117860983125
20
17.338242461633694
10
4.1933958358572028
20
17.280805981714252
10
4.1892070083081734
20
17.229484367211295
10
4.1846711624256656
20
17.184276987037094
10
4.1800138971303991
20
17.145176930929313
10
4.1754603959874581
20
17.112171019617893
10
4.1712352722057444
20
17.085239818593841
10
4.1675624140190948
20
17.064357655472197
10
4.1646648305290146
20
17.049492640939292
10
4.1627644980887979
20
17.040606693273045
10
4.1620822073086527
20
17.037655566423151
10
4.100699583681271
20
16.786383259189464
10
4.8418816168384815
20
16.587784131960532
10
4.9143588590430713
20
16.836083645106122
10
4.9152435413196471
20
16.838980541317998
10
4.9180407789839053
20
16.84762616395377
10
4.9229639053383583
20
16.86194843591193
10
4.9302241984050488
20
16.881869348754574
10
4.9400307343879764
20
16.907305014886688
10
4.952590242377739
20
16.938165723128904
10
4.9681069603737615
20
16.97435599765527
10
4.9867824926989579
20
17.015774660265922
10
5.0088156688809065
20
17.062314895963226
10
5.034402404073008
20
17.113864321797973
10
5.0637355610883406
20
17.170305058950962
10
5.0970048141180824
20
17.231513808013457
10
5.1343965142057124
20
17.297361927428671
10
5.1760935565472144
20
17.367715515054755
10
5.222275249686823
20
17.442435492808343
10
5.2731171866767212
20
17.521377694346025
10
5.3287911182684073
20
17.604392955739968
10
5.389464828202355
20
17.691327209102102
10
5.4553020106615824
20
17.782021579109987
10
6.038578004074326
20
17.592503720510372
10
6.0385325903890097
20
17.480432308977839
10
6.03651998079203
20
17.374437908713535
10
6.0327659912308107
20
17.27455283552662
10
6.0274969204352224
20
17.180803112148617
10
6.0209393940389955
20
17.09320846217329
10
6.0133202086559656
20
17.011782307615988
10
6.0048661759919719
20
16.936531770091801
10
5.9958039670729901
20
16.86745767561014
10
5.9863599566700243
20
16.804554562981533
10
5.9767600680011945
20
16.747810695830722
10
5.9672296177913564
20
16.697208078208476
10
5.9579931617692194
20
16.652722473792714
10
5.9492743406819137
20
16.614323428667742
10
5.9412957269065414
20
16.581974297668911
10
5.934278671737987
20
16.555632274277947
10
5.9284431534319726
20
16.535248424052867
10
5.9240076260818526
20
16.520767721574334
10
5.9211888694073522
20
16.512129090888838
10
5.9202018395329592
20
16.50926544942735
10
5.8328903682035254
20
16.265785869502849
10
6.5492528670564054
20
15.990800070145132
10
6.6472874378839952
20
16.230163437828182
10
6.6484700818877673
20
16.232951990060652
10
6.6521557096395334
20
16.241257860116576
10
6.6585489516709888
20
16.254987066338089
10
6.6678517744989314
20
16.274039943058682
10
6.6802633403446521
20
16.298311207814066
10
6.6959798684434313
20
16.327690031797957
10
6.7151944980162082
20
16.362060113526738
10
6.738097152974567
20
16.401299755675247
10
6.7648744084295709
20
16.445281945044609
10
6.7957093590739444
20
16.493874435621258
10
6.8307814895062613
20
16.546939834685034
10
6.8702665465649293
20
16.604335691922518
10
6.9143364137386554
20
16.665914591500652
10
6.9631589877192983
20
16.731524247053741
10
7.0168980571617956
20
16.801007599536135
10
7.0757131837148783
20
16.874202917890827
10
7.1397595853853169
20
16.950943902483477
10
7.2091880222971172
20
17.031059791249472
10
7.284144684906126
20
17.114375468500608
10
7.8444154208765919
20
16.864926865307634
10
7.8326556035484618
20
16.753474139716438
10
7.8195745874628315
20
16.648270762855486
10
7.8054003294456109
20
16.549325269310597
10
7.7903606086546855
20
16.456639884599568
10
7.7746828709217919
20
16.370210535439018
10
7.7585940734278296
20
16.290026863615577
10
7.7423205297918596
20
16.216072243452324
10
7.7260877556537588
20
16.148323802859689
10
7.7101203148301023
20
16.086752447958229
10
7.6946416661227151
20
16.031322891258963
10
7.6798740108589385
20
15.981993683385383
10
7.6660381412422041
20
15.93871724831925
10
7.6533532895912231
20
15.901439922150995
10
7.6420369785455744
20
15.870101995313464
10
7.6323048723150251
20
15.844637758276274
10
7.6243706290493662
20
15.824975550676427
10
7.6184457544050499
20
15.811037813858901
10
7.6147394563842514
20
15.802741146799679
10
7.6134585015214684
20
15.799996365381721
10
7.5011747852409627
20
15.566977125995443
10
8.1848691323435929
20
15.218617456471177
10
8.3073869445211397
20
15.446422163545339
10
8.3088545929569193
20
15.449071819836604
10
8.3133882302872699
20
15.45694693646224
10
8.3211815422981612
20
15.469932656890709
10
8.3324249712137153
20
15.487908750184838
10
8.3473055832095291
20
15.510749692507753
10
8.3660069378465849
20
15.538324751689832
10
8.3887089594936004
20
15.570498074813198
10
8.4155878108047055
20
15.607128778768757
10
8.446815768318503
20
15.648071043739588
10
8.4825611002432577
20
15.693174209562759
10
8.5229879464922309
20
15.742282874920519
10
8.5682562010319039
20
15.795236999310255
10
8.6185213966047627
20
15.851872007741308
10
8.6739345918872335
20
15.912018898105458
10
8.7346422611421826
20
15.97550435116653
10
8.8007861864240802
20
16.042150843113234
10
8.872503352394002
20
16.111776760618316
10
8.9499258438000098
20
16.184196518345519
10
9.0331807456775692
20
16.259220678845026
10
9.5643077807782646
20
15.952574342155749
10
9.5409624028268745
20
15.842961401890454
10
9.5169562986022029
20
15.739701678644966
10
9.4925170682659665
20
15.642779832275052
10
9.4678714758079536
20
15.552174266701545
10
9.443245295313778
20
15.467857156391688
10
9.418863157941022
20
15.389794476390119
10
9.39494839968261
20
15.317946035882306
10
9.3717229099957766
20
15.252265515271102
10
9.3494069813744929
20
15.192700506745727
10
9.3282191599429005
20
15.139192558320591
10
9.3083760971465868
20
15.09167722131993
10
9.2900924026181197
20
15.050084101282186
10
9.2735804982926275
20
15.014336912256924
10
9.2590504738486104
20
14.984353534465013
10
9.2467099435484954
20
14.960046075291322
10
9.2367639045527596
20
14.941320933577742
10
9.2294145967807069
20
14.928078867182455
10
9.2248613643903266
20
14.92021506377001
10
9.2233005189486796
20
14.917619214795169
10
9.0872747616095531
20
14.697613323496235
10
9.7308102586228387
20
14.279696485243676
10
9.8764689813616346
20
14.493446655667057
10
9.8782055543660299
20
14.495928385828307
10
9.8835375297956531
20
14.503286467597928
10
9.8926455266287334
20
14.515386427962904
10
9.905706376271862
20
14.532088787990698
10
9.9228929993187762
20
14.553249157737278
10
9.944374284539192
20
14.578718333998694
10
9.9703149701605689
20
14.608342400855815
10
10.0008755275047
20
14.64196283296042
10
10.036212047039903
20
14.679416601509976
10
10.076476126908281
20
14.720536282856456
10
10.121814763986546
20
14.765150169693904
10
10.172370247537494
20
14.813082384767704
10
10.228280055508117
20
14.864152997047677
10
10.289676753528948
20
14.918178140305514
10
10.356687896668094
20
14.97497013403634
10
10.429435933991918
20
15.034337606662625
10
10.508038115983167
20
15.09608562095778
10
10.592606404865847
20
15.160015801625724
10
10.683247387884776
20
15.225926464971346
10
11.179411583173664
20
14.865442076220408
10
11.144736421445177
20
14.758869863592533
10
11.110068244982958
20
14.658685129098883
10
11.075631803649511
20
14.56484882593497
10
11.041650361792801
20
14.477315773035853
10
11.008345548124188
20
14.396034697481721
10
10.97593720667199
20
14.320948280359795
10
10.9446432488871
20
14.251993206056879
10
10.914679506976784
20
14.189100214955451
10
10.886259588541758
20
14.132194159504337
10
10.859594732591408
20
14.081194063633539
10
10.834893667010979
20
14.036013185481202
10
10.81236246755414
20
13.996559083398896
10
10.792204418433261
20
13.962733685200178
10
10.774619874579294
20
13.934433360615394
10
10.759806125642006
20
13.911548996914567
10
10.747957261800769
20
13.893966077658364
10
10.739264041454877
20
13.881564764535828
10
10.733913760861792
20
13.874219982245945
10
10.732090125790581
20
13.871801506378807
10
10.573812654055461
20
13.667219393751486
10
11.170138591405651
20
13.184324171105253
10
11.337342357258315
20
13.381677913280587
10
11.339328828574097
20
13.383964526956849
10
11.345400723864396
20
13.390724957186803
10
11.355723616400393
20
13.401806587790457
10
11.370458789369239
20
13.417052220000251
10
11.389763123228624
20
13.436300179731457
10
11.413788985576279
20
13.459384427447333
10
11.442684123591913
20
13.486134670562473
10
11.476591559107604
20
13.516376478326464
10
11.515649486361534
20
13.549931399128807
10
11.559991172488695
20
13.586617080164928
10
11.609744860800701
20
13.626247389401806
10
11.665033676905734
20
13.668632539780871
10
11.725975537718117
20
13.713579215594409
10
11.792683063405702
20
13.76089070097091
10
11.865263492321827
20
13.81036701040369
10
11.943818598967152
20
13.861805021256011
10
12.028444615025276
20
13.914998608175022
10
12.119232153514572
20
13.969738779346068
10
12.216266136097065
20
14.025813814517491
10
12.672031412821534
20
13.615440916104255
10
12.626406375644091
20
13.513077058577034
10
12.581455958740424
20
13.417064957751322
10
12.537399599267305
20
13.327342287967387
10
12.494454615799949
20
13.243840778187687
10
12.452836063464938
20
13.16648626986222
10
12.412756590504124
20
13.095198778118755
10
12.374426296342937
20
13.029892556244576
10
12.338052591235822
20
12.970476163424642
10
12.303840057560683
20
12.916852535699675
10
12.271990312833337
20
12.868919060106032
10
12.242701874512329
20
12.826567651957754
10
12.216170026663324
20
12.789684835229615
10
12.192586688551572
20
12.75815182599851
10
12.172140285229913
20
12.731844618899233
10
12.155015620188784
20
12.710634076548837
10
12.141393750133831
20
12.694386021892846
10
12.13145186195538
20
12.682961333424768
10
12.125363151953394
20
12.676216043229209
10
12.123296707380074
20
12.674001437797479
10
11.944501642350975
20
12.48708454827927
10
12.487084548279261
20
11.944501642350989
10
12.674001437797472
20
12.12329670738008
10
12.676216043229207
20
12.125363151953405
10
12.68296133342476
20
12.131451861955389
10
12.694386021892834
20
12.14139375013384
10
12.71063407654883
20
12.155015620188793
10
12.731844618899233
20
12.17214028522992
10
12.758151825998505
20
12.192586688551581
10
12.789684835229602
20
12.216170026663338
10
12.826567651957745
20
12.242701874512338
10
12.868919060106023
20
12.271990312833347
10
12.916852535699661
20
12.303840057560691
10
12.970476163424633
20
12.338052591235833
10
13.029892556244569
20
12.374426296342946
10
13.095198778118755
20
12.412756590504134
10
13.16648626986221
20
12.452836063464947
10
13.243840778187685
20
12.494454615799961
10
13.327342287967383
20
12.537399599267314
10
13.417064957751315
20
12.581455958740435
10
13.513077058577023
20
12.626406375644097
10
13.615440916104248
20
12.672031412821546
10
14.02581381451748
20
12.216266136097076
10
13.969738779346056
20
12.119232153514581
10
13.914998608175013
20
12.028444615025284
10
13.861805021256002
20
11.943818598967162
10
13.810367010403688
20
11.865263492321837
10
13.760890700970903
20
11.792683063405715
10
13.7135792155944
20
11.725975537718124
10
13.668632539780861
20
11.66503367690574
10
13.626247389401795
20
11.609744860800713
10
13.586617080164913
20
11.559991172488706
10
13.549931399128802
20
11.515649486361546
10
13.516376478326455
20
11.476591559107609
10
13.486134670562464
20
11.442684123591926
10
13.459384427447327
20
11.413788985576289
10
13.436300179731449
20
11.389763123228638
10
13.417052220000247
20
11.370458789369252
10
13.401806587790448
20
11.355723616400402
10
13.390724957186793
20
11.34540072386441
10
13.38396452695684
20
11.339328828574104
10
13.38167791328058
20
11.337342357258324
10
13.184324171105244
20
11.170138591405665
10
13.667219393751484
20
10.573812654055462
10
13.871801506378807
20
10.732090125790585
10
13.874219982245943
20
10.733913760861798
10
13.881564764535824
20
10.739264041454881
10
13.893966077658364
20
10.747957261800769
10
13.911548996914567
20
10.759806125642008
10
13.93443336061539
20
10.774619874579294
10
13.962733685200179
20
10.792204418433265
10
13.996559083398896
20
10.812362467554147
10
14.036013185481195
20
10.834893667010984
10
14.081194063633538
20
10.859594732591409
10
14.13219415950433
20
10.88625958854176
10
14.189100214955449
20
10.914679506976784
10
14.251993206056873
20
10.944643248887102
10
14.320948280359795
20
10.975937206671993
10
14.396034697481719
20
11.00834554812419
10
14.477315773035855
20
11.041650361792801
10
14.564848825934966
20
11.075631803649514
10
14.658685129098878
20
11.110068244982962
10
14.758869863592533
20
11.144736421445177
10
14.865442076220408
20
11.179411583173666
10
15.225926464971341
20
10.683247387884778
10
15.160015801625724
20
10.592606404865851
10
15.096085620957776
20
10.508038115983172
10
15.034337606662618
20
10.42943593399192
10
14.974970134036338
20
10.356687896668095
10
14.918178140305507
20
10.289676753528953
10
14.864152997047677
20
10.228280055508119
10
14.813082384767702
20
10.172370247537497
10
14.765150169693895
20
10.121814763986547
10
14.720536282856456
20
10.076476126908283
10
14.679416601509976
20
10.036212047039905
10
14.641962832960417
20
10.000875527504704
10
14.608342400855809
20
9.9703149701605724
10
14.578718333998694
20
9.9443742845391956
10
14.553249157737277
20
9.9228929993187798
10
14.532088787990695
20
9.9057063762718638
10
14.515386427962902
20
9.892645526628737
10
14.503286467597922
20
9.8835375297956585
10
14.495928385828307
20
9.8782055543660334
10
14.493446655667054
20
9.8764689813616364
10
14.279696485243672
20
9.7308102586228422
10
14.697613323496235
20
9.0872747616095566
10
14.91761921479517
20
9.2233005189486832
10
14.92021506377001
20
9.2248613643903283
10
14.928078867182455
20
9.2294145967807122
10
14.941320933577744
20
9.2367639045527632
10
14.96004607529132
20
9.2467099435485043
10
14.984353534465011
20
9.2590504738486175
10
15.014336912256923
20
9.2735804982926311
10
15.050084101282177
20
9.2900924026181251
10
15.09167722131993
20
9.3083760971465921
10
15.139192558320591
20
9.3282191599429041
10
15.192700506745718
20
9.3494069813744964
10
15.252265515271102
20
9.3717229099957784
10
15.317946035882306
20
9.3949483996826153
10
15.389794476390119
20
9.4188631579410238
10
15.467857156391682
20
9.4432452953137798
10
15.552174266701545
20
9.4678714758079572
10
15.64277983227505
20
9.4925170682659736
10
15.739701678644966
20
9.5169562986022136
10
15.842961401890449
20
9.5409624028268745
10
15.952574342155748
20
9.5643077807782682
10
16.259220678845026
20
9.0331807456775728
10
16.184196518345519
20
8.9499258438000151
10
16.111776760618319
20
8.8725033523940056
10
16.042150843113234
20
8.8007861864240837
10
15.97550435116653
20
8.7346422611421826
10
15.91201889810546
20
8.6739345918872388
10
15.85187200774131
20
8.6185213966047627
10
15.795236999310255
20
8.5682562010319039
10
15.742282874920521
20
8.5229879464922327
10
15.693174209562759
20
8.4825611002432595
10
15.648071043739588
20
8.4468157683185048
10
15.607128778768757
20
8.4155878108047055
10
15.570498074813198
20
8.3887089594935986
10
15.538324751689832
20
8.3660069378465884
10
15.510749692507755
20
8.3473055832095326
10
15.487908750184838
20
8.3324249712137171
10
15.469932656890709
20
8.3211815422981648
10
15.456946936462241
20
8.3133882302872735
10
15.449071819836604
20
8.3088545929569211
10
15.446422163545339
20
8.3073869445211415
10
15.218617456471177
20
8.1848691323435911
10
15.566977125995445
20
7.5011747852409574
10
15.799996365381723
20
7.613458501521464
10
15.802741146799688
20
7.6147394563842488
10
15.811037813858899
20
7.6184457544050455
10
15.824975550676426
20
7.6243706290493645
10
15.844637758276274
20
7.6323048723150224
10
15.870101995313464
20
7.6420369785455735
10
15.901439922150997
20
7.6533532895912195
10
15.938717248319252
20
7.6660381412422023
10
15.981993683385385
20
7.6798740108589358
10
16.03132289125897
20
7.6946416661227115
10
16.086752447958229
20
7.7101203148300979
10
16.148323802859686
20
7.7260877556537553
10
16.216072243452324
20
7.7423205297918578
10
16.29002686361558
20
7.7585940734278234
10
16.370210535439014
20
7.7746828709217874
10
16.456639884599568
20
7.7903606086546819
10
16.5493252693106
20
7.8054003294456065
10
16.648270762855493
20
7.8195745874628306
10
16.753474139716438
20
7.8326556035484574
10
16.864926865307631
20
7.8444154208765866
10
17.114375468500608
20
7.2841446849061251
10
17.031059791249472
20
7.2091880222971172
10
16.950943902483473
20
7.1397595853853177
10
16.87420291789083
20
7.0757131837148783
10
16.801007599536135
20
7.0168980571617929
10
16.731524247053741
20
6.9631589877192983
10
16.665914591500652
20
6.9143364137386527
10
16.604335691922518
20
6.8702665465649257
10
16.546939834685034
20
6.8307814895062622
10
16.493874435621258
20
6.7957093590739426
10
16.445281945044606
20
6.7648744084295709
10
16.401299755675247
20
6.7380971529745635
10
16.362060113526738
20
6.7151944980162073
10
16.327690031797957
20
6.6959798684434304
10
16.298311207814066
20
6.6802633403446485
10
16.274039943058682
20
6.6678517744989305
10
16.254987066338089
20
6.6585489516709888
10
16.241257860116576
20
6.6521557096395298
10
16.232951990060656
20
6.6484700818877673
10
16.230163437828182
20
6.6472874378839952
10
15.990800070145132
20
6.5492528670564027
10
16.265785869502849
20
5.8328903682035271
10
16.509265449427346
20
5.9202018395329628
10
16.512129090888838
20
5.9211888694073531
10
16.52076772157433
20
5.9240076260818544
10
16.535248424052867
20
5.928443153431977
10
16.555632274277947
20
5.9342786717379878
10
16.581974297668907
20
5.9412957269065405
10
16.614323428667745
20
5.9492743406819137
10
16.652722473792711
20
5.9579931617692194
10
16.697208078208476
20
5.9672296177913573
10
16.747810695830715
20
5.9767600680011954
10
16.804554562981533
20
5.9863599566700234
10
16.86745767561014
20
5.9958039670729928
10
16.936531770091801
20
6.0048661759919764
10
17.011782307615988
20
6.0133202086559674
10
17.09320846217329
20
6.0209393940389964
10
17.180803112148617
20
6.0274969204352269
10
17.274552835526613
20
6.0327659912308125
10
17.374437908713531
20
6.0365199807920336
10
17.480432308977839
20
6.0385325903890141
10
17.592503720510372
20
6.0385780040743278
10
17.782021579109987
20
5.455302010661585
10
17.691327209102106
20
5.3894648282023585
10
17.604392955739971
20
5.32879111826841
10
17.521377694346025
20
5.273117186676723
10
17.442435492808343
20
5.2222752496868265
10
17.367715515054755
20
5.1760935565472188
10
17.297361927428668
20
5.1343965142057151
10
17.231513808013457
20
5.0970048141180859
10
17.170305058950962
20
5.0637355610883432
10
17.113864321797973
20
5.0344024040730133
10
17.062314895963226
20
5.0088156688809082
10
17.015774660265922
20
4.9867824926989623
10
16.97435599765527
20
4.968106960373766
10
16.938165723128904
20
4.9525902423777417
10
16.907305014886688
20
4.9400307343879817
10
16.881869348754574
20
4.9302241984050514
10
16.861948435911927
20
4.9229639053383627
10
16.84762616395377
20
4.918040778983908
10
16.838980541317994
20
4.9152435413196507
10
16.836083645106122
20
4.914358859043074
10
16.587784131960532
20
4.8418816168384815
10
16.786383259189464
20
4.1006995836812692
10
17.037655566423151
20
4.162082207308651
10
17.040606693273048
20
4.1627644980887988
10
17.049492640939292
20
4.1646648305290128
10
17.064357655472197
20
4.1675624140190957
10
17.085239818593845
20
4.1712352722057418
10
17.112171019617897
20
4.1754603959874554
10
17.145176930929313
20
4.1800138971303982
10
17.184276987037094
20
4.1846711624256656
10
17.229484367211295
20
4.1892070083081734
10
17.280805981714256
20
4.1933958358572019
10
17.338242461633694
20
4.1970117860983125
10
17.401788152324173
20
4.1998288955263288
10
17.471431110461026
20
4.2016212517688842
10
17.547153104709849
20
4.2021631493099161
10
17.628929620012165
20
4.2012292451925415
10
17.71672986548678
20
4.1985947146206568
10
17.810516785944035
20
4.1940354063786405
10
17.91024707700884
20
4.1873279979886551
10
18.015871203846451
20
4.1782501505250744
10
18.127333423483122
20
4.1665806630057372
10
18.2548441401714
20
3.566689905992888
10
18.157764743903584
20
3.5106935296317845
10
18.064964595817308
20
3.4594393005385147
10
17.976584590197966
20
3.412747814270618
10
17.89276041275706
20
3.3704361017449318
10
17.813622457444708
20
3.3323177612023884
10
17.739295746374086
20
3.2982030920215855
10
17.669899852897714
20
3.2678992303109329
10
17.605548827873704
20
3.2412102862083438
10
17.546351129158726
20
3.2179374828166152
10
17.492409554362737
20
3.1978792967019154
10
17.443821176898958
20
3.1808315998820174
10
17.400677285361141
20
3.1665878032302448
10
17.363063326258196
20
3.1549390012204181
10
17.331058850135168
20
3.1456741179374585
10
17.304737461107234
20
3.1385800542776989
10
17.284166769832371
20
3.1334418362624157
10
17.269408349946257
20
3.1300427643875341
10
17.260517697981456
20
3.1281645639319891
10
17.257544196791279
20
3.1275875361467635
10
17.003028959609185
20
3.0814616983976038
10
17.123065521111869
20
2.323580676393644
10
17.379377563674581
20
2.35836193144937
10
17.382383842749569
20
2.3587320078147056
10
17.391419751094411
20
2.3596930955807496
10
17.406506213471758
20
2.3610209886797184
10
17.427657900140943
20
2.3624909461441108
10
17.454883214923946
20
2.3638778471986699
10
17.488184286876702
20
2.3649563465977792
10
17.527556965570355
20
2.3655010301278354
10
17.572990819985552
20
2.3652865701940411
10
17.624469141020981
20
2.3640878814110633
10
17.681968947615712
20
2.3616802761169247
10
17.74546099648305
20
2.3578396197295803
10
17.814909795452031
20
2.352342485865643
10
17.890273620410646
20
2.3449663111408539
10
17.97150453584349
20
2.3354895495720145
10
18.058548418954601
20
2.3236918265002733
10
18.151344987364403
20
2.3093540919558531
10
18.249827830368275
20
2.2922587733845958
10
18.353924443742294
20
2.2721899276569282
10
18.463556268079799
20
2.2489333922801977
10
18.527662808761363
20
1.6390004003362881
10
18.425262008414308
20
1.5934583380907139
10
18.327612703446007
20
1.5521851418977051
10
18.234836263437522
20
1.5149876626479712
10
18.147048505322772
20
1.4816697505632213
10
18.064359624450738
20
1.4520323951335024
10
17.986874128935945
20
1.4258738665678985
10
17.914690777329358
20
1.4029898586846139
10
17.8479025196403
20
1.3831736331657871
10
17.786596441738382
20
1.3662161651017704
10
17.730853713162613
20
1.3519062897489917
10
17.680749538363642
20
1.3400308504249592
10
17.636353111402773
20
1.3303748474634334
10
17.597727574130417
20
1.322721588152294
10
17.564929977864352
20
1.3168528375761857
10
17.538011248586891
20
1.3125489702855777
10
17.517016155678107
20
1.3095891227135179
10
17.501983284200708
20
1.307751346260972
10
17.492945010750283
20
1.3068127609713709
10
17.489927482883097
20
1.3065497097146617
10
17.231985043863801
20
1.2872806407517643
10
17.27214389395315
20
0.52100413297494841
10
17.530687463469825
20
0.52880294875018308
10
17.533715957347251
20
0.52885675606660565
10
17.542802827067987
20
0.52886806927979213
10
17.557945446850933
20
0.52861172331297601
10
17.579134914762218
20
0.52786267489352645
10
17.60635605705815
20
0.52639615804274908
10
17.639587436139212
20
0.52398783943291838
10
17.678801362111727
20
0.52041397353102647
10
17.723963907951301
20
0.51545155744884197
10
17.775034928261412
20
0.50887848541900538
10
17.831968081617752
20
0.50047370281704673
10
17.894710856488018
20
0.49001735964942866
10
17.963204600714519
20
0.47729096342796051
10
18.037384554545788
20
0.46207753135119978
10
18.117179887201011
20
0.44416174171378436
10
18.202513736950145
20
0.42333008446499337
10
18.293303254690059
20
0.39937101083820148
10
18.389459650996208
20
0.3720750819733642
10
18.490888246626895
20
0.34123511645507798
10
18.597488526455841
20
0.30664633668928509
10
18.597488526455841
20
-0.30664633668926411
10
18.490888246626895
20
-0.34123511645505705
10
18.389459650996208
20
-0.37207508197334338
10
18.293303254690059
20
-0.39937101083818072
10
18.202513736950145
20
-0.42333008446497283
10
18.117179887201011
20
-0.44416174171376388
10
18.037384554545788
20
-0.46207753135117924
10
17.963204600714519
20
-0.4772909634279402
10
17.894710856488018
20
-0.4900173596494084
10
17.831968081617752
20
-0.50047370281702652
10
17.775034928261412
20
-0.50887848541898528
10
17.723963907951301
20
-0.51545155744882187
10
17.678801362111727
20
-0.52041397353100638
10
17.639587436139212
20
-0.52398783943289839
10
17.60635605705815
20
-0.5263961580427291
10
17.579134914762218
20
-0.52786267489350647
10
17.557945446850933
20
-0.52861172331295614
10
17.542802827067987
20
-0.52886806927977237
10
17.533715957347251
20
-0.52885675606658589
10
17.530687463469825
20
-0.5288029487501632
10
17.27214389395315
20
-0.52100413297492887
10
17.231985043863801
20
-1.2872806407517599
10
17.489927482883097
20
-1.3065497097146574
10
17.492945010750283
20
-1.3068127609713662
10
17.501983284200708
20
-1.3077513462609678
10
17.517016155678107
20
-1.3095891227135135
10
17.538011248586891
20
-1.312548970285573
10
17.564929977864352
20
-1.3168528375761812
10
17.597727574130417
20
-1.3227215881522896
10
17.636353111402773
20
-1.3303748474634289
10
17.680749538363642
20
-1.3400308504249547
10
17.730853713162613
20
-1.3519062897489871
10
17.786596441738382
20
-1.3662161651017659
10
17.8479025196403
20
-1.3831736331657829
10
17.914690777329358
20
-1.4029898586846099
10
17.986874128935945
20
-1.4258738665678938
10
18.064359624450738
20
-1.4520323951334979
10
18.147048505322772
20
-1.4816697505632168
10
18.234836263437522
20
-1.5149876626479666
10
18.327612703446007
20
-1.5521851418977004
10
18.425262008414308
20
-1.5934583380907088
10
18.527662808761363
20
-1.6390004003362835
10
18.463556268079799
20
-2.2489333922801937
10
18.353924443742294
20
-2.2721899276569237
10
18.249827830368275
20
-2.2922587733845914
10
18.151344987364403
20
-2.3093540919558491
10
18.058548418954601
20
-2.3236918265002693
10
17.97150453584349
20
-2.3354895495720109
10
17.890273620410646
20
-2.3449663111408503
10
17.814909795452031
20
-2.3523424858656385
10
17.74546099648305
20
-2.3578396197295763
10
17.681968947615712
20
-2.3616802761169211
10
17.624469141020981
20
-2.3640878814110593
10
17.572990819985552
20
-2.3652865701940371
10
17.527556965570355
20
-2.3655010301278314
10
17.488184286876702
20
-2.3649563465977748
10
17.454883214923946
20
-2.3638778471986659
10
17.427657900140943
20
-2.3624909461441068
10
17.406506213471758
20
-2.3610209886797144
10
17.391419751094411
20
-2.3596930955807451
10
17.382383842749569
20
-2.3587320078147016
10
17.379377563674581
20
-2.3583619314493656
10
17.123065521111869
20
-2.32358067639364
10
17.003028959609185
20
-3.0814616983976002
10
17.257544196791279
20
-3.1275875361467604
10
17.260517697981456
20
-3.1281645639319855
10
17.269408349946257
20
-3.1300427643875302
10
17.284166769832371
20
-3.1334418362624112
10
17.304737461107234
20
-3.1385800542776936
10
17.331058850135168
20
-3.1456741179374554
10
17.363063326258196
20
-3.1549390012204146
10
17.400677285361141
20
-3.1665878032302408
10
17.443821176898958
20
-3.1808315998820138
10
17.492409554362737
20
-3.1978792967019114
10
17.546351129158726
20
-3.2179374828166116
10
17.605548827873704
20
-3.2412102862083398
10
17.669899852897714
20
-3.2678992303109289
10
17.739295746374086
20
-3.298203092021581
10
17.813622457444708
20
-3.3323177612023844
10
17.89276041275706
20
-3.3704361017449278
10
17.976584590197966
20
-3.4127478142706136
10
18.064964595817308
20
-3.4594393005385111
10
18.157764743903584
20
-3.5106935296317801
10
18.2548441401714
20
-3.566689905992884
10
18.127333423483122
20
-4.1665806630057327
10
18.015871203846451
20
-4.17825015052507
10
17.91024707700884
20
-4.1873279979886515
10
17.810516785944035
20
-4.194035406378636
10
17.716729865486784
20
-4.1985947146206541
10
17.628929620012165
20
-4.201229245192537
10
17.547153104709849
20
-4.2021631493099125
10
17.471431110461026
20
-4.2016212517688807
10
17.401788152324173
20
-4.1998288955263252
10
17.338242461633698
20
-4.1970117860983072
10
17.280805981714256
20
-4.1933958358571974
10
17.229484367211295
20
-4.1892070083081689
10
17.184276987037101
20
-4.1846711624256621
10
17.145176930929313
20
-4.1800138971303955
10
17.112171019617897
20
-4.1754603959874519
10
17.085239818593845
20
-4.1712352722057382
10
17.064357655472197
20
-4.1675624140190912
10
17.049492640939292
20
-4.1646648305290084
10
17.040606693273052
20
-4.1627644980887935
10
17.037655566423151
20
-4.1620822073086474
10
16.786383259189467
20
-4.1006995836812665
10
16.587784131960532
20
-4.8418816168384797
10
16.836083645106122
20
-4.9143588590430713
10
16.838980541317994
20
-4.9152435413196462
10
16.84762616395377
20
-4.9180407789839045
10
16.861948435911927
20
-4.9229639053383583
10
16.881869348754574
20
-4.9302241984050479
10
16.907305014886688
20
-4.9400307343879764
10
16.938165723128904
20
-4.9525902423777373
10
16.97435599765527
20
-4.9681069603737615
10
17.015774660265922
20
-4.9867824926989579
10
17.062314895963226
20
-5.0088156688809029
10
17.113864321797973
20
-5.0344024040730071
10
17.170305058950962
20
-5.0637355610883397
10
17.231513808013457
20
-5.0970048141180815
10
17.297361927428668
20
-5.1343965142057115
10
17.367715515054755
20
-5.1760935565472153
10
17.442435492808343
20
-5.2222752496868221
10
17.521377694346025
20
-5.2731171866767195
10
17.604392955739971
20
-5.3287911182684065
10
17.691327209102106
20
-5.3894648282023541
10
17.782021579109987
20
-5.4553020106615815
10
17.592503720510372
20
-6.0385780040743242
10
17.480432308977839
20
-6.0385325903890097
10
17.374437908713535
20
-6.03651998079203
10
17.27455283552662
20
-6.0327659912308071
10
17.180803112148617
20
-6.0274969204352224
10
17.09320846217329
20
-6.0209393940389964
10
17.011782307615988
20
-6.0133202086559656
10
16.936531770091801
20
-6.0048661759919719
10
16.86745767561014
20
-5.9958039670729901
10
16.804554562981533
20
-5.9863599566700216
10
16.747810695830722
20
-5.9767600680011936
10
16.697208078208476
20
-5.967229617791352
10
16.652722473792714
20
-5.9579931617692186
10
16.614323428667745
20
-5.9492743406819102
10
16.581974297668907
20
-5.941295726906537
10
16.555632274277947
20
-5.934278671737987
10
16.535248424052867
20
-5.9284431534319726
10
16.52076772157433
20
-5.9240076260818526
10
16.512129090888838
20
-5.9211888694073513
10
16.50926544942735
20
-5.9202018395329592
10
16.265785869502849
20
-5.8328903682035236
10
15.990800070145127
20
-6.5492528670564063
10
16.230163437828182
20
-6.6472874378839997
10
16.232951990060656
20
-6.6484700818877718
10
16.241257860116573
20
-6.6521557096395334
10
16.254987066338078
20
-6.6585489516709915
10
16.274039943058682
20
-6.667851774498935
10
16.298311207814066
20
-6.6802633403446521
10
16.327690031797957
20
-6.695979868443434
10
16.362060113526734
20
-6.7151944980162099
10
16.40129975567524
20
-6.7380971529745697
10
16.445281945044606
20
-6.7648744084295744
10
16.493874435621258
20
-6.795709359073947
10
16.546939834685034
20
-6.8307814895062657
10
16.604335691922518
20
-6.8702665465649293
10
16.665914591500652
20
-6.9143364137386563
10
16.731524247053741
20
-6.9631589877193019
10
16.801007599536128
20
-7.0168980571617965
10
16.87420291789083
20
-7.075713183714881
10
16.950943902483473
20
-7.1397595853853222
10
17.031059791249461
20
-7.2091880222971216
10
17.114375468500604
20
-7.2841446849061295
10
16.864926865307631
20
-7.8444154208765893
10
16.753474139716438
20
-7.8326556035484627
10
16.648270762855482
20
-7.8195745874628315
10
16.549325269310597
20
-7.8054003294456074
10
16.456639884599568
20
-7.7903606086546837
10
16.370210535439014
20
-7.7746828709217919
10
16.290026863615577
20
-7.7585940734278269
10
16.216072243452324
20
-7.7423205297918587
10
16.148323802859686
20
-7.7260877556537588
10
16.086752447958229
20
-7.7101203148300996
10
16.031322891258959
20
-7.6946416661227133
10
15.981993683385385
20
-7.6798740108589385
10
15.938717248319252
20
-7.6660381412422041
10
15.901439922150997
20
-7.6533532895912204
10
15.870101995313464
20
-7.6420369785455744
10
15.844637758276274
20
-7.6323048723150233
10
15.824975550676426
20
-7.6243706290493671
10
15.811037813858899
20
-7.618445754405049
10
15.802741146799679
20
-7.6147394563842496
10
15.799996365381723
20
-7.6134585015214657
10
15.566977125995445
20
-7.5011747852409618
10
15.218617456471177
20
-8.1848691323435894
10
15.446422163545348
20
-8.3073869445211379
10
15.449071819836604
20
-8.3088545929569193
10
15.456946936462241
20
-8.3133882302872699
10
15.469932656890709
20
-8.3211815422981612
10
15.487908750184838
20
-8.3324249712137153
10
15.510749692507755
20
-8.3473055832095273
10
15.538324751689832
20
-8.3660069378465849
10
15.570498074813202
20
-8.3887089594935933
10
15.607128778768757
20
-8.415587810804702
10
15.648071043739593
20
-8.4468157683185012
10
15.693174209562759
20
-8.4825611002432559
10
15.742282874920527
20
-8.5229879464922309
10
15.795236999310255
20
-8.5682562010319039
10
15.85187200774131
20
-8.6185213966047627
10
15.91201889810546
20
-8.6739345918872317
10
15.97550435116653
20
-8.734642261142179
10
16.042150843113241
20
-8.8007861864240802
10
16.111776760618319
20
-8.872503352394002
10
16.184196518345519
20
-8.9499258438000115
10
16.259220678845026
20
-9.0331807456775692
10
15.952574342155748
20
-9.5643077807782646
10
15.842961401890454
20
-9.5409624028268745
10
15.739701678644966
20
-9.5169562986022029
10
15.642779832275053
20
-9.4925170682659665
10
15.552174266701545
20
-9.4678714758079536
10
15.467857156391688
20
-9.4432452953137762
10
15.389794476390119
20
-9.4188631579410202
10
15.317946035882306
20
-9.3949483996826082
10
15.252265515271102
20
-9.3717229099957748
10
15.192700506745727
20
-9.3494069813744929
10
15.139192558320591
20
-9.3282191599429005
10
15.09167722131993
20
-9.3083760971465868
10
15.050084101282186
20
-9.2900924026181197
10
15.014336912256923
20
-9.2735804982926275
10
14.984353534465011
20
-9.2590504738486104
10
14.96004607529132
20
-9.2467099435484954
10
14.941320933577744
20
-9.2367639045527596
10
14.928078867182455
20
-9.2294145967807069
10
14.92021506377001
20
-9.2248613643903248
10
14.91761921479517
20
-9.2233005189486796
10
14.697613323496235
20
-9.0872747616095531
10
14.279696485243676
20
-9.7308102586228387
10
14.493446655667057
20
-9.8764689813616329
10
14.495928385828307
20
-9.8782055543660299
10
14.503286467597928
20
-9.8835375297956531
10
14.515386427962902
20
-9.8926455266287334
10
14.5320887879907
20
-9.905706376271862
10
14.55324915773728
20
-9.9228929993187762
10
14.578718333998694
20
-9.944374284539192
10
14.608342400855815
20
-9.9703149701605689
10
14.64196283296042
20
-10.0008755275047
10
14.679416601509976
20
-10.036212047039903
10
14.720536282856456
20
-10.076476126908281
10
14.765150169693904
20
-10.121814763986546
10
14.813082384767702
20
-10.172370247537494
10
14.864152997047677
20
-10.228280055508117
10
14.918178140305516
20
-10.289676753528948
10
14.974970134036338
20
-10.356687896668094
10
15.034337606662627
20
-10.429435933991918
10
15.09608562095778
20
-10.508038115983167
10
15.160015801625724
20
-10.592606404865847
10
15.225926464971344
20
-10.683247387884776
10
14.865442076220408
20
-11.179411583173664
10
14.758869863592533
20
-11.144736421445177
10
14.658685129098883
20
-11.110068244982958
10
14.56484882593497
20
-11.075631803649511
10
14.477315773035855
20
-11.041650361792801
10
14.396034697481719
20
-11.008345548124188
10
14.320948280359795
20
-10.97593720667199
10
14.251993206056879
20
-10.9446432488871
10
14.189100214955452
20
-10.914679506976784
10
14.132194159504339
20
-10.886259588541758
10
14.081194063633538
20
-10.859594732591408
10
14.036013185481204
20
-10.834893667010979
10
13.996559083398896
20
-10.81236246755414
10
13.962733685200179
20
-10.792204418433261
10
13.934433360615394
20
-10.774619874579294
10
13.911548996914567
20
-10.759806125642006
10
13.893966077658364
20
-10.747957261800769
10
13.881564764535828
20
-10.739264041454877
10
13.874219982245943
20
-10.733913760861792
10
13.871801506378807
20
-10.732090125790581
10
13.667219393751484
20
-10.573812654055461
10
13.184324171105244
20
-11.170138591405664
10
13.381677913280585
20
-11.33734235725832
10
13.383964526956849
20
-11.339328828574102
10
13.390724957186793
20
-11.345400723864405
10
13.401806587790448
20
-11.3557236164004
10
13.417052220000247
20
-11.370458789369247
10
13.436300179731454
20
-11.389763123228633
10
13.459384427447327
20
-11.413788985576286
10
13.486134670562468
20
-11.442684123591921
10
13.516376478326455
20
-11.476591559107606
10
13.549931399128802
20
-11.515649486361539
10
13.586617080164913
20
-11.559991172488706
10
13.626247389401804
20
-11.609744860800706
10
13.668632539780866
20
-11.66503367690574
10
13.7135792155944
20
-11.725975537718124
10
13.760890700970903
20
-11.792683063405709
10
13.810367010403688
20
-11.865263492321837
10
13.861805021256002
20
-11.943818598967153
10
13.914998608175013
20
-12.028444615025279
10
13.969738779346056
20
-12.119232153514574
10
14.025813814517484
20
-12.216266136097072
10
13.615440916104248
20
-12.672031412821536
10
13.513077058577023
20
-12.626406375644095
10
13.417064957751315
20
-12.581455958740431
10
13.327342287967383
20
-12.537399599267314
10
13.243840778187685
20
-12.494454615799954
10
13.16648626986221
20
-12.452836063464945
10
13.095198778118755
20
-12.412756590504134
10
13.029892556244569
20
-12.374426296342943
10
12.970476163424633
20
-12.338052591235829
10
12.916852535699661
20
-12.303840057560684
10
12.868919060106023
20
-12.271990312833342
10
12.826567651957745
20
-12.242701874512338
10
12.789684835229602
20
-12.216170026663333
10
12.758151825998505
20
-12.192586688551575
10
12.731844618899233
20
-12.172140285229915
10
12.71063407654883
20
-12.155015620188793
10
12.694386021892834
20
-12.141393750133837
10
12.68296133342476
20
-12.131451861955387
10
12.676216043229207
20
-12.125363151953405
10
12.674001437797472
20
-12.123296707380078
10
12.487084548279261
20
-11.944501642350984
10
11.944501642350989
20
-12.487084548279256
10
12.12329670738008
20
-12.674001437797466
10
12.125363151953405
20
-12.676216043229198
10
12.131451861955389
20
-12.682961333424752
10
12.14139375013384
20
-12.694386021892834
10
12.155015620188793
20
-12.710634076548825
10
12.17214028522992
20
-12.731844618899224
10
12.192586688551581
20
-12.7581518259985
10
12.216170026663338
20
-12.7896848352296
10
12.242701874512338
20
-12.826567651957745
10
12.271990312833347
20
-12.86891906010602
10
12.303840057560691
20
-12.916852535699661
10
12.338052591235833
20
-12.970476163424632
10
12.374426296342946
20
-13.029892556244565
10
12.412756590504134
20
-13.095198778118746
10
12.452836063464947
20
-13.166486269862208
10
12.494454615799961
20
-13.243840778187677
10
12.537399599267314
20
-13.327342287967374
10
12.581455958740433
20
-13.417064957751307
10
12.626406375644095
20
-13.513077058577021
10
12.672031412821546
20
-13.615440916104244
10
12.216266136097076
20
-14.025813814517482
10
12.119232153514581
20
-13.969738779346056
10
12.028444615025284
20
-13.914998608175013
10
11.943818598967162
20
-13.861805021255995
10
11.865263492321837
20
-13.810367010403681
10
11.792683063405715
20
-13.760890700970895
10
11.725975537718124
20
-13.713579215594397
10
11.66503367690574
20
-13.668632539780861
10
11.609744860800713
20
-13.626247389401795
10
11.559991172488706
20
-13.586617080164913
10
11.515649486361546
20
-13.549931399128798
10
11.476591559107609
20
-13.516376478326455
10
11.442684123591926
20
-13.486134670562466
10
11.413788985576289
20
-13.459384427447322
10
11.389763123228638
20
-13.436300179731449
10
11.370458789369252
20
-13.41705222000024
10
11.355723616400402
20
-13.401806587790448
10
11.34540072386441
20
-13.390724957186793
10
11.339328828574104
20
-13.38396452695684
10
11.337342357258324
20
-13.381677913280578
10
11.170138591405665
20
-13.184324171105244
10
10.57381265405547
20
-13.667219393751475
10
10.73209012579059
20
-13.871801506378802
10
10.733913760861807
20
-13.874219982245936
10
10.739264041454888
20
-13.881564764535813
10
10.74795726180078
20
-13.893966077658355
10
10.759806125642015
20
-13.911548996914556
10
10.774619874579301
20
-13.934433360615389
10
10.792204418433274
20
-13.96273368520017
10
10.812362467554152
20
-13.996559083398893
10
10.83489366701099
20
-14.036013185481195
10
10.859594732591418
20
-14.081194063633538
10
10.886259588541767
20
-14.132194159504326
10
10.914679506976793
20
-14.189100214955443
10
10.944643248887109
20
-14.251993206056866
10
10.975937206672002
20
-14.320948280359787
10
11.008345548124193
20
-14.396034697481713
10
11.04165036179281
20
-14.477315773035846
10
11.075631803649523
20
-14.564848825934966
10
11.110068244982967
20
-14.65868512909887
10
11.144736421445188
20
-14.758869863592528
10
11.179411583173675
20
-14.8654420762204
10
10.683247387884773
20
-15.225926464971346
10
10.592606404865846
20
-15.160015801625724
10
10.508038115983165
20
-15.09608562095778
10
10.429435933991913
20
-15.034337606662625
10
10.356687896668092
20
-14.97497013403634
10
10.289676753528942
20
-14.918178140305514
10
10.228280055508115
20
-14.864152997047677
10
10.17237024753749
20
-14.813082384767704
10
10.121814763986539
20
-14.765150169693904
10
10.076476126908275
20
-14.720536282856456
10
10.0362120470399
20
-14.679416601509976
10
10.000875527504698
20
-14.64196283296042
10
9.9703149701605689
20
-14.608342400855815
10
9.9443742845391903
20
-14.578718333998694
10
9.9228929993187762
20
-14.553249157737278
10
9.9057063762718567
20
-14.532088787990698
10
9.8926455266287334
20
-14.515386427962904
10
9.8835375297956531
20
-14.503286467597928
10
9.8782055543660263
20
-14.495928385828307
10
9.8764689813616293
20
-14.493446655667057
10
9.7308102586228351
20
-14.279696485243676
10
9.087274761609569
20
-14.697613323496226
10
9.2233005189486956
20
-14.917619214795153
10
9.224861364390339
20
-14.92021506377
10
9.2294145967807282
20
-14.928078867182446
10
9.2367639045527756
20
-14.941320933577732
10
9.2467099435485167
20
-14.960046075291309
10
9.2590504738486263
20
-14.984353534465003
10
9.2735804982926435
20
-15.014336912256914
10
9.2900924026181375
20
-15.05008410128217
10
9.3083760971466045
20
-15.091677221319914
10
9.3282191599429183
20
-15.139192558320582
10
9.3494069813745107
20
-15.192700506745711
10
9.3717229099957944
20
-15.252265515271093
10
9.3949483996826277
20
-15.317946035882295
10
9.4188631579410398
20
-15.389794476390112
10
9.4432452953137958
20
-15.467857156391673
10
9.4678714758079749
20
-15.552174266701538
10
9.4925170682659896
20
-15.642779832275036
10
9.516956298602226
20
-15.739701678644952
10
9.5409624028268869
20
-15.842961401890442
10
9.5643077807782824
20
-15.952574342155737
10
9.0331807456775728
20
-16.259220678845026
10
8.9499258438000151
20
-16.184196518345516
10
8.8725033523940056
20
-16.111776760618316
10
8.8007861864240855
20
-16.042150843113234
10
8.7346422611421843
20
-15.975504351166524
10
8.6739345918872388
20
-15.912018898105455
10
8.6185213966047627
20
-15.851872007741308
10
8.5682562010319074
20
-15.795236999310253
10
8.5229879464922327
20
-15.742282874920519
10
8.482561100243263
20
-15.693174209562759
10
8.4468157683185083
20
-15.648071043739586
10
8.4155878108047073
20
-15.607128778768757
10
8.3887089594936004
20
-15.570498074813194
10
8.3660069378465884
20
-15.538324751689832
10
8.3473055832095344
20
-15.510749692507753
10
8.3324249712137188
20
-15.487908750184832
10
8.3211815422981683
20
-15.469932656890705
10
8.3133882302872752
20
-15.456946936462238
10
8.3088545929569193
20
-15.449071819836604
10
8.3073869445211415
20
-15.446422163545339
10
8.1848691323435929
20
-15.218617456471172
10
7.5011747852409805
20
-15.566977125995429
10
7.6134585015214835
20
-15.799996365381707
10
7.6147394563842674
20
-15.80274114679967
10
7.6184457544050677
20
-15.811037813858885
10
7.624370629049384
20
-15.824975550676415
10
7.6323048723150428
20
-15.844637758276265
10
7.6420369785455922
20
-15.870101995313455
10
7.6533532895912382
20
-15.901439922150981
10
7.6660381412422218
20
-15.938717248319239
10
7.679874010858958
20
-15.981993683385372
10
7.6946416661227328
20
-16.031322891258956
10
7.7101203148301201
20
-16.086752447958222
10
7.7260877556537766
20
-16.148323802859682
10
7.7423205297918773
20
-16.216072243452313
10
7.7585940734278473
20
-16.290026863615566
10
7.7746828709218097
20
-16.370210535439007
10
7.7903606086547006
20
-16.456639884599554
10
7.8054003294456287
20
-16.549325269310586
10
7.8195745874628519
20
-16.648270762855475
10
7.8326556035484813
20
-16.753474139716431
10
7.844415420876607
20
-16.864926865307623
10
7.2841446849061331
20
-17.114375468500604
10
7.2091880222971261
20
-17.031059791249465
10
7.1397595853853257
20
-16.950943902483473
10
7.0757131837148846
20
-16.874202917890827
10
7.0168980571618
20
-16.801007599536128
10
6.9631589877193045
20
-16.731524247053734
10
6.9143364137386598
20
-16.665914591500645
10
6.8702665465649337
20
-16.604335691922515
10
6.8307814895062702
20
-16.54693983468503
10
6.7957093590739515
20
-16.493874435621258
10
6.7648744084295771
20
-16.445281945044606
10
6.7380971529745715
20
-16.40129975567524
10
6.7151944980162153
20
-16.362060113526734
10
6.6959798684434375
20
-16.327690031797953
10
6.6802633403446565
20
-16.298311207814066
10
6.6678517744989385
20
-16.274039943058682
10
6.658548951670995
20
-16.254987066338078
10
6.6521557096395378
20
-16.241257860116573
10
6.6484700818877762
20
-16.232951990060652
10
6.6472874378840041
20
-16.230163437828175
10
6.5492528670564143
20
-15.990800070145127
10
5.832890368203536
20
-16.265785869502846
10
5.9202018395329725
20
-16.509265449427346
10
5.9211888694073611
20
-16.512129090888831
10
5.9240076260818642
20
-16.52076772157433
10
5.9284431534319859
20
-16.53524842405286
10
5.9342786717379976
20
-16.555632274277944
10
5.9412957269065503
20
-16.581974297668907
10
5.9492743406819226
20
-16.614323428667742
10
5.9579931617692283
20
-16.652722473792711
10
5.9672296177913653
20
-16.697208078208476
10
5.9767600680012034
20
-16.747810695830715
10
5.9863599566700332
20
-16.804554562981533
10
5.9958039670730034
20
-16.867457675610133
10
6.0000000000000009
20
-16.89944073596979
10
6.0000000000000009
20
-17.605038473875478
10
5.4553020106615779
20
-17.782021579109987
10
5.3894648282023505
20
-17.691327209102102
10
5.3287911182684056
20
-17.604392955739968
10
5.2731171866767168
20
-17.521377694346025
10
5.2222752496868186
20
-17.442435492808343
10
5.1760935565472117
20
-17.367715515054755
10
5.134396514205708
20
-17.297361927428671
10
5.0970048141180797
20
-17.231513808013457
10
5.0637355610883361
20
-17.170305058950962
10
5.0344024040730062
20
-17.113864321797973
10
5.0088156688809011
20
-17.062314895963226
10
4.9867824926989552
20
-17.015774660265922
10
4.9681069603737598
20
-16.97435599765527
10
4.9525902423777346
20
-16.938165723128904
10
4.9400307343879746
20
-16.907305014886688
10
4.9302241984050443
20
-16.881869348754574
10
4.9229639053383556
20
-16.86194843591193
10
4.9180407789839009
20
-16.84762616395377
10
4.9152435413196427
20
-16.838980541317998
10
4.914358859043066
20
-16.836083645106122
10
4.8418816168384771
20
-16.587784131960532
10
4.1006995836812843
20
-16.78638325918946
10
4.1620822073086678
20
-17.037655566423147
10
4.1627644980888157
20
-17.040606693273045
10
4.1646648305290279
20
-17.049492640939292
10
4.1675624140191125
20
-17.064357655472193
10
4.1712352722057577
20
-17.085239818593838
10
4.1754603959874714
20
-17.11217101961789
10
4.180013897130415
20
-17.14517693092931
10
4.1846711624256816
20
-17.184276987037087
10
4.1892070083081911
20
-17.229484367211292
10
4.1933958358572188
20
-17.280805981714238
10
4.1970117860983276
20
-17.338242461633691
10
4.1998288955263448
20
-17.401788152324166
10
4.2016212517689011
20
-17.471431110461019
10
4.2021631493099338
20
-17.547153104709842
10
4.2012292451925592
20
-17.628929620012158
10
4.1985947146206737
20
-17.716729865486773
10
4.1940354063786556
20
-17.810516785944028
10
4.1873279979886728
20
-17.910247077008833
10
4.1782501505250913
20
-18.015871203846451
10
4.1665806630057549
20
-18.127333423483115
10
3.5666899059928903
20
-18.2548441401714
10
3.5106935296317854
20
-18.157764743903588
10
3.459439300538516
20
-18.064964595817308
10
3.4127478142706202
20
-17.976584590197962
10
3.3704361017449336
20
-17.89276041275706
10
3.3323177612023902
20
-17.813622457444708
10
3.2982030920215877
20
-17.739295746374086
10
3.2678992303109333
20
-17.669899852897714
10
3.2412102862083447
20
-17.605548827873704
10
3.2179374828166174
20
-17.546351129158726
10
3.1978792967019176
20
-17.492409554362737
10
3.1808315998820191
20
-17.443821176898961
10
3.1665878032302475
20
-17.400677285361141
10
3.1549390012204204
20
-17.363063326258196
10
3.1456741179374603
20
-17.331058850135168
10
3.1385800542776998
20
-17.304737461107234
10
3.1334418362624161
20
-17.284166769832371
10
3.130042764387535
20
-17.269408349946257
10
3.1281645639319899
20
-17.260517697981456
10
3.1275875361467653
20
-17.257544196791283
10
3.0814616983976051
20
-17.003028959609185
10
2.3235806763936684
20
-17.123065521111865
10
2.3583619314493944
20
-17.379377563674574
10
2.35873200781473
20
-17.382383842749569
10
2.3596930955807727
20
-17.391419751094407
10
2.3610209886797429
20
-17.406506213471758
10
2.3624909461441357
20
-17.427657900140936
10
2.3638778471986943
20
-17.454883214923946
10
2.3649563465978041
20
-17.488184286876695
10
2.3655010301278603
20
-17.527556965570351
10
2.3652865701940651
20
-17.572990819985552
10
2.3640878814110877
20
-17.624469141020978
10
2.3616802761169486
20
-17.681968947615701
10
2.3578396197296048
20
-17.745460996483047
10
2.352342485865667
20
-17.814909795452031
10
2.3449663111408792
20
-17.890273620410639
10
2.3354895495720394
20
-17.971504535843483
10
2.3236918265002995
20
-18.058548418954594
10
2.3093540919558784
20
-18.151344987364389
10
2.2922587733846211
20
-18.249827830368279
10
2.2721899276569548
20
-18.35392444374229
10
2.2489333922802235
20
-18.463556268079792
10
1.6390004003362968
20
-18.527662808761363
10
1.593458338090723
20
-18.425262008414308
10
1.5521851418977139
20
-18.327612703446007
10
1.5149876626479808
20
-18.234836263437526
10
1.4816697505632304
20
-18.147048505322772
10
1.4520323951335112
20
-18.064359624450738
10
1.4258738665679083
20
-17.986874128935945
10
1.4029898586846234
20
-17.914690777329355
10
1.3831736331657962
20
-17.847902519640304
10
1.3662161651017801
20
-17.786596441738382
10
1.3519062897490008
20
-17.730853713162613
10
1.3400308504249681
20
-17.680749538363642
10
1.3303748474634425
20
-17.636353111402773
10
1.3227215881523025
20
-17.597727574130417
10
1.3168528375761945
20
-17.564929977864352
10
1.3125489702855864
20
-17.538011248586891
10
1.3095891227135259
20
-17.517016155678107
10
1.3077513462609813
20
-17.501983284200705
10
1.3068127609713798
20
-17.492945010750283
10
1.3065497097146705
20
-17.4899274828831
10
1.2872806407517734
20
-17.231985043863801
10
0.5210041329749493
20
-17.27214389395315
10
0.52880294875018441
20
-17.530687463469825
10
0.52885675606660687
20
-17.533715957347248
10
0.52886806927979313
20
-17.542802827067987
10
0.52861172331297723
20
-17.55794544685093
10
0.52786267489352778
20
-17.579134914762214
10
0.52639615804275008
20
-17.60635605705815
10
0.52398783943292004
20
-17.639587436139212
10
0.52041397353102758
20
-17.678801362111727
10
0.51545155744884275
20
-17.723963907951298
10
0.50887848541900649
20
-17.775034928261412
10
0.50047370281704806
20
-17.831968081617752
10
0.4900173596494295
20
-17.894710856488018
10
0.47729096342796207
20
-17.963204600714519
10
0.46207753135120044
20
-18.037384554545788
10
0.44416174171378553
20
-18.117179887201011
10
0.42333008446499454
20
-18.202513736950145
10
0.39937101083820314
20
-18.293303254690059
10
0.37207508197336536
20
-18.389459650996208
10
0.34123511645507865
20
-18.490888246626895
10
0.30664633668928576
20
-18.597488526455837
10
-0.3066463366892791
20
-18.597488526455837
10
-0.34123511645507199
20
-18.490888246626895
10
-0.3720750819733587
20
-18.389459650996208
10
-0.39937101083819537
20
-18.293303254690059
10
-0.42333008446498788
20
-18.202513736950145
10
-0.44416174171377887
20
-18.117179887201011
10
-0.46207753135119378
20
-18.037384554545788
10
-0.47729096342795541
20
-17.963204600714519
10
-0.49001735964942283
20
-17.894710856488018
10
-0.5004737028170414
20
-17.831968081617752
10
-0.50887848541899983
20
-17.775034928261412
10
-0.51545155744883608
20
-17.723963907951298
10
-0.52041397353102092
20
-17.678801362111727
10
-0.52398783943291338
20
-17.639587436139212
10
-0.52639615804274342
20
-17.60635605705815
10
-0.52786267489352112
20
-17.579134914762214
10
-0.52861172331297057
20
-17.55794544685093
10
-0.52886806927978647
20
-17.542802827067987
10
-0.52885675606660021
20
-17.533715957347248
10
-0.52880294875017775
20
-17.530687463469825
10
-0.52100413297494264
20
-17.27214389395315
10
-1.2872806407517512
20
-17.231985043863808
10
-1.3065497097146483
20
-17.4899274828831
10
-1.3068127609713576
20
-17.492945010750287
10
-1.3077513462609591
20
-17.501983284200705
10
-1.3095891227135048
20
-17.517016155678107
10
-1.3125489702855642
20
-17.538011248586891
10
-1.3168528375761723
20
-17.564929977864356
10
-1.3227215881522814
20
-17.597727574130417
10
-1.3303748474634203
20
-17.636353111402773
10
-1.3400308504249459
20
-17.680749538363642
10
-1.3519062897489786
20
-17.730853713162624
10
-1.3662161651017568
20
-17.786596441738382
10
-1.383173633165774
20
-17.847902519640307
10
-1.4029898586846001
20
-17.914690777329355
10
-1.425873866567885
20
-17.986874128935952
10
-1.452032395133489
20
-18.064359624450745
10
-1.4816697505632082
20
-18.147048505322779
10
-1.5149876626479575
20
-18.234836263437533
10
-1.5521851418976906
20
-18.327612703446007
10
-1.5934583380906997
20
-18.425262008414315
10
-1.6390004003362746
20
-18.52766280876137
10
-2.2489333922802004
20
-18.463556268079792
10
-2.2721899276569313
20
-18.353924443742297
10
-2.2922587733845989
20
-18.249827830368279
10
-2.3093540919558562
20
-18.151344987364396
10
-2.3236918265002759
20
-18.058548418954594
10
-2.3354895495720163
20
-17.971504535843483
10
-2.344966311140857
20
-17.890273620410646
10
-2.3523424858656448
20
-17.814909795452031
10
-2.3578396197295826
20
-17.74546099648305
10
-2.3616802761169264
20
-17.681968947615701
10
-2.3640878814110655
20
-17.624469141020978
10
-2.3652865701940442
20
-17.572990819985552
10
-2.3655010301278381
20
-17.527556965570355
10
-2.364956346597781
20
-17.488184286876695
10
-2.3638778471986734
20
-17.454883214923946
10
-2.3624909461441135
20
-17.42765790014094
10
-2.3610209886797207
20
-17.406506213471761
10
-2.3596930955807514
20
-17.391419751094411
10
-2.3587320078147078
20
-17.382383842749569
10
-2.3583619314493722
20
-17.379377563674581
10
-2.3235806763936462
20
-17.123065521111869
10
-3.0814616983975984
20
-17.003028959609185
10
-3.1275875361467587
20
-17.257544196791283
10
-3.1281645639319837
20
-17.260517697981456
10
-3.1300427643875288
20
-17.269408349946257
10
-3.1334418362624108
20
-17.284166769832371
10
-3.1385800542776936
20
-17.304737461107234
10
-3.1456741179374537
20
-17.331058850135168
10
-3.1549390012204137
20
-17.363063326258196
10
-3.1665878032302395
20
-17.400677285361141
10
-3.1808315998820125
20
-17.443821176898961
10
-3.197879296701911
20
-17.492409554362737
10
-3.2179374828166103
20
-17.546351129158726
10
-3.2412102862083385
20
-17.605548827873704
10
-3.2678992303109275
20
-17.669899852897714
10
-3.2982030920215806
20
-17.739295746374086
10
-3.3323177612023835
20
-17.813622457444708
10
-3.3704361017449269
20
-17.89276041275706
10
-3.4127478142706131
20
-17.976584590197962
10
-3.4594393005385093
20
-18.064964595817308
10
-3.5106935296317787
20
-18.157764743903588
10
-3.5666899059928832
20
-18.2548441401714
10
-4.1665806630057478
20
-18.127333423483115
10
-4.1782501505250842
20
-18.015871203846451
10
-4.1873279979886648
20
-17.91024707700884
10
-4.1940354063786502
20
-17.810516785944031
10
-4.1985947146206684
20
-17.71672986548678
10
-4.2012292451925513
20
-17.628929620012158
10
-4.2021631493099267
20
-17.547153104709842
10
-4.2016212517688949
20
-17.471431110461026
10
-4.1998288955263385
20
-17.401788152324173
10
-4.1970117860983214
20
-17.338242461633694
10
-4.1933958358572117
20
-17.280805981714245
10
-4.1892070083081832
20
-17.229484367211292
10
-4.1846711624256745
20
-17.184276987037094
10
-4.1800138971304079
20
-17.145176930929313
10
-4.175460395987467
20
-17.112171019617893
10
-4.1712352722057524
20
-17.085239818593838
10
-4.1675624140191045
20
-17.064357655472193
10
-4.1646648305290226
20
-17.049492640939292
10
-4.1627644980888077
20
-17.040606693273045
10
-4.1620822073086616
20
-17.037655566423147
10
-4.100699583681279
20
-16.786383259189464
10
-4.8418816168384691
20
-16.587784131960536
10
-4.9143588590430625
20
-16.836083645106125
10
-4.9152435413196365
20
-16.838980541317998
10
-4.9180407789838965
20
-16.847626163953777
10
-4.9229639053383494
20
-16.861948435911934
10
-4.930224198405039
20
-16.881869348754574
10
-4.9400307343879684
20
-16.907305014886688
10
-4.9525902423777284
20
-16.938165723128904
10
-4.9681069603737535
20
-16.97435599765527
10
-4.986782492698949
20
-17.015774660265926
10
-5.0088156688808949
20
-17.06231489596323
10
-5.0344024040729982
20
-17.113864321797973
10
-5.0637355610883308
20
-17.170305058950966
10
-5.0970048141180735
20
-17.23151380801346
10
-5.1343965142057026
20
-17.297361927428671
10
-5.1760935565472064
20
-17.367715515054755
10
-5.2222752496868132
20
-17.442435492808347
10
-5.2731171866767115
20
-17.521377694346029
10
-5.3287911182683967
20
-17.604392955739968
10
-5.3894648282023452
20
-17.691327209102106
10
-5.4553020106615708
20
-17.782021579109994
0
CIRCLE
5
114
100
AcDbEntity
8
0
100
AcDbCircle
10
-95
20
0
30
0
40
2.5499999999999998
210
0
220
-0
230
1
0
CIRCLE
5
115
100
AcDbEntity
8
0
100
AcDbCircle
10
-95
20
-10
30
0
40
2.0499999999999998
210
0
220
-0
230
1
0
CIRCLE
5
116
100
AcDbEntity
8
0
100
AcDbCircle
10
-85
20
0
30
0
40
2.5499999999999998
210
0
220
-0
230
1
0
CIRCLE
5
117
100
AcDbEntity
8
0
100
AcDbCircle
10
-95
20
-40
30
0
40
2.0499999999999998
210
0
220
-0
230
1
0
CIRCLE
5
118
100
AcDbEntity
8
0
100
AcDbCircle
10
-95
20
10
30
0
40
2.0499999999999998
210
0
220
-0
230
1
0
CIRCLE
5
119
100
AcDbEntity
8
0
100
AcDbCircle
10
-105
20
0
30
0
40
2.5499999999999989
210
0
220
-0
230
1
0
CIRCLE
5
120
100
AcDbEntity
8
0
100
AcDbCircle
10
-95
20
-80
30
0
40
2.0499999999999998
210
0
220
-0
230
1
0
LWPOLYLINE
5
121
100
AcDbEntity
8
0
100
AcDbPolyline
90
4
70
1
43
0.0
10
-101.00000000000001
20
-19.078784028338912
42
-6.5131306713898152
10
-89
20
-19.078784028338909
10
-89
20
-80
42
-0.99999999999999989
10
-101
20
-80
0
CIRCLE
5
122
100
AcDbEntity
8
0
100
AcDbCircle
10
-45
20
0
30
0
40
7.0000000000000018
210
0
220
0
230
1
0
CIRCLE
5
123
100
AcDbEntity
8
0
100
AcDbCircle
10
-95
20
0
30
0
40
6.9999999999999929
210
0
220
0
230
1
0
ENDSEC
0
SECTION
2
OBJECTS
0
DICTIONARY
5
C
100
AcDbDictionary
3
ACAD_GROUP
350
D
3
ACAD_MLINESTYLE
350
17
0
DICTIONARY
5
D
100
AcDbDictionary
0
DICTIONARY
5
1A
330
C
100
AcDbDictionary
0
DICTIONARY
5
17
100
AcDbDictionary
0
ENDSEC
0
EOF
