0
SECTION
2
HEADER
9
$INSUNITS
70
4
9
$ACADVER
1
AC1014
9
$HANDSEED
5
FFFF
0
ENDSEC
0
SECTION
2
TABLES
0
TABLE
2
VPORT
5
8
100
AcDbSymbolTable
0
ENDTAB
0
TABLE
2
LTYPE
5
5
100
AcDbSymbolTable
0
LTYPE
5
14
100
AcDbSymbolTableRecord
100
AcDbLinetypeTableRecord
2
BYBLOCK
70
0
0
LTYPE
5
15
100
AcDbSymbolTableRecord
100
AcDbLinetypeTableRecord
2
BYLAYER
70
0
0
ENDTAB
0
TABLE
2
LAYER
5
2
100
AcDbSymbolTable
70
2
0
LAYER
5
50
100
AcDbSymbolTableRecord
100
AcDbLayerTableRecord
2
0
70
0
6
CONTINUOUS
0
ENDTAB
0
TABLE
2
STYLE
5
3
100
AcDbSymbolTable
70
1
0
STYLE
5
11
100
AcDbSymbolTableRecord
100
AcDbTextStyleTableRecord
2
STANDARD
70
0
0
ENDTAB
0
TABLE
2
VIEW
5
6
100
AcDbSymbolTable
70
0
0
ENDTAB
0
TABLE
2
UCS
5
7
100
AcDbSymbolTable
70
0
0
ENDTAB
0
TABLE
2
APPID
5
9
100
AcDbSymbolTable
70
2
0
APPID
5
12
100
AcDbSymbolTableRecord
100
AcDbRegAppTableRecord
2
ACAD
70
0
0
ENDTAB
0
TABLE
2
DIMSTYLE
5
A
100
AcDbSymbolTable
70
1
0
ENDTAB
0
TABLE
2
BLOCK_RECORD
5
1
100
AcDbSymbolTable
70
1
0
BLOCK_RECORD
5
1F
100
AcDbSymbolTableRecord
100
AcDbBlockTableRecord
2
*MODEL_SPACE
0
BLOCK_RECORD
5
1B
100
AcDbSymbolTableRecord
100
AcDbBlockTableRecord
2
*PAPER_SPACE
0
ENDTAB
0
ENDSEC
0
SECTION
2
BLOCKS
0
BLOCK
5
20
100
AcDbEntity
100
AcDbBlockBegin
2
*MODEL_SPACE
0
ENDBLK
5
21
100
AcDbEntity
100
AcDbBlockEnd
0
BLOCK
5
1C
100
AcDbEntity
100
AcDbBlockBegin
2
*PAPER_SPACE
0
ENDBLK
5
1D
100
AcDbEntity
100
AcDbBlockEnd
0
ENDSEC
0
SECTION
2
ENTITIES
0
LINE
5
100
100
AcDbEntity
8
0
100
AcDbLine
10
2.3574184518178291e-13
20
20.025000000005551
30
0
11
-17.342158710789633
21
10.012500000002827
31
0
0
LINE
5
101
100
AcDbEntity
8
0
100
AcDbLine
10
-17.342158710789633
20
10.012500000002827
30
0
11
-17.34215871078986
21
-10.012500000004676
31
0
0
LINE
5
102
100
AcDbEntity
8
0
100
AcDbLine
10
-17.34215871078986
20
-10.012500000004676
30
0
11
-1.5156295118652051e-13
21
-20.025000000008475
31
0
0
LINE
5
103
100
AcDbEntity
8
0
100
AcDbLine
10
-1.5156295118652051e-13
20
-20.025000000008475
30
0
11
17.342158710789789
21
-10.012500000005
31
0
0
LINE
5
104
100
AcDbEntity
8
0
100
AcDbLine
10
17.342158710789789
20
-10.012500000005
30
0
11
17.342158710789953
21
10.012500000002468
31
0
0
LINE
5
105
100
AcDbEntity
8
0
100
AcDbLine
10
17.342158710789953
20
10.012500000002468
30
0
11
2.3574184518178291e-13
21
20.025000000005551
31
0
0
LINE
5
106
100
AcDbEntity
8
0
100
AcDbLine
10
2.3574184518178291e-13
20
20.025000000005551
30
0
11
-1.5156295118652051e-13
21
-20.025000000008475
31
0
0
LINE
5
107
100
AcDbEntity
8
0
100
AcDbLine
10
17.342158710789953
20
10.012500000002468
30
0
11
-17.34215871078986
21
-10.012500000004676
31
0
0
LWPOLYLINE
5
108
100
AcDbEntity
8
0
100
AcDbPolyline
90
4
70
1
43
0.0
10
1.2500000000002371
20
20.025000000004106
10
-1.2499999999997635
20
20.025000000007243
10
-1.2499999999997393
20
11.550000000007326
10
1.2500000000002611
20
11.55000000000982
0
LWPOLYLINE
5
109
100
AcDbEntity
8
0
100
AcDbPolyline
90
4
70
1
43
0.0
10
1.2499999999998492
20
-20.025000000006045
10
1.2499999999998774
20
-11.550000000014906
10
-1.2500000000001226
20
-11.550000000011153
10
-1.2500000000001519
20
-20.025000000011026
0
LWPOLYLINE
5
110
100
AcDbEntity
8
0
100
AcDbPolyline
90
4
70
1
43
0.0
10
-17.967158710790731
20
8.9299682452729101
10
-10.627593413718266
20
4.6924682452724937
10
-9.3775934137212325
20
6.8575317547276846
10
-16.71715871078861
20
11.095031754732769
0
LWPOLYLINE
5
111
100
AcDbEntity
8
0
100
AcDbPolyline
90
4
70
1
43
0.0
10
9.377593413715779
20
-6.8575317547377868
10
16.717158710790418
20
-11.095031754734457
10
17.967158710789242
20
-8.929968245275596
10
10.627593413715758
20
-4.6924682452766566
0
LWPOLYLINE
5
112
100
AcDbEntity
8
0
100
AcDbPolyline
90
4
70
1
43
0.0
10
16.717158710789867
20
11.095031754732968
10
9.3775934137180776
20
6.8575317547313785
10
10.627593413719572
20
4.6924682452676567
10
17.967158710790404
20
8.9299682452721711
0
LWPOLYLINE
5
113
100
AcDbEntity
8
0
100
AcDbPolyline
90
4
70
1
43
0.0
10
-16.717158710790056
20
-11.095031754734991
10
-9.3775934137150845
20
-6.857531754738865
10
-10.627593413715083
20
-4.6924682452777438
10
-17.967158710789736
20
-8.9299682452744058
0
LWPOLYLINE
5
114
100
AcDbEntity
8
0
100
AcDbPolyline
90
4
70
1
43
0.0
10
1.2499999999999998
20
-8.4750000000000032
10
1.25
20
0
10
-1.25
20
0
10
-1.2499999999999998
20
-8.4750000000000032
0
LINE
5
115
100
AcDbEntity
8
0
100
AcDbLine
10
-17.342158710789942
20
-9.1404886146061048e-13
30
0
11
17.342158710790073
21
-1.2581130036659448e-12
31
0
0
LINE
5
116
100
AcDbEntity
8
0
100
AcDbLine
10
-17.342158710789633
20
10.012500000002827
30
0
11
17.342158710789789
21
-10.012500000005
31
0
0
CIRCLE
5
117
100
AcDbEntity
8
0
100
AcDbCircle
10
2.3574184518178291e-13
20
20.025000000005551
30
0
40
10.012500000003913
210
0
220
0
230
1
0
CIRCLE
5
118
100
AcDbEntity
8
0
100
AcDbCircle
10
17.342158710789789
20
-10.012500000005
30
0
40
10.012500000004025
210
0
220
0
230
1
0
CIRCLE
5
119
100
AcDbEntity
8
0
100
AcDbCircle
10
-17.34215871078986
20
-10.012500000004676
30
0
40
10.012500000004103
210
0
220
0
230
1
0
LWPOLYLINE
5
120
100
AcDbEntity
8
0
100
AcDbPolyline
90
4
70
1
43
0.0
10
5.7000000000002391
20
20.02500000000396
10
-5.6999999999997666
20
20.025000000007218
10
-5.6999999999997444
20
-20.024999999992694
10
5.7000000000002595
20
-20.024999999990239
0
LINE
5
121
100
AcDbEntity
8
0
100
AcDbLine
10
8.6710793553951842
20
15.018750000004147
30
0
11
-8.6710793553951202
21
-15.018750000006762
31
0
0
ENDSEC
0
SECTION
2
OBJECTS
0
DICTIONARY
5
C
100
AcDbDictionary
3
ACAD_GROUP
350
D
3
ACAD_MLINESTYLE
350
17
0
DICTIONARY
5
D
100
AcDbDictionary
0
DICTIONARY
5
1A
330
C
100
AcDbDictionary
0
DICTIONARY
5
17
100
AcDbDictionary
0
ENDSEC
0
EOF
