0
SECTION
2
HEADER
9
$INSUNITS
70
4
9
$ACADVER
1
AC1014
9
$HANDSEED
5
FFFF
0
ENDSEC
0
SECTION
2
TABLES
0
TABLE
2
VPORT
5
8
100
AcDbSymbolTable
0
ENDTAB
0
TABLE
2
LTYPE
5
5
100
AcDbSymbolTable
0
LTYPE
5
14
100
AcDbSymbolTableRecord
100
AcDbLinetypeTableRecord
2
BYBLOCK
70
0
0
LTYPE
5
15
100
AcDbSymbolTableRecord
100
AcDbLinetypeTableRecord
2
BYLAYER
70
0
0
ENDTAB
0
TABLE
2
LAYER
5
2
100
AcDbSymbolTable
70
2
0
LAYER
5
50
100
AcDbSymbolTableRecord
100
AcDbLayerTableRecord
2
0
70
0
6
CONTINUOUS
0
ENDTAB
0
TABLE
2
STYLE
5
3
100
AcDbSymbolTable
70
1
0
STYLE
5
11
100
AcDbSymbolTableRecord
100
AcDbTextStyleTableRecord
2
STANDARD
70
0
0
ENDTAB
0
TABLE
2
VIEW
5
6
100
AcDbSymbolTable
70
0
0
ENDTAB
0
TABLE
2
UCS
5
7
100
AcDbSymbolTable
70
0
0
ENDTAB
0
TABLE
2
APPID
5
9
100
AcDbSymbolTable
70
2
0
APPID
5
12
100
AcDbSymbolTableRecord
100
AcDbRegAppTableRecord
2
ACAD
70
0
0
ENDTAB
0
TABLE
2
DIMSTYLE
5
A
100
AcDbSymbolTable
70
1
0
ENDTAB
0
TABLE
2
BLOCK_RECORD
5
1
100
AcDbSymbolTable
70
1
0
BLOCK_RECORD
5
1F
100
AcDbSymbolTableRecord
100
AcDbBlockTableRecord
2
*MODEL_SPACE
0
BLOCK_RECORD
5
1B
100
AcDbSymbolTableRecord
100
AcDbBlockTableRecord
2
*PAPER_SPACE
0
ENDTAB
0
ENDSEC
0
SECTION
2
BLOCKS
0
BLOCK
5
20
100
AcDbEntity
100
AcDbBlockBegin
2
*MODEL_SPACE
0
ENDBLK
5
21
100
AcDbEntity
100
AcDbBlockEnd
0
BLOCK
5
1C
100
AcDbEntity
100
AcDbBlockBegin
2
*PAPER_SPACE
0
ENDBLK
5
1D
100
AcDbEntity
100
AcDbBlockEnd
0
ENDSEC
0
SECTION
2
ENTITIES
0
LWPOLYLINE
5
100
100
AcDbEntity
8
0
100
AcDbPolyline
90
20
70
1
43
0.0
10
35.99999999999946
20
-16.744872981074415
42
-0.26794919243113169
10
35.24999999999941
20
-18.043911086751105
10
33.674999999999336
20
-18.953237760724726
42
-0.57735026918960897
10
31.424999999999379
20
-17.654199655048039
10
31.424999999999372
20
-12.149999999995803
10
28.57499999999937
20
-12.149999999985665
10
28.574999999999381
20
-17.654199655047613
42
-0.57735026918963639
10
26.324999999999346
20
-18.953237760724249
10
24.749999999999417
20
-18.043911086750573
42
-0.26794919243111287
10
23.999999999999453
20
-16.744872981073936
10
23.999999999999439
20
16.744872981081169
42
-0.26794919243112453
10
24.749999999999453
20
18.043911086757838
10
26.325000000000685
20
18.95323776073219
42
-0.57735026918962096
10
28.575000000000674
20
17.654199655055521
10
28.575000000000664
20
12.150000000004066
10
31.425000000000665
20
12.150000000004956
10
31.425000000000686
20
17.654199655055493
42
-0.57735026918962384
10
33.675000000000672
20
18.953237760732147
10
35.249999999999432
20
18.043911086759195
42
-0.26794919243112142
10
35.999999999999439
20
16.744872981082541
0
LWPOLYLINE
5
101
100
AcDbEntity
8
0
100
AcDbPolyline
90
20
70
1
43
0.0
10
55.99999999999946
20
-16.744872981077645
42
-0.26794919243113102
10
55.24999999999941
20
-18.043911086754331
10
53.674999999999343
20
-18.953237760727959
42
-0.57735026918961452
10
51.424999999999379
20
-17.654199655051265
10
51.424999999999372
20
-12.149999999999029
10
48.57499999999937
20
-12.149999999988893
10
48.574999999999385
20
-17.654199655050835
42
-0.57735026918963472
10
46.324999999999349
20
-18.953237760727475
10
44.749999999999417
20
-18.043911086753806
42
-0.26794919243111354
10
43.999999999999453
20
-16.744872981077162
10
43.999999999999424
20
16.74487298107794
42
-0.26794919243112381
10
44.749999999999453
20
18.043911086754612
10
46.325000000000685
20
18.953237760728964
42
-0.57735026918962062
10
48.575000000000671
20
17.654199655052295
10
48.575000000000664
20
12.150000000000841
10
51.425000000000665
20
12.150000000001731
10
51.425000000000679
20
17.654199655052267
42
-0.57735026918962018
10
53.675000000000672
20
18.953237760728921
10
55.249999999999446
20
18.043911086755973
42
-0.26794919243112519
10
55.999999999999439
20
16.744872981079311
0
LWPOLYLINE
5
102
100
AcDbEntity
8
0
100
AcDbPolyline
90
20
70
1
43
0.0
10
75.99999999999946
20
-16.744872981077684
42
-0.26794919243113102
10
75.249999999999403
20
-18.04391108675437
10
73.674999999999343
20
-18.953237760727998
42
-0.57735026918961452
10
71.424999999999386
20
-17.654199655051304
10
71.424999999999386
20
-12.149999999999068
10
68.574999999999363
20
-12.149999999988932
10
68.574999999999392
20
-17.654199655050874
42
-0.57735026918963472
10
66.324999999999349
20
-18.953237760727518
10
64.749999999999417
20
-18.043911086753845
42
-0.26794919243111354
10
63.999999999999453
20
-16.744872981077201
10
63.999999999999424
20
16.744872981077901
42
-0.26794919243112381
10
64.74999999999946
20
18.043911086754573
10
66.325000000000685
20
18.953237760728925
42
-0.57735026918962062
10
68.575000000000671
20
17.654199655052253
10
68.575000000000671
20
12.1500000000008
10
71.425000000000665
20
12.15000000000169
10
71.425000000000679
20
17.654199655052224
42
-0.57735026918962018
10
73.675000000000665
20
18.953237760728882
10
75.249999999999446
20
18.043911086755941
42
-0.26794919243112514
10
75.999999999999446
20
16.744872981079272
0
LWPOLYLINE
5
103
100
AcDbEntity
8
0
100
AcDbPolyline
90
20
70
1
43
0.0
10
95.99999999999946
20
-16.744872981074415
42
-0.26794919243113224
10
95.249999999999417
20
-18.043911086751105
10
93.674999999999329
20
-18.953237760724736
42
-0.5773502691896093
10
91.424999999999386
20
-17.654199655048039
10
91.424999999999358
20
-12.149999999995803
10
88.574999999999363
20
-12.149999999985665
10
88.574999999999378
20
-17.654199655047609
42
-0.5773502691896335
10
86.324999999999335
20
-18.953237760724249
10
84.749999999999403
20
-18.043911086750573
42
-0.26794919243112481
10
83.99999999999946
20
-16.744872981073936
10
83.999999999999417
20
16.744872981081169
42
-0.26794919243111354
10
84.749999999999446
20
18.043911086757838
10
86.325000000000657
20
18.953237760732197
42
-0.57735026918962495
10
88.575000000000657
20
17.654199655055521
10
88.575000000000657
20
12.150000000004066
10
91.425000000000665
20
12.150000000004956
10
91.425000000000679
20
17.654199655055493
42
-0.57735026918961874
10
93.675000000000665
20
18.953237760732147
10
95.249999999999417
20
18.043911086759209
42
-0.26794919243111726
10
95.999999999999432
20
16.744872981082541
0
LWPOLYLINE
5
104
100
AcDbEntity
8
0
100
AcDbPolyline
90
20
70
1
43
0.0
10
115.99999999999946
20
-16.744872981077641
42
-0.26794919243113191
10
115.24999999999942
20
-18.043911086754331
10
113.67499999999933
20
-18.953237760727962
42
-0.57735026918960963
10
111.42499999999939
20
-17.654199655051265
10
111.42499999999936
20
-12.149999999999029
10
108.57499999999936
20
-12.149999999988893
10
108.57499999999938
20
-17.654199655050835
42
-0.5773502691896335
10
106.32499999999933
20
-18.953237760727475
10
104.7499999999994
20
-18.043911086753795
42
-0.26794919243112481
10
103.99999999999946
20
-16.744872981077162
10
103.99999999999943
20
16.744872981077943
42
-0.26794919243111381
10
104.74999999999945
20
18.043911086754612
10
106.32500000000066
20
18.953237760728967
42
-0.57735026918962495
10
108.57500000000066
20
17.654199655052295
10
108.57500000000066
20
12.150000000000841
10
111.42500000000067
20
12.150000000001731
10
111.42500000000068
20
17.654199655052267
42
-0.57735026918961796
10
113.67500000000067
20
18.953237760728921
10
115.24999999999942
20
18.043911086755976
42
-0.26794919243111998
10
115.99999999999943
20
16.744872981079311
0
LWPOLYLINE
5
105
100
AcDbEntity
8
0
100
AcDbPolyline
90
20
70
1
43
0.0
10
135.99999999999946
20
-16.74487298107768
42
-0.26794919243113191
10
135.24999999999943
20
-18.04391108675437
10
133.67499999999933
20
-18.953237760728005
42
-0.57735026918960963
10
131.42499999999939
20
-17.654199655051304
10
131.42499999999939
20
-12.149999999999068
10
128.57499999999936
20
-12.149999999988932
10
128.57499999999936
20
-17.654199655050874
42
-0.5773502691896335
10
126.32499999999933
20
-18.953237760727518
10
124.7499999999994
20
-18.043911086753837
42
-0.26794919243112481
10
123.99999999999946
20
-16.744872981077201
10
123.99999999999943
20
16.744872981077904
42
-0.26794919243111381
10
124.74999999999945
20
18.043911086754573
10
126.32500000000066
20
18.953237760728928
42
-0.57735026918962495
10
128.57500000000067
20
17.654199655052253
10
128.57500000000067
20
12.1500000000008
10
131.42500000000067
20
12.15000000000169
10
131.42500000000067
20
17.654199655052224
42
-0.57735026918961796
10
133.67500000000067
20
18.953237760728882
10
135.24999999999943
20
18.043911086755951
42
-0.26794919243111998
10
135.99999999999943
20
16.744872981079272
0
LWPOLYLINE
5
106
100
AcDbEntity
8
0
100
AcDbPolyline
90
28
70
1
43
0.0
10
174.84399991549722
20
-16.80328707272313
42
-0.30221460256428478
10
176.50219791683114
20
-16.698056485188477
10
181.07945615426831
20
-19.34073776072227
42
-0.57735026918940202
10
181.07945615426954
20
-21.938813972075142
10
176.31267942549556
20
-24.690913799604608
10
177.73767942549631
20
-27.159086200389837
10
182.50445615427117
20
-24.406986372865227
42
-0.57735026918955135
10
184.75445615427108
20
-25.706024478541671
10
184.75445615427344
20
-38.293975521449482
42
-0.57735026918970589
10
182.50445615427336
20
-39.59301362712641
10
177.73767942549796
20
-36.840913799600862
10
176.31267942549741
20
-39.309086200388379
10
181.07945615427406
20
-42.061186027913337
42
-0.5773502691896143
10
181.07945615427454
20
-44.659262239266653
10
176.48529153326282
20
-47.311704419910249
42
-0.29749931880055053
10
174.84788748707555
20
-47.222010789067419
42
0.042899597772202668
10
167.19843351235141
20
-42.56047491213441
42
0.016513211837453287
10
166.50297076951682
20
-42.5374999999989
10
166.50297076951671
20
-42.220958690585746
42
0.084680965399195493
10
149.58855297945308
20
-37.397496037044803
42
-0.38268370727810047
10
148.25148538475804
20
-35.906371283276371
10
148.25148597180339
20
-31.999999991632826
10
157.16064091292458
20
-31.999999993673633
10
157.16064091292441
20
-30.575087347605063
10
149.75148550803644
20
-30.575087956535203
42
-0.41421358644482781
10
148.25148538475716
20
-29.075087956535384
10
148.25148538475707
20
-28.156182786220512
42
-0.38676461906456772
10
149.6097710973248
20
-26.662892104290805
42
0.13983415365924318
0
LWPOLYLINE
5
107
100
AcDbEntity
8
0
100
AcDbPolyline
90
35
70
1
43
0.0
10
193.9985146152427
20
-25.593013627131519
42
-0.57735026918968491
10
191.74851461524244
20
-24.293975521454968
10
191.74851461524298
20
-11.706024478547143
42
-0.57735026918955001
10
193.99851461524264
20
-10.406986372870401
10
198.7652913440179
20
-13.159086200394247
10
200.19029134401825
20
-10.690913799608806
10
195.4235146152439
20
-7.9388139720800321
42
-0.57735026918941046
10
195.42351461524476
20
-5.3407377607272029
10
199.6564728120681
20
-2.8968382063228755
42
-0.37807661339096721
10
201.60192791336812
20
-3.2898481111273101
42
0.49685830817221244
10
218.39807208663319
20
-3.2898481111273634
42
-0.3780766133909757
10
220.34352718793318
20
-2.8968382063229536
10
224.57648538475794
20
-5.3407377607281514
42
-0.57735026918962817
10
224.57648538475794
20
-7.9388139720814603
10
219.80970865598118
20
-10.690913799607548
10
221.23470865598046
20
-13.15908620039351
10
226.00148538475719
20
-10.406986372866578
42
-0.57735026918967003
10
228.25148538475727
20
-11.706024478542984
10
228.25148538475736
20
-16.575088079814456
10
228.26732926895596
20
-16.575088081116604
10
228.25148479771158
20
-17.999999991632826
10
228.25148538475759
20
-24.293975521456833
42
-0.57735026918964638
10
226.00148538475759
20
-25.593013627133541
10
221.23470865598154
20
-22.840913799607918
10
219.80970865598184
20
-25.309086200393047
10
224.57648538475775
20
-28.06118602791901
42
-0.57735026918960752
10
224.57648538475758
20
-30.659262239272287
10
220.3435271879311
20
-33.103161793678233
42
-0.37807661339097198
10
218.39807208663109
20
-32.710151888873817
42
0.49685830817220711
10
201.60192791336826
20
-32.710151888873263
42
-0.37807661339096754
10
199.65647281206827
20
-33.1031617936776
10
195.42351461524231
20
-30.659262239271552
42
-0.57735026918961574
10
195.42351461524237
20
-28.061186027918225
10
200.19029134401865
20
-25.309086200392564
10
198.76529134401773
20
-22.840913799605271
0
LWPOLYLINE
5
108
100
AcDbEntity
8
0
100
AcDbPolyline
90
24
70
1
43
0.0
10
248.57499999999558
20
-18.499999996488903
42
-0.41421356230595818
10
247.07500000033943
20
-19.999999996488903
10
233.24851461558222
20
-19.999999999658204
42
-0.41421356244024138
10
231.74851461523838
20
-18.499999999658137
10
231.74851461523855
20
-13.706024478549212
42
-0.57735026918954535
10
233.99851461523824
20
-12.406986372872435
10
238.76529134401349
20
-15.159086200396281
10
240.19029134401387
20
-12.690913799610843
10
235.4235146152395
20
-9.9388139720820838
42
-0.57735026918939225
10
235.42351461524038
20
-7.3407377607292368
10
249.24999999999628
20
0.6419872981058139
42
-0.26794919243113152
10
250.74999999999625
20
0.64198729810581057
10
264.57648538475354
20
-7.3407377607302093
42
-0.57735026918962806
10
264.57648538475354
20
-9.9388139720835156
10
259.80970865597675
20
-12.690913799609582
10
261.23470865597602
20
-15.159086200395553
10
266.0014853847527
20
-12.406986372868555
42
-0.57735026918966426
10
268.25148538475287
20
-13.706024478545036
10
268.25148538475293
20
-18.499999991978665
42
-0.41421356230597894
10
266.75148538509677
20
-19.999999991978683
10
252.92500000033942
20
-19.999999995147945
42
-0.41421356244024488
10
251.42499999999561
20
-18.499999995147967
10
251.42499999999561
20
-11.075000000002042
10
248.57499999999561
20
-11.075000000002042
0
LWPOLYLINE
5
109
100
AcDbEntity
8
0
100
AcDbPolyline
90
36
70
1
43
0.0
10
-1.425000000004214
20
-57.654199655053716
42
-0.57735026918963617
10
-3.6750000000042515
20
-58.953237760730346
10
-14.576485384761295
20
-52.65926223927373
42
-0.57735026918962051
10
-14.576485384761231
20
-50.061186027920392
10
-9.8097086559849345
20
-47.309086200394731
10
-11.234708655985894
20
-44.840913799607435
10
-16.001485384760869
20
-47.593013627133672
42
-0.57735026918969634
10
-18.251485384761086
20
-46.293975521457114
10
-18.251485384760677
20
-33.706024478549338
42
-0.5773502691895398
10
-16.001485384760965
20
-32.406986372872559
10
-11.234708655985717
20
-35.159086200396402
10
-9.8097086559853253
20
-32.690913799610968
10
-14.576485384759669
20
-29.938813972082219
42
-0.57735026918941601
10
-14.576485384758833
20
-27.340737760729361
10
-3.6750000000029241
20
-21.046762239273917
42
-0.57735026918962284
10
-1.4250000000029317
20
-22.345800344950586
10
-1.4250000000029495
20
-27.850000000002044
10
1.424999999997052
20
-27.85000000000208
10
1.4249999999970699
20
-22.345800344950622
42
-0.57735026918962495
10
3.6749999999970662
20
-21.046762239273953
10
14.576485384754328
20
-27.340737760730306
42
-0.57735026918963006
10
14.576485384754321
20
-29.93881397208364
10
9.8097086559775626
20
-32.690913799609703
10
11.234708655976817
20
-35.159086200395677
10
16.001485384753465
20
-32.406986372868658
42
-0.57735026918967181
10
18.251485384753661
20
-33.70602447854516
10
18.251485384753931
20
-46.293975521458989
42
-0.57735026918962917
10
16.001485384753931
20
-47.593013627135683
10
11.234708655977945
20
-44.840913799610078
10
9.8097086559782287
20
-47.3090862003952
10
14.576485384754108
20
-50.061186027921167
42
-0.5773502691896214
10
14.576485384753974
20
-52.659262239274454
10
3.6749999999957295
20
-58.953237760730829
42
-0.57735026918961296
10
1.424999999995773
20
-57.654199655054143
10
1.4249999999957641
20
-52.150000000001896
10
-1.4250000000042284
20
-52.150000000001455
0
LWPOLYLINE
5
110
100
AcDbEntity
8
0
100
AcDbPolyline
90
32
70
1
43
0.0
10
25.423514615242311
20
-52.659262239270824
42
-0.57735026918962107
10
25.423514615242382
20
-50.061186027917508
10
30.190291344018661
20
-47.30908620039186
10
28.765291344017712
20
-44.84091379960455
10
23.998514615242765
20
-47.593013627130816
42
-0.57735026918969579
10
21.748514615242513
20
-46.293975521454236
10
21.748514615242659
20
-41.406176412644143
42
-0.3780766133909666
10
23.06159872739223
20
-39.917867825398552
42
0.49685830817220877
10
31.459670814024065
20
-25.371980285726995
42
-0.3780766133909681
10
32.092041803174567
20
-23.490661793676963
10
36.325000000000678
20
-21.046762239271022
42
-0.57735026918962284
10
38.575000000000671
20
-22.345800344947691
10
38.575000000000664
20
-27.849999999999167
10
41.425000000000665
20
-27.849999999999202
10
41.425000000000658
20
-22.345800344947747
42
-0.57735026918962051
10
43.675000000000679
20
-21.046762239271075
10
47.907958196826996
20
-23.490661793677198
42
-0.37807661339096404
10
48.540329185977484
20
-25.371980285727183
42
0.4968583081721975
10
56.938401272607905
20
-39.917867825396684
42
-0.37807661339096038
10
58.25148538475743
20
-41.406176412642282
10
58.251485384757515
20
-46.293975521456112
42
-0.57735026918963128
10
56.001485384757537
20
-47.593013627132791
10
51.234708655981549
20
-44.8409137996072
10
49.809708655981837
20
-47.309086200392336
10
54.576485384757703
20
-50.061186027918268
42
-0.57735026918962795
10
54.576485384757582
20
-52.659262239271584
10
43.674999999999343
20
-58.953237760727937
42
-0.57735026918961552
10
41.424999999999386
20
-57.654199655051258
10
41.424999999999372
20
-52.149999999999025
10
38.57499999999937
20
-52.149999999998577
10
38.574999999999385
20
-57.654199655050817
42
-0.57735026918963284
10
36.324999999999335
20
-58.953237760727468
0
LWPOLYLINE
5
111
100
AcDbEntity
8
0
100
AcDbPolyline
90
32
70
1
43
0.0
10
65.423514615242325
20
-52.659262239270824
42
-0.57735026918963062
10
65.423514615242382
20
-50.061186027917508
10
70.190291344018647
20
-47.30908620039186
10
68.765291344017712
20
-44.84091379960455
10
63.998514615242769
20
-47.593013627130809
42
-0.57735026918969978
10
61.74851461524252
20
-46.293975521454236
10
61.748514615242669
20
-41.406176412644143
42
-0.37807661339096577
10
63.06159872739223
20
-39.917867825398552
42
0.49685830817220861
10
71.459670814024065
20
-25.371980285726995
42
-0.37807661339096982
10
72.092041803174567
20
-23.490661793676963
10
76.325000000000685
20
-21.046762239271025
42
-0.57735026918962717
10
78.575000000000671
20
-22.345800344947691
10
78.575000000000657
20
-27.849999999999167
10
81.425000000000665
20
-27.849999999999202
10
81.425000000000665
20
-22.345800344947744
42
-0.57735026918961574
10
83.675000000000665
20
-21.046762239271075
10
87.907958196826996
20
-23.490661793677177
42
-0.37807661339096976
10
88.540329185977512
20
-25.371980285727194
42
0.49685830817219623
10
96.938401272607877
20
-39.917867825396684
42
-0.37807661339097937
10
98.25148538475743
20
-41.406176412642282
10
98.25148538475753
20
-46.293975521456112
42
-0.57735026918962529
10
96.00148538475753
20
-47.593013627132791
10
91.234708655981535
20
-44.8409137996072
10
89.809708655981837
20
-47.309086200392336
10
94.576485384757717
20
-50.061186027918282
42
-0.57735026918961674
10
94.576485384757589
20
-52.659262239271584
10
83.674999999999358
20
-58.953237760727959
42
-0.5773502691896123
10
81.424999999999386
20
-57.654199655051258
10
81.424999999999386
20
-52.149999999999025
10
78.574999999999378
20
-52.149999999998577
10
78.574999999999406
20
-57.654199655050817
42
-0.57735026918963706
10
76.324999999999335
20
-58.953237760727468
0
LWPOLYLINE
5
112
100
AcDbEntity
8
0
100
AcDbPolyline
90
33
70
1
43
0.0
10
-48.398072086631743
20
-54.710151888872531
42
-0.37807661339096676
10
-50.343527187931755
20
-55.10316179367689
10
-54.576485384757689
20
-52.659262239270852
42
-0.57735026918963162
10
-54.576485384757618
20
-50.061186027917515
10
-51.102235251452583
20
-48.055326778221882
42
0.38517038821503674
10
-50.484708655982146
20
-46.139951905281464
42
0.41421356237314866
10
-52.533746761659046
20
-45.590913799604934
10
-56.001485384757245
20
-47.593013627130809
42
-0.57735026918969978
10
-58.251485384757487
20
-46.293975521454236
10
-58.251485384757331
20
-41.406176412644143
42
-0.37807661339096577
10
-56.93840127260777
20
-39.917867825398552
42
0.49685830817220883
10
-48.540329185975928
20
-25.371980285726991
42
-0.37807661339096349
10
-47.907958196825433
20
-23.490661793676963
10
-43.674999999999315
20
-21.046762239271043
42
-0.57735026918962717
10
-41.424999999999329
20
-22.345800344947708
10
-41.424999999999343
20
-26.357518844339264
42
0.38517038821472271
10
-40.074999999999356
20
-27.849999999999181
42
0.4142135623731002
10
-38.574999999999335
20
-26.349999999999181
10
-38.574999999999328
20
-22.34580034494774
42
-0.57735026918962451
10
-36.324999999999328
20
-21.046762239271075
10
-32.092041803173011
20
-23.490661793677184
42
-0.37807661339096771
10
-31.459670814022509
20
-25.371980285727183
42
0.49685830817219817
10
-23.061598727392095
20
-39.917867825396691
42
-0.37807661339096144
10
-21.748514615242573
20
-41.406176412642282
10
-21.74851461524247
20
-46.293975521456112
42
-0.57735026918962828
10
-23.998514615242463
20
-47.593013627132805
10
-27.472764748547451
20
-45.587154377437109
42
0.38517038821462618
10
-29.440291344018195
20
-46.010048094715742
42
0.41421356237308055
10
-28.891253238341612
20
-48.059086200392365
10
-25.423514615242301
20
-50.061186027918282
42
-0.57735026918962007
10
-25.423514615242418
20
-52.659262239271584
10
-29.65647281206893
20
-55.103161793677572
42
-0.37807661339097143
10
-31.601927913368911
20
-54.710151888873099
42
0.49685830817220472
0
LWPOLYLINE
5
113
100
AcDbEntity
8
0
100
AcDbPolyline
90
33
70
1
43
0.0
10
-88.398072086631743
20
-54.710151888872538
42
-0.37807661339097209
10
-90.343527187931741
20
-55.10316179367689
10
-94.576485384757675
20
-52.659262239270852
42
-0.57735026918963339
10
-94.576485384757632
20
-50.061186027917515
10
-91.102235251452583
20
-48.055326778221882
42
0.38517038821503963
10
-90.484708655982161
20
-46.139951905281464
42
0.41421356237314771
10
-92.533746761659046
20
-45.590913799604934
10
-96.001485384757288
20
-47.593013627130787
42
-0.57735026918969135
10
-98.251485384757473
20
-46.293975521454236
10
-98.251485384757331
20
-41.406176412644143
42
-0.37807661339097226
10
-96.938401272607763
20
-39.917867825398552
42
0.49685830817220705
10
-88.540329185975935
20
-25.371980285726984
42
-0.37807661339096832
10
-87.907958196825433
20
-23.490661793676963
10
-83.674999999999343
20
-21.04676223927104
42
-0.57735026918962762
10
-81.424999999999329
20
-22.345800344947708
10
-81.424999999999343
20
-26.357518844339264
42
0.38517038821472432
10
-80.074999999999349
20
-27.849999999999181
42
0.41421356237309853
10
-78.574999999999335
20
-26.349999999999181
10
-78.574999999999321
20
-22.34580034494774
42
-0.57735026918962229
10
-76.324999999999335
20
-21.046762239271075
10
-72.092041803173004
20
-23.490661793677191
42
-0.37807661339096138
10
-71.459670814022502
20
-25.371980285727183
42
0.4968583081721975
10
-63.061598727392095
20
-39.917867825396684
42
-0.37807661339096055
10
-61.74851461524257
20
-41.406176412642282
10
-61.748514615242456
20
-46.293975521456112
42
-0.57735026918962917
10
-63.998514615242463
20
-47.593013627132805
10
-67.472764748547448
20
-45.587154377437109
42
0.38517038821462563
10
-69.440291344018192
20
-46.010048094715742
42
0.41421356237308105
10
-68.891253238341619
20
-48.059086200392365
10
-65.423514615242297
20
-50.061186027918268
42
-0.57735026918962795
10
-65.423514615242425
20
-52.659262239271584
10
-69.656472812068913
20
-55.103161793677593
42
-0.37807661339097154
10
-71.601927913368897
20
-54.710151888873114
42
0.49685830817220544
0
LWPOLYLINE
5
114
100
AcDbEntity
8
0
100
AcDbPolyline
90
32
70
1
43
0.0
10
105.42351461524233
20
-52.659262239270817
42
-0.57735026918962451
10
105.42351461524237
20
-50.061186027917508
10
110.19029134401865
20
-47.30908620039186
10
108.76529134401771
20
-44.84091379960455
10
103.99851461524275
20
-47.593013627130787
42
-0.57735026918970167
10
101.74851461524253
20
-46.293975521454236
10
101.74851461524267
20
-41.406176412644143
42
-0.3780766133909641
10
103.06159872739222
20
-39.917867825398552
42
0.49685830817220844
10
111.45967081402407
20
-25.371980285726991
42
-0.37807661339096921
10
112.09204180317457
20
-23.490661793676963
10
116.32500000000067
20
-21.046762239271011
42
-0.57735026918962862
10
118.57500000000067
20
-22.345800344947691
10
118.57500000000066
20
-27.849999999999167
10
121.42500000000067
20
-27.849999999999202
10
121.42500000000067
20
-22.345800344947744
42
-0.57735026918961574
10
123.67500000000067
20
-21.046762239271075
10
127.907958196827
20
-23.490661793677177
42
-0.37807661339096976
10
128.5403291859775
20
-25.371980285727194
42
0.49685830817219623
10
136.93840127260788
20
-39.917867825396684
42
-0.37807661339097937
10
138.25148538475742
20
-41.406176412642282
10
138.25148538475753
20
-46.293975521456112
42
-0.57735026918962529
10
136.00148538475753
20
-47.593013627132791
10
131.23470865598154
20
-44.8409137996072
10
129.80970865598184
20
-47.309086200392336
10
134.57648538475772
20
-50.061186027918282
42
-0.57735026918961674
10
134.57648538475758
20
-52.659262239271584
10
123.67499999999936
20
-58.953237760727959
42
-0.5773502691896123
10
121.42499999999939
20
-57.654199655051258
10
121.42499999999939
20
-52.149999999999025
10
118.57499999999938
20
-52.149999999998577
10
118.57499999999938
20
-57.654199655050817
42
-0.57735026918963839
10
116.32499999999933
20
-58.953237760727468
0
LWPOLYLINE
5
115
100
AcDbEntity
8
0
100
AcDbPolyline
90
28
70
1
43
0.0
10
143.99851461524275
20
-64.593013627131512
42
-0.57735026918970711
10
141.74851461524253
20
-63.293975521454946
10
141.74851461524293
20
-50.706024478547178
42
-0.57735026918954624
10
143.99851461524264
20
-49.406986372870414
10
148.7652913440179
20
-52.159086200394256
10
150.19029134401828
20
-49.690913799608801
10
145.42351461524393
20
-46.938813972080055
42
-0.57735026918942267
10
145.42351461524478
20
-44.340737760727194
10
150.00077285268154
20
-41.698056485192694
42
-0.30221460256428101
10
151.65897085401548
20
-41.803287072727109
42
0.13983415365924434
10
176.89319967218947
20
-51.662892104290997
42
-0.38676461906456688
10
178.25148538475733
20
-53.156182786220512
10
178.2514853847573
20
-54.075087956535398
42
-0.41421358644483214
10
176.75148526147834
20
-55.575087956535413
10
169.34232985659034
20
-55.575087347606392
10
169.34232985659037
20
-56.999999993674962
10
178.25148479771158
20
-56.999999991632826
10
178.25148538475747
20
-60.906371283276357
42
-0.3826837072781199
10
176.9144177900626
20
-62.397496037044974
42
0.084680965399195576
10
159.99999999999974
20
-67.220958690588489
10
159.99999999999972
20
-67.537500000001629
42
0.016513211837453287
10
159.30453725716512
20
-67.560474912137252
42
0.042899597772202668
10
151.65508328244169
20
-72.222010789071419
42
-0.29749931880056019
10
150.01767923625437
20
-72.311704419914491
10
145.42351461524231
20
-69.659262239271541
42
-0.57735026918962451
10
145.42351461524237
20
-67.061186027918239
10
150.19029134401868
20
-64.309086200392571
10
148.76529134401773
20
-61.840913799605282
0
LWPOLYLINE
5
116
100
AcDbEntity
8
0
100
AcDbPolyline
90
35
70
1
43
0.0
10
193.9985146152427
20
-56.593013627131512
42
-0.57735026918968491
10
191.74851461524244
20
-55.293975521454968
10
191.74851461524298
20
-42.706024478547143
42
-0.57735026918954868
10
193.99851461524264
20
-41.406986372870406
10
198.7652913440179
20
-44.159086200394249
10
200.19029134401825
20
-41.690913799608815
10
195.4235146152439
20
-38.938813972080034
42
-0.57735026918941001
10
195.42351461524476
20
-36.340737760727208
10
199.6564728120681
20
-33.896838206322876
42
-0.37807661339096515
10
201.60192791336812
20
-34.289848111127313
42
0.4968583081722121
10
218.39807208663319
20
-34.28984811112737
42
-0.37807661339097626
10
220.34352718793318
20
-33.896838206322954
10
224.57648538475794
20
-36.34073776072816
42
-0.57735026918962795
10
224.57648538475794
20
-38.938813972081469
10
219.80970865598118
20
-41.69091379960755
10
221.23470865598046
20
-44.159086200393517
10
226.00148538475713
20
-41.406986372866541
42
-0.57735026918966426
10
228.25148538475727
20
-42.706024478542986
10
228.25148538475736
20
-47.575088079814456
10
228.26732926895596
20
-47.575088081116604
10
228.25148479771158
20
-48.999999991632833
10
228.25148538475756
20
-55.293975521456844
42
-0.57735026918963683
10
226.00148538475759
20
-56.593013627133544
10
221.23470865598154
20
-53.840913799607925
10
219.80970865598184
20
-56.30908620039304
10
224.57648538475775
20
-59.061186027919
42
-0.57735026918961518
10
224.57648538475758
20
-61.659262239272302
10
220.3435271879311
20
-64.103161793678282
42
-0.3780766133909681
10
218.39807208663109
20
-63.710151888873824
42
0.49685830817220711
10
201.60192791336826
20
-63.710151888873263
42
-0.37807661339096427
10
199.65647281206827
20
-64.1031617936776
10
195.42351461524231
20
-61.659262239271541
42
-0.5773502691896143
10
195.42351461524237
20
-59.061186027918239
10
200.19029134401865
20
-56.309086200392571
10
198.76529134401773
20
-53.840913799605275
0
LWPOLYLINE
5
117
100
AcDbEntity
8
0
100
AcDbPolyline
90
24
70
1
43
0.0
10
248.57499999999575
20
-48.499999996489024
42
-0.41421356230595946
10
247.0750000003396
20
-49.999999996489031
10
233.24851461558239
20
-49.999999999658336
42
-0.41421356244023577
10
231.74851461523858
20
-48.499999999658257
10
231.74851461523875
20
-43.706024478549338
42
-0.57735026918956056
10
233.99851461523843
20
-42.406986372872559
10
238.76529134401366
20
-45.159086200396402
10
240.19029134401407
20
-42.690913799610968
10
235.4235146152397
20
-39.938813972082201
42
-0.57735026918941046
10
235.42351461524055
20
-37.340737760729361
10
249.24999999999645
20
-29.358012701894296
42
-0.26794919243111304
10
250.74999999999648
20
-29.358012701894314
10
264.57648538475377
20
-37.340737760730313
42
-0.57735026918961052
10
264.57648538475371
20
-39.938813972083636
10
259.80970865597698
20
-42.690913799609703
10
261.23470865597619
20
-45.159086200395677
10
266.00148538475287
20
-42.406986372868694
42
-0.57735026918966237
10
268.25148538475304
20
-43.70602447854516
10
268.2514853847531
20
-48.499999991978797
42
-0.41421356230598028
10
266.751485385097
20
-49.999999991978811
10
252.92500000033959
20
-49.99999999514813
42
-0.41421356244022889
10
251.4249999999958
20
-48.499999995148087
10
251.4249999999958
20
-41.075000000002163
10
248.57499999999578
20
-41.075000000002163
0
LWPOLYLINE
5
118
100
AcDbEntity
8
0
100
AcDbPolyline
90
24
70
1
43
0.0
10
248.57499999999612
20
-78.499999996489024
42
-0.41421356230595946
10
247.07500000033997
20
-79.999999996489038
10
233.24851461558274
20
-79.999999999658343
42
-0.41421356244023577
10
231.74851461523895
20
-78.499999999658257
10
231.74851461523912
20
-73.706024478549338
42
-0.57735026918956056
10
233.9985146152388
20
-72.406986372872552
10
238.76529134401403
20
-75.159086200396416
10
240.19029134401444
20
-72.690913799610968
10
235.42351461524009
20
-69.938813972082215
42
-0.57735026918941745
10
235.42351461524092
20
-67.340737760729354
10
249.24999999999682
20
-59.358012701894296
42
-0.2679491924311162
10
250.74999999999682
20
-59.35801270189431
10
264.57648538475411
20
-67.340737760730306
42
-0.57735026918961618
10
264.57648538475405
20
-69.938813972083636
10
259.80970865597732
20
-72.690913799609717
10
261.23470865597659
20
-75.159086200395677
10
266.00148538475321
20
-72.406986372868701
42
-0.57735026918966237
10
268.25148538475338
20
-73.70602447854516
10
268.25148538475349
20
-78.499999991978797
42
-0.41421356230598028
10
266.75148538509734
20
-79.999999991978825
10
252.92500000033996
20
-79.999999995148144
42
-0.41421356244022889
10
251.42499999999615
20
-78.499999995148102
10
251.42499999999615
20
-71.075000000002163
10
248.57499999999615
20
-71.075000000002163
0
LINE
5
119
100
AcDbEntity
8
0
100
AcDbLine
10
249.25000000000045
20
30.641987298108269
30
0
11
235.42351461524453
21
22.659262239273204
31
0
0
LWPOLYLINE
5
120
100
AcDbEntity
8
0
100
AcDbPolyline
90
36
70
1
43
0.0
10
288.57499999999573
20
-57.654199655053716
42
-0.57735026918965859
10
286.32499999999573
20
-58.953237760730346
10
275.42351461523873
20
-52.659262239273737
42
-0.57735026918961618
10
275.42351461523879
20
-50.061186027920392
10
280.19029134401507
20
-47.309086200394731
10
278.76529134401409
20
-44.840913799607435
10
273.99851461523912
20
-47.593013627133658
42
-0.57735026918971266
10
271.74851461523895
20
-46.293975521457114
10
271.74851461523934
20
-33.706024478549338
42
-0.5773502691895438
10
273.998514615239
20
-32.406986372872559
10
278.76529134401432
20
-35.159086200396402
10
280.19029134401467
20
-32.690913799610968
10
275.42351461524026
20
-29.938813972082208
42
-0.57735026918939236
10
275.42351461524117
20
-27.340737760729361
10
286.32499999999703
20
-21.046762239273896
42
-0.57735026918962862
10
288.57499999999709
20
-22.345800344950586
10
288.57499999999703
20
-27.850000000002044
10
291.42499999999706
20
-27.85000000000208
10
291.42499999999706
20
-22.345800344950611
42
-0.57735026918963417
10
293.67499999999711
20
-21.046762239273953
10
304.57648538475433
20
-27.340737760730299
42
-0.57735026918963095
10
304.57648538475433
20
-29.93881397208364
10
299.80970865597754
20
-32.690913799609703
10
301.23470865597682
20
-35.159086200395677
10
306.00148538475344
20
-32.406986372868651
42
-0.57735026918966559
10
308.25148538475366
20
-33.70602447854516
10
308.25148538475383
20
-46.293975521458989
42
-0.57735026918961552
10
306.00148538475395
20
-47.593013627135683
10
301.23470865597795
20
-44.840913799610078
10
299.80970865597823
20
-47.3090862003952
10
304.57648538475411
20
-50.061186027921153
42
-0.5773502691896143
10
304.57648538475394
20
-52.659262239274454
10
293.67499999999575
20
-58.953237760730815
42
-0.57735026918963017
10
291.4249999999958
20
-57.654199655054143
10
291.42499999999575
20
-52.150000000001896
10
288.57499999999573
20
-52.150000000001455
0
LWPOLYLINE
5
121
100
AcDbEntity
8
0
100
AcDbPolyline
90
36
70
1
43
0.0
10
288.57499999999578
20
-97.654199655053716
42
-0.5773502691896526
10
286.32499999999573
20
-98.953237760730346
10
275.42351461523867
20
-92.659262239273744
42
-0.57735026918963095
10
275.42351461523879
20
-90.0611860279204
10
280.19029134401507
20
-87.309086200394731
10
278.76529134401409
20
-84.840913799607435
10
273.99851461523917
20
-87.593013627133672
42
-0.57735026918970644
10
271.74851461523895
20
-86.293975521457114
10
271.7485146152394
20
-73.706024478549338
42
-0.57735026918954702
10
273.998514615239
20
-72.406986372872552
10
278.76529134401432
20
-75.159086200396402
10
280.19029134401467
20
-72.690913799610968
10
275.42351461524026
20
-69.938813972082215
42
-0.57735026918939769
10
275.42351461524117
20
-67.340737760729354
10
286.32499999999703
20
-61.046762239273903
42
-0.57735026918962717
10
288.57499999999709
20
-62.34580034495059
10
288.57499999999703
20
-67.850000000002041
10
291.42499999999706
20
-67.850000000002083
10
291.42499999999706
20
-62.345800344950618
42
-0.57735026918963295
10
293.67499999999711
20
-61.046762239273953
10
304.57648538475433
20
-67.340737760730306
42
-0.57735026918962884
10
304.57648538475433
20
-69.938813972083636
10
299.80970865597754
20
-72.690913799609703
10
301.23470865597682
20
-75.159086200395677
10
306.00148538475344
20
-72.406986372868602
42
-0.57735026918964949
10
308.25148538475366
20
-73.70602447854516
10
308.25148538475389
20
-86.293975521458975
42
-0.57735026918962418
10
306.00148538475395
20
-87.59301362713569
10
301.23470865597795
20
-84.840913799610078
10
299.80970865597823
20
-87.3090862003952
10
304.57648538475416
20
-90.061186027921138
42
-0.5773502691896103
10
304.57648538475394
20
-92.659262239274454
10
293.67499999999575
20
-98.953237760730815
42
-0.5773502691896204
10
291.4249999999958
20
-97.654199655054143
10
291.42499999999575
20
-92.150000000001896
10
288.57499999999573
20
-92.150000000001455
0
LWPOLYLINE
5
122
100
AcDbEntity
8
0
100
AcDbPolyline
90
20
70
1
43
0.0
10
-24.00000000000054
20
-16.744872981078075
42
-0.26794919243113169
10
-24.75000000000059
20
-18.043911086754765
10
-26.325000000000692
20
-18.953237760728367
42
-0.57735026918960897
10
-28.575000000000621
20
-17.654199655051698
10
-28.575000000000621
20
-12.149999999999462
10
-31.42500000000064
20
-12.149999999989324
10
-31.425000000000622
20
-17.654199655051272
42
-0.57735026918963805
10
-33.675000000000672
20
-18.953237760727909
10
-35.25000000000059
20
-18.043911086754218
42
-0.26794919243111287
10
-36.000000000000547
20
-16.744872981077595
10
-36.000000000000568
20
16.74487298107751
42
-0.26794919243112308
10
-35.250000000000554
20
18.043911086754179
10
-33.674999999999301
20
18.95323776072852
42
-0.57735026918962085
10
-31.424999999999343
20
17.654199655051862
10
-31.424999999999343
20
12.150000000000407
10
-28.574999999999342
20
12.150000000001297
10
-28.574999999999314
20
17.654199655051833
42
-0.57735026918962384
10
-26.324999999999328
20
18.953237760728488
10
-24.750000000000568
20
18.043911086755557
42
-0.26794919243112142
10
-24.000000000000554
20
16.744872981078881
0
LWPOLYLINE
5
123
100
AcDbEntity
8
0
100
AcDbPolyline
90
20
70
1
43
0.0
10
-44.00000000000054
20
-16.744872981078036
42
-0.26794919243113119
10
-44.75000000000059
20
-18.043911086754726
10
-46.325000000000685
20
-18.953237760728335
42
-0.57735026918961452
10
-48.575000000000621
20
-17.654199655051656
10
-48.575000000000642
20
-12.149999999999421
10
-51.425000000000637
20
-12.149999999989285
10
-51.425000000000615
20
-17.654199655051226
42
-0.57735026918963794
10
-53.675000000000672
20
-18.95323776072787
10
-55.25000000000059
20
-18.043911086754182
42
-0.2679491924311162
10
-56.000000000000547
20
-16.744872981077556
10
-56.000000000000576
20
16.744872981077549
42
-0.26794919243112236
10
-55.250000000000554
20
18.043911086754218
10
-53.674999999999301
20
18.953237760728555
42
-0.57735026918962207
10
-51.424999999999343
20
17.654199655051901
10
-51.424999999999343
20
12.150000000000446
10
-48.574999999999342
20
12.150000000001338
10
-48.574999999999321
20
17.654199655051872
42
-0.57735026918962096
10
-46.324999999999328
20
18.953237760728527
10
-44.750000000000576
20
18.043911086755593
42
-0.26794919243112381
10
-44.000000000000568
20
16.74487298107892
0
LWPOLYLINE
5
124
100
AcDbEntity
8
0
100
AcDbPolyline
90
20
70
1
43
0.0
10
-64.00000000000054
20
-16.744872981074813
42
-0.26794919243113102
10
-64.750000000000597
20
-18.0439110867515
10
-66.325000000000685
20
-18.953237760725109
42
-0.57735026918961452
10
-68.575000000000614
20
-17.65419965504843
10
-68.575000000000642
20
-12.149999999996195
10
-71.425000000000637
20
-12.149999999986058
10
-71.425000000000608
20
-17.654199655048
42
-0.57735026918963794
10
-73.675000000000665
20
-18.953237760724644
10
-75.250000000000597
20
-18.043911086750956
42
-0.26794919243111354
10
-76.00000000000054
20
-16.744872981074327
10
-76.000000000000568
20
16.744872981080775
42
-0.26794919243112236
10
-75.250000000000554
20
18.043911086757443
10
-73.674999999999301
20
18.953237760731781
42
-0.57735026918962085
10
-71.424999999999343
20
17.654199655055127
10
-71.424999999999343
20
12.150000000003674
10
-68.574999999999335
20
12.150000000004564
10
-68.574999999999321
20
17.654199655055098
42
-0.57735026918962018
10
-66.324999999999335
20
18.953237760731753
10
-64.750000000000568
20
18.043911086758811
42
-0.26794919243112514
10
-64.000000000000568
20
16.744872981082143
0
LWPOLYLINE
5
125
100
AcDbEntity
8
0
100
AcDbPolyline
90
20
70
1
43
0.0
10
-84.00000000000054
20
-16.744872981078075
42
-0.26794919243113224
10
-84.750000000000583
20
-18.043911086754765
10
-86.325000000000657
20
-18.953237760728396
42
-0.57735026918961407
10
-88.575000000000614
20
-17.654199655051698
10
-88.575000000000614
20
-12.149999999999462
10
-91.425000000000622
20
-12.149999999989324
10
-91.425000000000608
20
-17.654199655051269
42
-0.5773502691896335
10
-93.675000000000651
20
-18.953237760727909
10
-95.250000000000597
20
-18.043911086754257
42
-0.26794919243112264
10
-96.00000000000054
20
-16.744872981077595
10
-96.000000000000583
20
16.74487298107751
42
-0.26794919243111354
10
-95.250000000000554
20
18.043911086754179
10
-93.674999999999358
20
18.953237760728552
42
-0.57735026918962495
10
-91.424999999999329
20
17.654199655051862
10
-91.424999999999343
20
12.150000000000407
10
-88.574999999999335
20
12.150000000001297
10
-88.574999999999321
20
17.654199655051833
42
-0.57735026918961874
10
-86.324999999999335
20
18.953237760728488
10
-84.750000000000568
20
18.043911086755543
42
-0.26794919243112048
10
-84.000000000000554
20
16.744872981078881
0
LWPOLYLINE
5
126
100
AcDbEntity
8
0
100
AcDbPolyline
90
20
70
1
43
0.0
10
-104.00000000000054
20
-16.744872981078036
42
-0.26794919243113224
10
-104.75000000000058
20
-18.043911086754726
10
-106.32500000000066
20
-18.953237760728356
42
-0.57735026918961407
10
-108.57500000000061
20
-17.654199655051656
10
-108.57500000000061
20
-12.149999999999421
10
-111.42500000000062
20
-12.149999999989285
10
-111.42500000000061
20
-17.654199655051229
42
-0.5773502691896335
10
-113.67500000000065
20
-18.95323776072787
10
-115.2500000000006
20
-18.043911086754218
42
-0.26794919243112264
10
-116.00000000000054
20
-16.744872981077556
10
-116.00000000000058
20
16.744872981077549
42
-0.26794919243111354
10
-115.25000000000055
20
18.043911086754218
10
-113.67499999999936
20
18.953237760728591
42
-0.57735026918962495
10
-111.42499999999933
20
17.654199655051901
10
-111.42499999999934
20
12.150000000000446
10
-108.57499999999933
20
12.150000000001338
10
-108.57499999999932
20
17.654199655051872
42
-0.57735026918961874
10
-106.32499999999933
20
18.953237760728527
10
-104.75000000000057
20
18.043911086755585
42
-0.26794919243112048
10
-104.00000000000055
20
16.74487298107892
0
LWPOLYLINE
5
127
100
AcDbEntity
8
0
100
AcDbPolyline
90
35
70
1
43
0.0
10
193.9985146152427
20
-89.59301362713154
42
-0.57735026918968679
10
191.74851461524244
20
-88.293975521454954
10
191.74851461524298
20
-75.706024478547135
42
-0.57735026918955168
10
193.99851461524264
20
-74.406986372870406
10
198.7652913440179
20
-77.159086200394256
10
200.19029134401825
20
-74.690913799608808
10
195.4235146152439
20
-71.938813972080041
42
-0.57735026918941046
10
195.42351461524476
20
-69.340737760727208
10
199.6564728120681
20
-66.896838206322883
42
-0.37807661339096205
10
201.60192791336812
20
-67.289848111127299
42
0.49685830817221299
10
218.39807208663325
20
-67.289848111127355
42
-0.37807661339097576
10
220.34352718793318
20
-66.896838206322954
10
224.57648538475794
20
-69.34073776072816
42
-0.57735026918962795
10
224.57648538475794
20
-71.938813972081462
10
219.80970865598118
20
-74.690913799607557
10
221.23470865598046
20
-77.159086200393517
10
226.0014853847571
20
-74.406986372866555
42
-0.57735026918966237
10
228.25148538475727
20
-75.706024478542986
10
228.25148538475736
20
-80.575088079814464
10
228.26732926895596
20
-80.575088081116604
10
228.25148479771158
20
-81.999999991632819
10
228.25148538475759
20
-88.293975521456815
42
-0.57735026918963506
10
226.00148538475759
20
-89.593013627133544
10
221.23470865598154
20
-86.840913799607918
10
219.80970865598184
20
-89.30908620039304
10
224.57648538475777
20
-92.061186027919035
42
-0.57735026918960641
10
224.57648538475758
20
-94.659262239272294
10
220.34352718793102
20
-97.103161793678254
42
-0.37807661339096621
10
218.39807208663109
20
-96.71015188887381
42
0.496858308172208
10
201.60192791336823
20
-96.710151888873256
42
-0.37807661339094745
10
199.65647281206827
20
-97.1031617936776
10
195.42351461524231
20
-94.659262239271541
42
-0.57735026918961729
10
195.42351461524237
20
-92.061186027918211
10
200.19029134401865
20
-89.309086200392585
10
198.76529134401773
20
-86.840913799605275
0
LWPOLYLINE
5
128
100
AcDbEntity
8
0
100
AcDbPolyline
90
28
70
1
43
0.0
10
174.84399991549722
20
-66.803287072723123
42
-0.30221460256428279
10
176.50219791683114
20
-66.698056485188474
10
181.07945615426831
20
-69.340737760722277
42
-0.5773502691894008
10
181.07945615426954
20
-71.938813972075138
10
176.31267942549556
20
-74.690913799604616
10
177.73767942549631
20
-77.159086200389837
10
182.50445615427122
20
-74.406986372865219
42
-0.57735026918954246
10
184.75445615427108
20
-75.706024478541678
10
184.75445615427344
20
-88.293975521449468
42
-0.577350269189708
10
182.50445615427336
20
-89.593013627126396
10
177.73767942549796
20
-86.840913799600855
10
176.31267942549741
20
-89.309086200388364
10
181.07945615427406
20
-92.061186027913323
42
-0.57735026918961518
10
181.07945615427454
20
-94.659262239266653
10
176.48529153326285
20
-97.311704419910257
42
-0.29749931880055325
10
174.84788748707555
20
-97.222010789067426
42
0.042899597772202501
10
167.19843351235141
20
-92.560474912134396
42
0.016513211837428467
10
166.50297076951682
20
-92.5374999999989
10
166.50297076951671
20
-92.220958690585775
42
0.08468096539919541
10
149.58855297945308
20
-87.397496037044803
42
-0.38268370727811518
10
148.25148538475804
20
-85.906371283276357
10
148.25148597180339
20
-81.999999991632819
10
157.16064091292458
20
-81.999999993673626
10
157.16064091292441
20
-80.575087347605049
10
149.75148550803641
20
-80.575087956535214
42
-0.41421358644482698
10
148.25148538475716
20
-79.075087956535384
10
148.25148538475707
20
-78.156182786220512
42
-0.38676461906456711
10
149.6097710973248
20
-76.66289210429079
42
0.13983415365924415
0
LWPOLYLINE
5
129
100
AcDbEntity
8
0
100
AcDbPolyline
90
33
70
1
43
0.0
10
-128.39807208663174
20
-54.710151888872538
42
-0.37807661339097209
10
-130.34352718793176
20
-55.10316179367689
10
-134.57648538475769
20
-52.659262239270852
42
-0.57735026918963339
10
-134.57648538475763
20
-50.061186027917515
10
-131.10223525145261
20
-48.055326778221882
42
0.38517038821503824
10
-130.48470865598216
20
-46.139951905281464
42
0.41421356237314771
10
-132.53374676165905
20
-45.590913799604934
10
-136.00148538475725
20
-47.593013627130787
42
-0.57735026918970167
10
-138.25148538475747
20
-46.293975521454236
10
-138.25148538475733
20
-41.406176412644143
42
-0.37807661339097226
10
-136.93840127260776
20
-39.917867825398552
42
0.49685830817220705
10
-128.54032918597593
20
-25.371980285726984
42
-0.37807661339096832
10
-127.90795819682543
20
-23.490661793676963
10
-123.67499999999934
20
-21.04676223927104
42
-0.57735026918962762
10
-121.42499999999933
20
-22.345800344947708
10
-121.42499999999933
20
-26.357518844339264
42
0.38517038821472094
10
-120.07499999999935
20
-27.849999999999181
42
0.41421356237309853
10
-118.57499999999933
20
-26.349999999999181
10
-118.57499999999932
20
-22.34580034494774
42
-0.5773502691896194
10
-116.32499999999933
20
-21.046762239271075
10
-112.092041803173
20
-23.490661793677177
42
-0.3780766133909686
10
-111.45967081402249
20
-25.371980285727183
42
0.49685830817219856
10
-103.0615987273921
20
-39.917867825396669
42
-0.37807661339097298
10
-101.74851461524257
20
-41.406176412642282
10
-101.74851461524247
20
-46.293975521456112
42
-0.57735026918961974
10
-103.99851461524247
20
-47.593013627132805
10
-107.47276474854743
20
-45.587154377437109
42
0.38517038821462918
10
-109.44029134401819
20
-46.010048094715742
42
0.41421356237308254
10
-108.89125323834162
20
-48.059086200392365
10
-105.42351461524228
20
-50.061186027918282
42
-0.57735026918961674
10
-105.42351461524241
20
-52.659262239271584
10
-109.6564728120689
20
-55.103161793677593
42
-0.37807661339097148
10
-111.60192791336891
20
-54.710151888873114
42
0.4968583081722055
0
LWPOLYLINE
5
130
100
AcDbEntity
8
0
100
AcDbPolyline
90
20
70
1
43
0.0
10
-124.00000000000054
20
-16.744872981074806
42
-0.26794919243113191
10
-124.75000000000058
20
-18.0439110867515
10
-126.32500000000067
20
-18.953237760725131
42
-0.57735026918961452
10
-128.57500000000061
20
-17.65419965504843
10
-128.57500000000061
20
-12.149999999996195
10
-131.42500000000064
20
-12.149999999986058
10
-131.42500000000061
20
-17.654199655048004
42
-0.5773502691896335
10
-133.67500000000067
20
-18.953237760724644
10
-135.2500000000006
20
-18.043911086750988
42
-0.26794919243112264
10
-136.00000000000054
20
-16.744872981074327
10
-136.00000000000057
20
16.744872981080775
42
-0.26794919243111381
10
-135.25000000000057
20
18.043911086757443
10
-133.67499999999936
20
18.953237760731817
42
-0.57735026918962495
10
-131.42499999999933
20
17.654199655055127
10
-131.42499999999933
20
12.150000000003674
10
-128.57499999999933
20
12.150000000004564
10
-128.57499999999933
20
17.654199655055098
42
-0.57735026918961796
10
-126.32499999999933
20
18.953237760731753
10
-124.75000000000057
20
18.043911086758815
42
-0.2679491924311212
10
-124.00000000000055
20
16.744872981082146
0
ENDSEC
0
SECTION
2
OBJECTS
0
DICTIONARY
5
C
100
AcDbDictionary
3
ACAD_GROUP
350
D
3
ACAD_MLINESTYLE
350
17
0
DICTIONARY
5
D
100
AcDbDictionary
0
DICTIONARY
5
1A
330
C
100
AcDbDictionary
0
DICTIONARY
5
17
100
AcDbDictionary
0
ENDSEC
0
EOF
