0
SECTION
2
HEADER
9
$ACADVER
1
AC1027
9
$ACADMAINTVER
70
8
9
$DWGCODEPAGE
3
ANSI_1252
9
$LASTSAVEDBY
1
macc
9
$REQUIREDVERSIONS
160
0
9
$INSBASE
10
0.0
20
0.0
30
0.0
9
$EXTMIN
10
1.000000000000000E+20
20
1.000000000000000E+20
30
1.000000000000000E+20
9
$EXTMAX
10
-1.000000000000000E+20
20
-1.000000000000000E+20
30
-1.000000000000000E+20
9
$LIMMIN
10
0.0
20
0.0
9
$LIMMAX
10
12.0
20
9.0
9
$ORTHOMODE
70
0
9
$REGENMODE
70
1
9
$FILLMODE
70
1
9
$QTEXTMODE
70
0
9
$MIRRTEXT
70
0
9
$LTSCALE
40
1.0
9
$ATTMODE
70
1
9
$TEXTSIZE
40
0.2
9
$TRACEWID
40
0.05
9
$TEXTSTYLE
7
STANDARD
9
$CLAYER
8
0
9
$CELTYPE
6
ByLayer
9
$CECOLOR
62
256
9
$CELTSCALE
40
1.0
9
$DISPSILH
70
0
9
$DIMSCALE
40
1.0
9
$DIMASZ
40
0.18
9
$DIMEXO
40
0.0625
9
$DIMDLI
40
0.38
9
$DIMRND
40
0.0
9
$DIMDLE
40
0.0
9
$DIMEXE
40
0.18
9
$DIMTP
40
0.0
9
$DIMTM
40
0.0
9
$DIMTXT
40
0.18
9
$DIMCEN
40
0.09
9
$DIMTSZ
40
0.0
9
$DIMTOL
70
0
9
$DIMLIM
70
0
9
$DIMTIH
70
1
9
$DIMTOH
70
1
9
$DIMSE1
70
0
9
$DIMSE2
70
0
9
$DIMTAD
70
0
9
$DIMZIN
70
0
9
$DIMBLK
1

9
$DIMASO
70
1
9
$DIMSHO
70
1
9
$DIMPOST
1

9
$DIMAPOST
1

9
$DIMALT
70
0
9
$DIMALTD
70
2
9
$DIMALTF
40
25.4
9
$DIMLFAC
40
1.0
9
$DIMTOFL
70
0
9
$DIMTVP
40
0.0
9
$DIMTIX
70
0
9
$DIMSOXD
70
0
9
$DIMSAH
70
0
9
$DIMBLK1
1

9
$DIMBLK2
1

9
$DIMSTYLE
2
STANDARD
9
$DIMCLRD
70
0
9
$DIMCLRE
70
0
9
$DIMCLRT
70
0
9
$DIMTFAC
40
1.0
9
$DIMGAP
40
0.09
9
$DIMJUST
70
0
9
$DIMSD1
70
0
9
$DIMSD2
70
0
9
$DIMTOLJ
70
1
9
$DIMTZIN
70
0
9
$DIMALTZ
70
0
9
$DIMALTTZ
70
0
9
$DIMUPT
70
0
9
$DIMDEC
70
4
9
$DIMTDEC
70
4
9
$DIMALTU
70
2
9
$DIMALTTD
70
2
9
$DIMTXSTY
7
STANDARD
9
$DIMAUNIT
70
0
9
$DIMADEC
70
0
9
$DIMALTRND
40
0.0
9
$DIMAZIN
70
0
9
$DIMDSEP
70
46
9
$DIMATFIT
70
3
9
$DIMFRAC
70
0
9
$DIMLDRBLK
1

9
$DIMLUNIT
70
2
9
$DIMLWD
70
-2
9
$DIMLWE
70
-2
9
$DIMTMOVE
70
0
9
$DIMFXL
40
1.0
9
$DIMFXLON
70
0
9
$DIMJOGANG
40
0.7853981633974483
9
$DIMTFILL
70
0
9
$DIMTFILLCLR
70
0
9
$DIMARCSYM
70
0
9
$DIMLTYPE
6

9
$DIMLTEX1
6

9
$DIMLTEX2
6

9
$DIMTXTDIRECTION
70
0
9
$LUNITS
70
2
9
$LUPREC
70
4
9
$SKETCHINC
40
0.1
9
$FILLETRAD
40
0.0
9
$AUNITS
70
0
9
$AUPREC
70
0
9
$MENU
1
.
9
$ELEVATION
40
0.0
9
$PELEVATION
40
0.0
9
$THICKNESS
40
0.0
9
$LIMCHECK
70
0
9
$CHAMFERA
40
0.0
9
$CHAMFERB
40
0.0
9
$CHAMFERC
40
0.0
9
$CHAMFERD
40
0.0
9
$SKPOLY
70
0
9
$TDCREATE
40
2458312.067262384
9
$TDUCREATE
40
2458311.983929051
9
$TDUPDATE
40
2458312.961305069
9
$TDUUPDATE
40
2458312.877971736
9
$TDINDWG
40
0.0045230903
9
$TDUSRTIMER
40
0.0045219676
9
$USRTIMER
70
1
9
$ANGBASE
50
0.0
9
$ANGDIR
70
0
9
$PDMODE
70
0
9
$PDSIZE
40
0.0
9
$PLINEWID
40
0.0
9
$SPLFRAME
70
0
9
$SPLINETYPE
70
6
9
$SPLINESEGS
70
8
9
$HANDSEED
5
1058
9
$SURFTAB1
70
6
9
$SURFTAB2
70
6
9
$SURFTYPE
70
6
9
$SURFU
70
6
9
$SURFV
70
6
9
$UCSBASE
2

9
$UCSNAME
2

9
$UCSORG
10
0.0
20
0.0
30
0.0
9
$UCSXDIR
10
1.0
20
0.0
30
0.0
9
$UCSYDIR
10
0.0
20
1.0
30
0.0
9
$UCSORTHOREF
2

9
$UCSORTHOVIEW
70
0
9
$UCSORGTOP
10
0.0
20
0.0
30
0.0
9
$UCSORGBOTTOM
10
0.0
20
0.0
30
0.0
9
$UCSORGLEFT
10
0.0
20
0.0
30
0.0
9
$UCSORGRIGHT
10
0.0
20
0.0
30
0.0
9
$UCSORGFRONT
10
0.0
20
0.0
30
0.0
9
$UCSORGBACK
10
0.0
20
0.0
30
0.0
9
$PUCSBASE
2

9
$PUCSNAME
2

9
$PUCSORG
10
0.0
20
0.0
30
0.0
9
$PUCSXDIR
10
1.0
20
0.0
30
0.0
9
$PUCSYDIR
10
0.0
20
1.0
30
0.0
9
$PUCSORTHOREF
2

9
$PUCSORTHOVIEW
70
0
9
$PUCSORGTOP
10
0.0
20
0.0
30
0.0
9
$PUCSORGBOTTOM
10
0.0
20
0.0
30
0.0
9
$PUCSORGLEFT
10
0.0
20
0.0
30
0.0
9
$PUCSORGRIGHT
10
0.0
20
0.0
30
0.0
9
$PUCSORGFRONT
10
0.0
20
0.0
30
0.0
9
$PUCSORGBACK
10
0.0
20
0.0
30
0.0
9
$USERI1
70
0
9
$USERI2
70
0
9
$USERI3
70
0
9
$USERI4
70
0
9
$USERI5
70
0
9
$USERR1
40
0.0
9
$USERR2
40
0.0
9
$USERR3
40
0.0
9
$USERR4
40
0.0
9
$USERR5
40
0.0
9
$WORLDVIEW
70
1
9
$SHADEDGE
70
3
9
$SHADEDIF
70
70
9
$TILEMODE
70
1
9
$MAXACTVP
70
64
9
$PINSBASE
10
0.0
20
0.0
30
0.0
9
$PLIMCHECK
70
0
9
$PEXTMIN
10
0.0
20
0.0
30
0.0
9
$PEXTMAX
10
0.0
20
0.0
30
0.0
9
$PLIMMIN
10
0.0
20
0.0
9
$PLIMMAX
10
12.0
20
9.0
9
$UNITMODE
70
0
9
$VISRETAIN
70
1
9
$PLINEGEN
70
0
9
$PSLTSCALE
70
1
9
$TREEDEPTH
70
3020
9
$CMLSTYLE
2
Standard
9
$CMLJUST
70
0
9
$CMLSCALE
40
1.0
9
$PROXYGRAPHICS
70
1
9
$MEASUREMENT
70
0
9
$CELWEIGHT
370
-1
9
$ENDCAPS
280
0
9
$JOINSTYLE
280
0
9
$LWDISPLAY
290
0
9
$INSUNITS
70
0
9
$HYPERLINKBASE
1

9
$STYLESHEET
1

9
$XEDIT
290
1
9
$CEPSNTYPE
380
0
9
$PSTYLEMODE
290
1
9
$FINGERPRINTGUID
2
{4B4ED3CC-337F-6143-9B17-EFB0F3F01845}
9
$VERSIONGUID
2
{A4861B96-12DA-254C-ACF2-0C3CF0F63D02}
9
$EXTNAMES
290
1
9
$PSVPSCALE
40
0.0
9
$OLESTARTUP
290
0
9
$SORTENTS
280
127
9
$INDEXCTL
280
0
9
$HIDETEXT
280
0
9
$XCLIPFRAME
280
2
9
$HALOGAP
280
0
9
$OBSCOLOR
70
257
9
$OBSLTYPE
280
0
9
$INTERSECTIONDISPLAY
280
0
9
$INTERSECTIONCOLOR
70
257
9
$DIMASSOC
280
1
9
$PROJECTNAME
1

9
$CAMERADISPLAY
290
0
9
$LENSLENGTH
40
50.0
9
$CAMERAHEIGHT
40
0.0
9
$STEPSPERSEC
40
2.0
9
$STEPSIZE
40
6.0
9
$3DDWFPREC
40
2.0
9
$PSOLWIDTH
40
0.25
9
$PSOLHEIGHT
40
4.0
9
$LOFTANG1
40
1.570796326794896
9
$LOFTANG2
40
1.570796326794896
9
$LOFTMAG1
40
0.0
9
$LOFTMAG2
40
0.0
9
$LOFTPARAM
70
7
9
$LOFTNORMALS
280
1
9
$LATITUDE
40
37.795
9
$LONGITUDE
40
-122.394
9
$NORTHDIRECTION
40
0.0
9
$TIMEZONE
70
-8000
9
$LIGHTGLYPHDISPLAY
280
1
9
$TILEMODELIGHTSYNCH
280
1
9
$CMATERIAL
347
222
9
$SOLIDHIST
280
0
9
$SHOWHIST
280
1
9
$DWFFRAME
280
2
9
$DGNFRAME
280
0
9
$REALWORLDSCALE
290
1
9
$INTERFERECOLOR
62
1
9
$INTERFEREOBJVS
345
244
9
$INTERFEREVPVS
346
241
9
$CSHADOW
280
0
9
$SHADOWPLANELOCATION
40
0.0
0
ENDSEC
0
SECTION
2
CLASSES
0
CLASS
1
ACDBDICTIONARYWDFLT
2
AcDbDictionaryWithDefault
3
ObjectDBX Classes
90
0
91
1
280
0
281
0
0
CLASS
1
MATERIAL
2
AcDbMaterial
3
ObjectDBX Classes
90
1153
91
3
280
0
281
0
0
CLASS
1
VISUALSTYLE
2
AcDbVisualStyle
3
ObjectDBX Classes
90
4095
91
24
280
0
281
0
0
CLASS
1
SCALE
2
AcDbScale
3
ObjectDBX Classes
90
1153
91
17
280
0
281
0
0
CLASS
1
TABLESTYLE
2
AcDbTableStyle
3
ObjectDBX Classes
90
4095
91
1
280
0
281
0
0
CLASS
1
MLEADERSTYLE
2
AcDbMLeaderStyle
3
ACDB_MLEADERSTYLE_CLASS
90
4095
91
1
280
0
281
0
0
CLASS
1
ACDBSECTIONVIEWSTYLE
2
AcDbSectionViewStyle
3
ObjectDBX Classes
90
1025
91
1
280
0
281
0
0
CLASS
1
ACDBDETAILVIEWSTYLE
2
AcDbDetailViewStyle
3
ObjectDBX Classes
90
1025
91
1
280
0
281
0
0
CLASS
1
DICTIONARYVAR
2
AcDbDictionaryVar
3
ObjectDBX Classes
90
0
91
9
280
0
281
0
0
CLASS
1
CELLSTYLEMAP
2
AcDbCellStyleMap
3
ObjectDBX Classes
90
1152
91
2
280
0
281
0
0
ENDSEC
0
SECTION
2
TABLES
0
TABLE
2
VPORT
5
219
330
0
100
AcDbSymbolTable
70
1
0
VPORT
5
285
330
219
100
AcDbSymbolTableRecord
100
AcDbViewportTableRecord
2
*ACTIVE
70
0
10
0.0
20
0.0
11
1.0
21
1.0
12
60.85393284500712
22
1.602311788490737
13
0.0
23
0.0
14
0.5
24
0.5
15
0.5
25
0.5
16
0.0
26
0.0
36
1.0
17
0.0
27
0.0
37
0.0
40
135.7601553851812
41
1.367970660146699
42
50.0
43
0.0
44
0.0
50
0.0
51
0.0
71
0
72
1000
73
1
74
3
75
0
76
1
77
0
78
0
281
0
65
1
110
0.0
120
0.0
130
0.0
111
1.0
121
0.0
131
0.0
112
0.0
122
1.0
132
0.0
79
0
146
0.0
348
240
60
3
61
5
292
1
282
0
141
0.0
142
0.0
63
250
421
3355443
1001
ACAD_NAV_VCDISPLAY
1070
3
0
ENDTAB
0
TABLE
2
LTYPE
5
216
330
0
100
AcDbSymbolTable
70
2
0
LTYPE
5
26B
330
216
100
AcDbSymbolTableRecord
100
AcDbLinetypeTableRecord
2
ByBlock
70
0
3

72
65
73
0
40
0.0
0
LTYPE
5
26C
330
216
100
AcDbSymbolTableRecord
100
AcDbLinetypeTableRecord
2
ByLayer
70
0
3

72
65
73
0
40
0.0
0
LTYPE
5
26D
330
216
100
AcDbSymbolTableRecord
100
AcDbLinetypeTableRecord
2
CONTINUOUS
70
0
3
Solid line
72
65
73
0
40
0.0
0
LTYPE
5
103D
330
216
100
AcDbSymbolTableRecord
100
AcDbLinetypeTableRecord
2
DOTTED
70
0
3
Dotted . . . . . . . . . . . . . . . . . . . .
72
65
73
2
40
3.0
49
0.0
74
0
49
-3.0
74
0
0
ENDTAB
0
TABLE
2
LAYER
5
213
102
{ACAD_XDICTIONARY
360
297
102
}
330
0
100
AcDbSymbolTable
70
4
0
LAYER
5
265
102
{ACAD_XDICTIONARY
360
292
102
}
330
213
100
AcDbSymbolTableRecord
100
AcDbLayerTableRecord
2
0
70
0
62
7
6
CONTINUOUS
370
-3
390
220
347
232
348
0
0
LAYER
5
2FB
330
213
100
AcDbSymbolTableRecord
100
AcDbLayerTableRecord
2
gear
70
0
62
7
6
CONTINUOUS
370
-3
390
220
347
232
348
0
1001
AcAecLayerStandard
1000

1000

1001
AcCmTransparency
1071
0
0
LAYER
5
2FE
330
213
100
AcDbSymbolTableRecord
100
AcDbLayerTableRecord
2
gear_texts
70
0
62
7
6
CONTINUOUS
370
-3
390
220
347
232
348
0
1001
AcAecLayerStandard
1000

1000

1001
AcCmTransparency
1071
0
0
LAYER
5
2FF
330
213
100
AcDbSymbolTableRecord
100
AcDbLayerTableRecord
2
gear_guides
70
0
62
5
6
CONTINUOUS
370
-3
390
220
347
232
348
0
1001
AcAecLayerStandard
1000

1000

1001
AcCmTransparency
1071
0
0
ENDTAB
0
TABLE
2
STYLE
5
214
330
0
100
AcDbSymbolTable
70
3
0
STYLE
5
266
330
214
100
AcDbSymbolTableRecord
100
AcDbTextStyleTableRecord
2
STANDARD
70
0
40
0.0
41
1.0
50
0.0
71
0
42
0.2
3
txt
4

0
STYLE
5
26A
330
214
100
AcDbSymbolTableRecord
100
AcDbTextStyleTableRecord
2
ANNOTATIVE
70
0
40
0.0
41
1.0
50
0.0
71
0
42
0.2
3
txt
4

1001
ACADANNOTATIVE
1000
AnnotativeData
1002
{
1070
1
1070
1
1002
}
0
STYLE
5
301
330
214
100
AcDbSymbolTableRecord
100
AcDbTextStyleTableRecord
2

70
1
40
0.0
41
1.0
50
0.0
71
0
42
0.2
3
ltypeshp.shx
4

0
ENDTAB
0
TABLE
2
VIEW
5
217
330
0
100
AcDbSymbolTable
70
1
0
ENDTAB
0
TABLE
2
UCS
5
218
330
0
100
AcDbSymbolTable
70
0
0
ENDTAB
0
TABLE
2
APPID
5
21A
330
0
100
AcDbSymbolTable
70
10
0
APPID
5
267
330
21A
100
AcDbSymbolTableRecord
100
AcDbRegAppTableRecord
2
ACAD
70
0
0
APPID
5
26E
330
21A
100
AcDbSymbolTableRecord
100
AcDbRegAppTableRecord
2
ACADANNOTATIVE
70
0
0
APPID
5
286
330
21A
100
AcDbSymbolTableRecord
100
AcDbRegAppTableRecord
2
ACADANNOPO
70
0
0
APPID
5
287
330
21A
100
AcDbSymbolTableRecord
100
AcDbRegAppTableRecord
2
ACAD_DSTYLE_DIMJAG
70
0
0
APPID
5
288
330
21A
100
AcDbSymbolTableRecord
100
AcDbRegAppTableRecord
2
ACAD_DSTYLE_DIMTALN
70
0
0
APPID
5
289
330
21A
100
AcDbSymbolTableRecord
100
AcDbRegAppTableRecord
2
ACAD_MLEADERVER
70
0
0
APPID
5
28A
330
21A
100
AcDbSymbolTableRecord
100
AcDbRegAppTableRecord
2
ACAD_NAV_VCDISPLAY
70
0
0
APPID
5
2E7
330
21A
100
AcDbSymbolTableRecord
100
AcDbRegAppTableRecord
2
ACAD_EXEMPT_FROM_CAD_STANDARDS
70
0
0
APPID
5
2FC
330
21A
100
AcDbSymbolTableRecord
100
AcDbRegAppTableRecord
2
AcAecLayerStandard
70
0
0
APPID
5
2FD
330
21A
100
AcDbSymbolTableRecord
100
AcDbRegAppTableRecord
2
AcCmTransparency
70
0
0
ENDTAB
0
TABLE
2
DIMSTYLE
5
21B
330
0
100
AcDbSymbolTable
70
2
100
AcDbDimStyleTable
71
1
340
268
0
DIMSTYLE
105
268
330
21B
100
AcDbSymbolTableRecord
100
AcDbDimStyleTableRecord
2
STANDARD
70
0
279
2
340
266
0
DIMSTYLE
105
269
330
21B
100
AcDbSymbolTableRecord
100
AcDbDimStyleTableRecord
2
ANNOTATIVE
70
0
40
0.0
279
2
340
266
1001
ACADANNOTATIVE
1000
AnnotativeData
1002
{
1070
1
1070
1
1002
}
0
ENDTAB
0
TABLE
2
BLOCK_RECORD
5
212
330
0
100
AcDbSymbolTable
70
2
0
BLOCK_RECORD
5
281
330
212
100
AcDbSymbolTableRecord
100
AcDbBlockTableRecord
2
*Model_Space
340
284
70
0
280
1
281
0
0
BLOCK_RECORD
5
27D
330
212
100
AcDbSymbolTableRecord
100
AcDbBlockTableRecord
2
*Paper_Space
340
280
70
0
280
1
281
0
0
BLOCK_RECORD
5
28C
330
212
100
AcDbSymbolTableRecord
100
AcDbBlockTableRecord
2
$MODEL_SPACE
340
0
70
0
280
1
281
0
0
BLOCK_RECORD
5
28E
330
212
100
AcDbSymbolTableRecord
100
AcDbBlockTableRecord
2
$PAPER_SPACE
340
0
70
0
280
1
281
0
0
ENDTAB
0
ENDSEC
0
SECTION
2
BLOCKS
0
BLOCK
5
282
330
281
100
AcDbEntity
8
0
100
AcDbBlockBegin
2
*Model_Space
70
0
10
0.0
20
0.0
30
0.0
3
*Model_Space
1

0
ENDBLK
5
283
330
281
100
AcDbEntity
8
0
100
AcDbBlockEnd
0
BLOCK
5
27E
330
27D
100
AcDbEntity
67
1
8
0
100
AcDbBlockBegin
2
*Paper_Space
70
0
10
0.0
20
0.0
30
0.0
3
*Paper_Space
1

0
ENDBLK
5
27F
330
27D
100
AcDbEntity
67
1
8
0
100
AcDbBlockEnd
0
BLOCK
5
28D
330
28C
100
AcDbEntity
8
0
100
AcDbBlockBegin
2
$MODEL_SPACE
70
0
10
0.0
20
0.0
30
0.0
3
$MODEL_SPACE
1

0
ENDBLK
5
21
330
28C
100
AcDbEntity
8
0
100
AcDbBlockEnd
0
BLOCK
5
28F
330
28E
100
AcDbEntity
8
0
100
AcDbBlockBegin
2
$PAPER_SPACE
70
0
10
0.0
20
0.0
30
0.0
3
$PAPER_SPACE
1

0
ENDBLK
5
5B
330
28E
100
AcDbEntity
8
0
100
AcDbBlockEnd
0
ENDSEC
0
SECTION
2
ENTITIES
0
LWPOLYLINE
5
1000
100
AcDbEntity
100
AcDbPolyline
90
3552
70
1
43
0
10
11.424844
20
0.059702
10
11.425086
20
0.188256
10
11.452564
20
0.199251
10
11.480484
20
0.21066
10
11.508842
20
0.222489
10
11.537634
20
0.234745
10
11.566854
20
0.247436
10
11.596499
20
0.260568
10
11.626562
20
0.274148
10
11.65704
20
0.288182
10
11.687927
20
0.302678
10
11.719217
20
0.317643
10
11.750906
20
0.333082
10
11.782989
20
0.349002
10
11.815459
20
0.365411
10
11.848313
20
0.382313
10
11.881543
20
0.399717
10
11.915145
20
0.417628
10
11.949113
20
0.436052
10
11.983441
20
0.454996
10
12.018123
20
0.474466
10
12.053154
20
0.494468
10
12.088528
20
0.515008
10
12.124238
20
0.536092
10
12.160278
20
0.557727
10
12.196644
20
0.579917
10
12.233327
20
0.60267
10
12.270322
20
0.62599
10
12.307623
20
0.649883
10
12.345223
20
0.674356
10
12.383116
20
0.699413
10
12.421294
20
0.72506
10
12.459753
20
0.751304
10
12.46941
20
0.757958
10
12.474245
20
0.761299
10
12.476664
20
0.762974
10
12.47669
20
0.763023
10
12.45975
20
1.002311
10
12.459718
20
1.002356
10
12.457087
20
1.003673
10
12.451829
20
1.0063
10
12.441331
20
1.011527
10
12.399559
20
1.03209
10
12.358147
20
1.052103
10
12.317103
20
1.071572
10
12.27643
20
1.090504
10
12.236135
20
1.108904
10
12.196223
20
1.12678
10
12.156701
20
1.144137
10
12.117572
20
1.160983
10
12.078843
20
1.177324
10
12.040518
20
1.193168
10
12.002604
20
1.208519
10
11.965105
20
1.223387
10
11.928025
20
1.237776
10
11.891371
20
1.251695
10
11.855146
20
1.26515
10
11.819356
20
1.278149
10
11.784005
20
1.290697
10
11.749098
20
1.302803
10
11.71464
20
1.314473
10
11.680634
20
1.325715
10
11.647086
20
1.336536
10
11.614
20
1.346943
10
11.581379
20
1.356943
10
11.549228
20
1.366544
10
11.517551
20
1.375753
10
11.486352
20
1.384577
10
11.455635
20
1.393025
10
11.425404
20
1.401103
10
11.395662
20
1.408819
10
11.366413
20
1.41618
10
11.337661
20
1.423194
10
11.31931
20
1.550433
10
11.31931
20
1.550433
10
11.302771
20
1.677919
10
11.328578
20
1.692406
10
11.35477
20
1.707362
10
11.381342
20
1.722791
10
11.408287
20
1.7387
10
11.435601
20
1.755097
10
11.463278
20
1.771985
10
11.491312
20
1.789373
10
11.519697
20
1.807266
10
11.548427
20
1.82567
10
11.577497
20
1.84459
10
11.6069
20
1.864033
10
11.63663
20
1.884005
10
11.666681
20
1.904511
10
11.697047
20
1.925558
10
11.727721
20
1.94715
10
11.758698
20
1.969293
10
11.78997
20
1.991994
10
11.821532
20
2.015256
10
11.853376
20
2.039087
10
11.885497
20
2.06349
10
11.917887
20
2.088471
10
11.950539
20
2.114037
10
11.983448
20
2.14019
10
12.016605
20
2.166937
10
12.050005
20
2.194283
10
12.08364
20
2.222233
10
12.117503
20
2.25079
10
12.151587
20
2.279961
10
12.185885
20
2.30975
10
12.220389
20
2.340162
10
12.255093
20
2.3712
10
12.263799
20
2.379058
10
12.268157
20
2.383002
10
12.270337
20
2.384978
10
12.270356
20
2.38503
10
12.222327
20
2.62006
10
12.222289
20
2.6201
10
12.219509
20
2.621062
10
12.213954
20
2.62298
10
12.202863
20
2.626793
10
12.158764
20
2.641728
10
12.115095
20
2.656164
10
12.07186
20
2.67011
10
12.029064
20
2.68357
10
11.986712
20
2.696553
10
11.944809
20
2.709067
10
11.903358
20
2.721117
10
11.862366
20
2.732711
10
11.821835
20
2.743858
10
11.781771
20
2.754563
10
11.742177
20
2.764835
10
11.703057
20
2.77468
10
11.664417
20
2.784107
10
11.626259
20
2.793122
10
11.588588
20
2.801734
10
11.551408
20
2.809949
10
11.514722
20
2.817776
10
11.478533
20
2.825222
10
11.442846
20
2.832295
10
11.407664
20
2.839002
10
11.372991
20
2.845351
10
11.338829
20
2.85135
10
11.305182
20
2.857007
10
11.272053
20
2.86233
10
11.239445
20
2.867325
10
11.207361
20
2.872002
10
11.175805
20
2.876368
10
11.144778
20
2.880431
10
11.114283
20
2.884198
10
11.084323
20
2.887679
10
11.054901
20
2.890881
10
11.0201
20
3.014635
10
11.0201
20
3.014635
10
10.987062
20
3.138871
10
11.010757
20
3.156604
10
11.034773
20
3.17485
10
11.059103
20
3.193615
10
11.083742
20
3.212906
10
11.108682
20
3.232727
10
11.133918
20
3.253084
10
11.159442
20
3.273982
10
11.185249
20
3.295427
10
11.211331
20
3.317423
10
11.237682
20
3.339976
10
11.264296
20
3.363091
10
11.291165
20
3.386772
10
11.318282
20
3.411026
10
11.345641
20
3.435855
10
11.373235
20
3.461267
10
11.401056
20
3.487264
10
11.429098
20
3.513852
10
11.457353
20
3.541035
10
11.485815
20
3.568818
10
11.514475
20
3.597205
10
11.543327
20
3.626201
10
11.572364
20
3.655809
10
11.601577
20
3.686034
10
11.630959
20
3.716881
10
11.660504
20
3.748352
10
11.690203
20
3.780453
10
11.720049
20
3.813186
10
11.750033
20
3.846556
10
11.78015
20
3.880567
10
11.81039
20
3.915222
10
11.840745
20
3.950525
10
11.848351
20
3.959452
10
11.852157
20
3.963931
10
11.85406
20
3.966174
10
11.854072
20
3.966229
10
11.775777
20
4.192978
10
11.775734
20
4.193014
10
11.772852
20
4.193605
10
11.767094
20
4.194781
10
11.7556
20
4.197113
10
11.709929
20
4.206165
10
11.664749
20
4.214778
10
11.620064
20
4.22296
10
11.575878
20
4.23072
10
11.532193
20
4.238064
10
11.489015
20
4.245
10
11.446347
20
4.251537
10
11.404191
20
4.257682
10
11.362552
20
4.263443
10
11.321433
20
4.268827
10
11.280837
20
4.273843
10
11.240768
20
4.278498
10
11.201227
20
4.2828
10
11.162219
20
4.286758
10
11.123747
20
4.290379
10
11.085812
20
4.293671
10
11.048418
20
4.296643
10
11.011567
20
4.299301
10
10.975263
20
4.301655
10
10.939506
20
4.303713
10
10.9043
20
4.305482
10
10.869648
20
4.306971
10
10.83555
20
4.308188
10
10.80201
20
4.30914
10
10.769029
20
4.309837
10
10.736609
20
4.310286
10
10.704753
20
4.310495
10
10.673461
20
4.310473
10
10.642735
20
4.310229
10
10.612578
20
4.309769
10
10.58299
20
4.309103
10
10.532333
20
4.427256
10
10.532333
20
4.427256
10
10.483361
20
4.546117
10
10.504539
20
4.566791
10
10.525968
20
4.588015
10
10.547641
20
4.609796
10
10.569551
20
4.632138
10
10.59169
20
4.655045
10
10.614053
20
4.678521
10
10.636631
20
4.702572
10
10.659418
20
4.727202
10
10.682406
20
4.752414
10
10.705588
20
4.778214
10
10.728957
20
4.804605
10
10.752505
20
4.831591
10
10.776224
20
4.859176
10
10.800108
20
4.887365
10
10.824149
20
4.91616
10
10.848339
20
4.945566
10
10.872671
20
4.975587
10
10.897136
20
5.006226
10
10.921728
20
5.037486
10
10.946438
20
5.069371
10
10.971258
20
5.101885
10
10.996182
20
5.13503
10
11.0212
20
5.168809
10
11.046305
20
5.203227
10
11.071489
20
5.238286
10
11.096744
20
5.273988
10
11.122061
20
5.310337
10
11.147434
20
5.347336
10
11.172853
20
5.384986
10
11.198311
20
5.423292
10
11.223799
20
5.462255
10
11.230175
20
5.472099
10
11.233363
20
5.477036
10
11.234958
20
5.479508
10
11.234962
20
5.479564
10
11.12774
20
5.694154
10
11.127693
20
5.694184
10
11.124759
20
5.694393
10
11.118896
20
5.694808
10
11.107196
20
5.69562
10
11.060735
20
5.698633
10
11.014817
20
5.701275
10
10.969446
20
5.703555
10
10.924625
20
5.705481
10
10.880355
20
5.70706
10
10.836641
20
5.708301
10
10.793484
20
5.709213
10
10.750888
20
5.709803
10
10.708853
20
5.710079
10
10.667383
20
5.71005
10
10.62648
20
5.709724
10
10.586145
20
5.709109
10
10.546382
20
5.708214
10
10.507191
20
5.707046
10
10.468575
20
5.705614
10
10.430535
20
5.703927
10
10.393073
20
5.701992
10
10.35619
20
5.699818
10
10.319889
20
5.697413
10
10.28417
20
5.694786
10
10.249034
20
5.691945
10
10.214484
20
5.688898
10
10.180519
20
5.685653
10
10.147142
20
5.68222
10
10.114352
20
5.678606
10
10.082151
20
5.674819
10
10.05054
20
5.670869
10
10.019518
20
5.666763
10
9.989087
20
5.66251
10
9.959248
20
5.658118
10
9.93
20
5.653595
10
9.864354
20
5.764125
10
9.864354
20
5.764125
10
9.800287
20
5.875578
10
9.818585
20
5.898839
10
9.837061
20
5.922679
10
9.855705
20
5.947102
10
9.874511
20
5.972112
10
9.893472
20
5.997713
10
9.912579
20
6.023908
10
9.931825
20
6.0507
10
9.951202
20
6.078093
10
9.970702
20
6.10609
10
9.990318
20
6.134695
10
10.010042
20
6.16391
10
10.029866
20
6.193739
10
10.049783
20
6.224185
10
10.069783
20
6.25525
10
10.08986
20
6.286937
10
10.110004
20
6.319249
10
10.130209
20
6.352189
10
10.150466
20
6.385758
10
10.170767
20
6.419961
10
10.191104
20
6.454799
10
10.211468
20
6.490274
10
10.231852
20
6.526388
10
10.252247
20
6.563145
10
10.272645
20
6.600545
10
10.293037
20
6.638591
10
10.313416
20
6.677284
10
10.333773
20
6.716627
10
10.354099
20
6.756621
10
10.374386
20
6.797267
10
10.394626
20
6.838568
10
10.414811
20
6.880524
10
10.419847
20
6.891116
10
10.422364
20
6.896427
10
10.423622
20
6.899087
10
10.423619
20
6.899142
10
10.289305
20
7.097902
10
10.289254
20
7.097925
10
10.286317
20
7.097749
10
10.280451
20
7.097396
10
10.268745
20
7.096673
10
10.222288
20
7.093596
10
10.176418
20
7.090222
10
10.131137
20
7.08656
10
10.086448
20
7.082619
10
10.042352
20
7.078407
10
9.998849
20
7.073932
10
9.955943
20
7.069202
10
9.913634
20
7.064227
10
9.871922
20
7.059014
10
9.830811
20
7.053573
10
9.7903
20
7.047911
10
9.750391
20
7.042036
10
9.711085
20
7.035958
10
9.672381
20
7.029685
10
9.634282
20
7.023225
10
9.596788
20
7.016587
10
9.559899
20
7.009779
10
9.523616
20
7.00281
10
9.487939
20
6.995687
10
9.452869
20
6.98842
10
9.418405
20
6.981017
10
9.384547
20
6.973486
10
9.351297
20
6.965836
10
9.318653
20
6.958076
10
9.286616
20
6.950212
10
9.255184
20
6.942255
10
9.224359
20
6.934213
10
9.194139
20
6.926093
10
9.164524
20
6.917904
10
9.135513
20
6.909654
10
9.107105
20
6.901353
10
9.027594
20
7.002369
10
9.027594
20
7.002369
10
8.949527
20
7.104506
10
8.964633
20
7.129956
10
8.979838
20
7.156003
10
8.995136
20
7.182651
10
9.010516
20
7.209902
10
9.025973
20
7.237759
10
9.041497
20
7.266224
10
9.057082
20
7.295299
10
9.072717
20
7.324987
10
9.088397
20
7.35529
10
9.104111
20
7.38621
10
9.119853
20
7.41775
10
9.135614
20
7.449911
10
9.151386
20
7.482696
10
9.167161
20
7.516105
10
9.182929
20
7.550142
10
9.198684
20
7.584807
10
9.214417
20
7.620102
10
9.230119
20
7.656029
10
9.245782
20
7.692589
10
9.261397
20
7.729783
10
9.276957
20
7.767613
10
9.292452
20
7.806079
10
9.307875
20
7.845183
10
9.323217
20
7.884925
10
9.338469
20
7.925307
10
9.353623
20
7.96633
10
9.36867
20
8.007993
10
9.383602
20
8.050298
10
9.39841
20
8.093245
10
9.413087
20
8.136834
10
9.427622
20
8.181066
10
9.431233
20
8.192225
10
9.433034
20
8.197819
10
9.433934
20
8.20062
10
9.433925
20
8.200674
10
9.274816
20
8.380202
10
9.274763
20
8.380218
10
9.271874
20
8.379661
10
9.266104
20
8.378544
10
9.254592
20
8.376301
10
9.208934
20
8.367185
10
9.163897
20
8.357853
10
9.119482
20
8.348313
10
9.07569
20
8.338572
10
9.032521
20
8.32864
10
8.989975
20
8.318525
10
8.948052
20
8.308235
10
8.906754
20
8.29778
10
8.866081
20
8.287168
10
8.826031
20
8.276407
10
8.786606
20
8.265505
10
8.747805
20
8.254472
10
8.709628
20
8.243316
10
8.672075
20
8.232044
10
8.635145
20
8.220667
10
8.598838
20
8.209191
10
8.563153
20
8.197627
10
8.52809
20
8.185981
10
8.493648
20
8.174263
10
8.459826
20
8.16248
10
8.426623
20
8.150642
10
8.394039
20
8.138756
10
8.362071
20
8.126832
10
8.33072
20
8.114877
10
8.299982
20
8.102899
10
8.269859
20
8.090907
10
8.240347
20
8.07891
10
8.211445
20
8.066915
10
8.183152
20
8.054931
10
8.155466
20
8.042965
10
8.128385
20
8.031027
10
8.036369
20
8.1208
10
8.036369
20
8.1208
10
7.945639
20
8.211873
10
7.957293
20
8.239077
10
7.968969
20
8.266887
10
7.980657
20
8.295304
10
7.992349
20
8.324329
10
8.004037
20
8.353965
10
8.015714
20
8.384212
10
8.027369
20
8.415073
10
8.038996
20
8.446548
10
8.050586
20
8.478638
10
8.062131
20
8.511345
10
8.073621
20
8.54467
10
8.085049
20
8.578613
10
8.096407
20
8.613176
10
8.107686
20
8.648359
10
8.118877
20
8.684162
10
8.129972
20
8.720587
10
8.140963
20
8.757634
10
8.151841
20
8.795303
10
8.162598
20
8.833594
10
8.173225
20
8.872509
10
8.183714
20
8.912045
10
8.194056
20
8.952205
10
8.204243
20
8.992988
10
8.214266
20
9.034393
10
8.224117
20
9.07642
10
8.233786
20
9.11907
10
8.243267
20
9.16234
10
8.252549
20
9.206232
10
8.261625
20
9.250745
10
8.270486
20
9.295877
10
8.279124
20
9.341627
10
8.281247
20
9.353162
10
8.282303
20
9.358943
10
8.28283
20
9.361838
10
8.282813
20
9.361891
10
8.101633
20
9.519115
10
8.101578
20
9.519124
10
8.098787
20
9.518194
10
8.093212
20
9.516334
10
8.082092
20
9.512607
10
8.038014
20
9.49761
10
7.99458
20
9.482479
10
7.951791
20
9.467223
10
7.909644
20
9.451849
10
7.86814
20
9.436368
10
7.827279
20
9.420786
10
7.787058
20
9.405113
10
7.747478
20
9.389356
10
7.708538
20
9.373526
10
7.670235
20
9.357629
10
7.63257
20
9.341675
10
7.595541
20
9.325672
10
7.559147
20
9.309627
10
7.523387
20
9.293551
10
7.488258
20
9.27745
10
7.453759
20
9.261334
10
7.419889
20
9.245211
10
7.386646
20
9.229088
10
7.354028
20
9.212974
10
7.322034
20
9.196878
10
7.29066
20
9.180807
10
7.259906
20
9.16477
10
7.229768
20
9.148775
10
7.200245
20
9.13283
10
7.171334
20
9.116943
10
7.143034
20
9.101122
10
7.11534
20
9.085375
10
7.088251
20
9.06971
10
7.061765
20
9.054135
10
7.035877
20
9.038658
10
7.010586
20
9.023287
10
6.90764
20
9.100282
10
6.90764
20
9.100282
10
6.805798
20
9.178733
10
6.813802
20
9.207226
10
6.821748
20
9.236322
10
6.829627
20
9.266021
10
6.83743
20
9.296324
10
6.845151
20
9.327232
10
6.852779
20
9.358745
10
6.860307
20
9.390863
10
6.867726
20
9.423586
10
6.875028
20
9.456915
10
6.882204
20
9.490849
10
6.889247
20
9.525388
10
6.896147
20
9.560533
10
6.902896
20
9.596282
10
6.909486
20
9.632636
10
6.915908
20
9.669594
10
6.922154
20
9.707156
10
6.928216
20
9.74532
10
6.934084
20
9.784087
10
6.939751
20
9.823455
10
6.945208
20
9.863423
10
6.950446
20
9.903991
10
6.955458
20
9.945157
10
6.960234
20
9.98692
10
6.964767
20
10.029279
10
6.969048
20
10.072233
10
6.973068
20
10.115779
10
6.976819
20
10.159918
10
6.980293
20
10.204646
10
6.983481
20
10.249962
10
6.986376
20
10.295864
10
6.988968
20
10.342351
10
6.989567
20
10.354064
10
6.98986
20
10.359934
10
6.990004
20
10.362872
10
6.989981
20
10.362923
10
6.789829
20
10.495153
10
6.789773
20
10.495154
10
6.787127
20
10.493869
10
6.781842
20
10.491297
10
6.771304
20
10.48615
10
6.729561
20
10.465528
10
6.688474
20
10.444858
10
6.648041
20
10.424146
10
6.608262
20
10.403403
10
6.569134
20
10.382637
10
6.530656
20
10.361855
10
6.492825
20
10.341066
10
6.45564
20
10.320278
10
6.419099
20
10.2995
10
6.3832
20
10.27874
10
6.347939
20
10.258006
10
6.313316
20
10.237306
10
6.279328
20
10.216649
10
6.245971
20
10.196042
10
6.213244
20
10.175494
10
6.181145
20
10.155013
10
6.149669
20
10.134606
10
6.118815
20
10.114282
10
6.088579
20
10.094049
10
6.058959
20
10.073914
10
6.029952
20
10.053886
10
6.001554
20
10.033972
10
5.973762
20
10.01418
10
5.946573
20
9.994518
10
5.919983
20
9.974993
10
5.893989
20
9.955613
10
5.868588
20
9.936386
10
5.843776
20
9.91732
10
5.819549
20
9.898421
10
5.795903
20
9.879698
10
5.772835
20
9.861157
10
5.660719
20
9.924056
10
5.660719
20
9.924056
10
5.549508
20
9.988543
10
5.553725
20
10.017837
10
5.557805
20
10.047721
10
5.56174
20
10.078194
10
5.565521
20
10.109257
10
5.569141
20
10.140908
10
5.572591
20
10.173147
10
5.575862
20
10.205972
10
5.578947
20
10.239384
10
5.581836
20
10.273381
10
5.584522
20
10.307961
10
5.586996
20
10.343124
10
5.58925
20
10.378869
10
5.591275
20
10.415193
10
5.593063
20
10.452096
10
5.594606
20
10.489577
10
5.595896
20
10.527632
10
5.596924
20
10.566261
10
5.597682
20
10.605462
10
5.598162
20
10.645233
10
5.598355
20
10.685572
10
5.598254
20
10.726476
10
5.597849
20
10.767944
10
5.597134
20
10.809973
10
5.596099
20
10.852562
10
5.594736
20
10.895707
10
5.593038
20
10.939405
10
5.590996
20
10.983656
10
5.588602
20
11.028454
10
5.585848
20
11.073799
10
5.582726
20
11.119687
10
5.579228
20
11.166114
10
5.578294
20
11.177805
10
5.577818
20
11.183663
10
5.577578
20
11.186595
10
5.577548
20
11.186642
10
5.361848
20
11.291616
10
5.361793
20
11.29161
10
5.359337
20
11.28999
10
5.354434
20
11.28675
10
5.344657
20
11.280272
10
5.305963
20
11.254378
10
5.267925
20
11.228521
10
5.230542
20
11.20271
10
5.193811
20
11.176952
10
5.157728
20
11.151256
10
5.122292
20
11.125629
10
5.087498
20
11.10008
10
5.053345
20
11.074617
10
5.019828
20
11.049247
10
4.986946
20
11.023979
10
4.954693
20
10.99882
10
4.923068
20
10.973778
10
4.892067
20
10.948861
10
4.861685
20
10.924077
10
4.831921
20
10.899433
10
4.802769
20
10.874937
10
4.774226
20
10.850596
10
4.746289
20
10.826419
10
4.718953
20
10.802412
10
4.692214
20
10.778584
10
4.666069
20
10.75494
10
4.640513
20
10.73149
10
4.615542
20
10.70824
10
4.591152
20
10.685197
10
4.567339
20
10.662368
10
4.544097
20
10.639762
10
4.521423
20
10.617384
10
4.499311
20
10.595242
10
4.477758
20
10.573342
10
4.456759
20
10.551693
10
4.436308
20
10.5303
10
4.316941
20
10.578026
10
4.316941
20
10.578026
10
4.198265
20
10.627446
10
4.198622
20
10.657039
10
4.198766
20
10.6872
10
4.19869
20
10.717926
10
4.198385
20
10.749217
10
4.197842
20
10.78107
10
4.197055
20
10.813483
10
4.196013
20
10.846455
10
4.19471
20
10.879983
10
4.193137
20
10.914066
10
4.191287
20
10.948701
10
4.18915
20
10.983887
10
4.186718
20
11.01962
10
4.183985
20
11.055898
10
4.180941
20
11.092719
10
4.177579
20
11.130079
10
4.173891
20
11.167978
10
4.169868
20
11.206411
10
4.165503
20
11.245375
10
4.160787
20
11.284868
10
4.155714
20
11.324887
10
4.150274
20
11.365428
10
4.14446
20
11.406489
10
4.138265
20
11.448065
10
4.13168
20
11.490154
10
4.124697
20
11.532752
10
4.11731
20
11.575855
10
4.10951
20
11.61946
10
4.101289
20
11.663563
10
4.09264
20
11.708161
10
4.083555
20
11.753248
10
4.074027
20
11.798822
10
4.071575
20
11.810291
10
4.070338
20
11.816037
10
4.069717
20
11.818912
10
4.069681
20
11.818955
10
3.842126
20
11.894876
10
3.842071
20
11.894863
10
3.839848
20
11.892937
10
3.835409
20
11.889084
10
3.826562
20
11.881385
10
3.791578
20
11.850662
10
3.757241
20
11.820062
10
3.723547
20
11.789592
10
3.690492
20
11.75926
10
3.658072
20
11.729074
10
3.626284
20
11.699041
10
3.595123
20
11.669169
10
3.564585
20
11.639466
10
3.534667
20
11.609938
10
3.505364
20
11.580594
10
3.476671
20
11.551441
10
3.448585
20
11.522485
10
3.421101
20
11.493735
10
3.394215
20
11.465197
10
3.367921
20
11.436879
10
3.342216
20
11.408787
10
3.317095
20
11.38093
10
3.292552
20
11.353312
10
3.268584
20
11.325943
10
3.245184
20
11.298828
10
3.222349
20
11.271975
10
3.200073
20
11.245389
10
3.17835
20
11.219078
10
3.157176
20
11.193049
10
3.136546
20
11.167308
10
3.116454
20
11.141861
10
3.096895
20
11.116715
10
3.077863
20
11.091876
10
3.059352
20
11.067351
10
3.041358
20
11.043145
10
3.023875
20
11.019266
10
2.8993
20
11.051004
10
2.8993
20
11.051004
10
2.775188
20
11.08451
10
2.77168
20
11.113897
10
2.767886
20
11.143819
10
2.7638
20
11.174272
10
2.759413
20
11.205255
10
2.754717
20
11.236765
10
2.749706
20
11.268798
10
2.744369
20
11.301352
10
2.738701
20
11.334423
10
2.732693
20
11.368009
10
2.726337
20
11.402106
10
2.719626
20
11.436712
10
2.712552
20
11.471822
10
2.705106
20
11.507433
10
2.697282
20
11.543541
10
2.689073
20
11.580144
10
2.680469
20
11.617236
10
2.671464
20
11.654815
10
2.66205
20
11.692877
10
2.65222
20
11.731416
10
2.641967
20
11.77043
10
2.631282
20
11.809915
10
2.620158
20
11.849865
10
2.608589
20
11.890277
10
2.596567
20
11.931147
10
2.584084
20
11.972469
10
2.571133
20
12.014239
10
2.557708
20
12.056453
10
2.543801
20
12.099106
10
2.529405
20
12.142192
10
2.514513
20
12.185708
10
2.499118
20
12.229649
10
2.49519
20
12.240699
10
2.493213
20
12.246234
10
2.492222
20
12.249004
10
2.492181
20
12.249042
10
2.256663
20
12.294612
10
2.256611
20
12.294592
10
2.254658
20
12.292392
10
2.25076
20
12.287993
10
2.242993
20
12.279205
10
2.212319
20
12.244179
10
2.18227
20
12.209358
10
2.152841
20
12.174751
10
2.124028
20
12.140364
10
2.095826
20
12.106204
10
2.068229
20
12.072279
10
2.041234
20
12.038596
10
2.014835
20
12.00516
10
1.989026
20
11.97198
10
1.963804
20
11.939062
10
1.939162
20
11.906413
10
1.915096
20
11.874039
10
1.8916
20
11.841948
10
1.868668
20
11.810145
10
1.846296
20
11.778637
10
1.824478
20
11.74743
10
1.803207
20
11.716532
10
1.782479
20
11.685948
10
1.762288
20
11.655684
10
1.742628
20
11.625747
10
1.723493
20
11.596142
10
1.704878
20
11.566877
10
1.686775
20
11.537956
10
1.66918
20
11.509385
10
1.652086
20
11.481171
10
1.635488
20
11.453319
10
1.619378
20
11.425835
10
1.603751
20
11.398725
10
1.5886
20
11.371993
10
1.573919
20
11.345646
10
1.559702
20
11.319689
10
1.43205
20
11.334896
10
1.43205
20
11.334896
10
1.304627
20
11.351915
10
1.297313
20
11.380593
10
1.289646
20
11.409763
10
1.28162
20
11.439423
10
1.273226
20
11.469568
10
1.264458
20
11.500195
10
1.255308
20
11.5313
10
1.245769
20
11.562879
10
1.235832
20
11.594928
10
1.225492
20
11.627442
10
1.21474
20
11.660418
10
1.203569
20
11.693851
10
1.191972
20
11.727738
10
1.179942
20
11.762072
10
1.167472
20
11.796851
10
1.154555
20
11.832068
10
1.141184
20
11.867721
10
1.127351
20
11.903803
10
1.113049
20
11.94031
10
1.098273
20
11.977237
10
1.083015
20
12.014579
10
1.067267
20
12.052331
10
1.051025
20
12.090487
10
1.03428
20
12.129044
10
1.017026
20
12.167994
10
0.999256
20
12.207333
10
0.980964
20
12.247056
10
0.962144
20
12.287156
10
0.942788
20
12.327629
10
0.922892
20
12.368468
10
0.902447
20
12.409668
10
0.881448
20
12.451223
10
0.876111
20
12.461666
10
0.873429
20
12.466896
10
0.872085
20
12.469513
10
0.87204
20
12.469545
10
0.632588
20
12.483983
10
0.632539
20
12.483957
10
0.63089
20
12.48152
10
0.627599
20
12.476651
10
0.621046
20
12.466924
10
0.595206
20
12.428194
10
0.569959
20
12.389749
10
0.545299
20
12.351596
10
0.521221
20
12.313743
10
0.497719
20
12.276194
10
0.474787
20
12.238957
10
0.452419
20
12.202038
10
0.43061
20
12.165443
10
0.409353
20
12.129178
10
0.388643
20
12.09325
10
0.368474
20
12.057663
10
0.348839
20
12.022425
10
0.329733
20
11.987541
10
0.311149
20
11.953017
10
0.29308
20
11.918859
10
0.275522
20
11.885072
10
0.258466
20
11.851661
10
0.241908
20
11.818633
10
0.22584
20
11.785993
10
0.210255
20
11.753745
10
0.195148
20
11.721897
10
0.180512
20
11.690452
10
0.166339
20
11.659415
10
0.152624
20
11.628793
10
0.139359
20
11.598589
10
0.126538
20
11.568809
10
0.114153
20
11.539457
10
0.102198
20
11.510539
10
0.090666
20
11.482058
10
0.07955
20
11.454021
10
0.068843
20
11.42643
10
-0.059702
20
11.424844
10
-0.059702
20
11.424844
10
-0.188256
20
11.425086
10
-0.199251
20
11.452564
10
-0.21066
20
11.480484
10
-0.222489
20
11.508842
10
-0.234745
20
11.537634
10
-0.247436
20
11.566854
10
-0.260568
20
11.596499
10
-0.274148
20
11.626562
10
-0.288182
20
11.65704
10
-0.302678
20
11.687927
10
-0.317643
20
11.719217
10
-0.333082
20
11.750906
10
-0.349002
20
11.782989
10
-0.365411
20
11.815459
10
-0.382313
20
11.848313
10
-0.399717
20
11.881543
10
-0.417628
20
11.915145
10
-0.436052
20
11.949113
10
-0.454996
20
11.983441
10
-0.474466
20
12.018123
10
-0.494468
20
12.053154
10
-0.515008
20
12.088528
10
-0.536092
20
12.124238
10
-0.557727
20
12.160278
10
-0.579917
20
12.196644
10
-0.60267
20
12.233327
10
-0.62599
20
12.270322
10
-0.649883
20
12.307623
10
-0.674356
20
12.345223
10
-0.699413
20
12.383116
10
-0.72506
20
12.421294
10
-0.751304
20
12.459753
10
-0.757958
20
12.46941
10
-0.761299
20
12.474245
10
-0.762974
20
12.476664
10
-0.763023
20
12.47669
10
-1.002311
20
12.45975
10
-1.002356
20
12.459718
10
-1.003673
20
12.457087
10
-1.0063
20
12.451829
10
-1.011527
20
12.441331
10
-1.03209
20
12.399559
10
-1.052103
20
12.358147
10
-1.071572
20
12.317103
10
-1.090504
20
12.27643
10
-1.108904
20
12.236135
10
-1.12678
20
12.196223
10
-1.144137
20
12.156701
10
-1.160983
20
12.117572
10
-1.177324
20
12.078843
10
-1.193168
20
12.040518
10
-1.208519
20
12.002604
10
-1.223387
20
11.965105
10
-1.237776
20
11.928025
10
-1.251695
20
11.891371
10
-1.26515
20
11.855146
10
-1.278149
20
11.819356
10
-1.290697
20
11.784005
10
-1.302803
20
11.749098
10
-1.314473
20
11.71464
10
-1.325715
20
11.680634
10
-1.336536
20
11.647086
10
-1.346943
20
11.614
10
-1.356943
20
11.581379
10
-1.366544
20
11.549228
10
-1.375753
20
11.517551
10
-1.384577
20
11.486352
10
-1.393025
20
11.455635
10
-1.401103
20
11.425404
10
-1.408819
20
11.395662
10
-1.41618
20
11.366413
10
-1.423194
20
11.337661
10
-1.550433
20
11.31931
10
-1.550433
20
11.31931
10
-1.677919
20
11.302771
10
-1.692406
20
11.328578
10
-1.707362
20
11.35477
10
-1.722791
20
11.381342
10
-1.7387
20
11.408287
10
-1.755097
20
11.435601
10
-1.771985
20
11.463278
10
-1.789373
20
11.491312
10
-1.807266
20
11.519697
10
-1.82567
20
11.548427
10
-1.84459
20
11.577497
10
-1.864033
20
11.6069
10
-1.884005
20
11.63663
10
-1.904511
20
11.666681
10
-1.925558
20
11.697047
10
-1.94715
20
11.727721
10
-1.969293
20
11.758698
10
-1.991994
20
11.78997
10
-2.015256
20
11.821532
10
-2.039087
20
11.853376
10
-2.06349
20
11.885497
10
-2.088471
20
11.917887
10
-2.114037
20
11.950539
10
-2.14019
20
11.983448
10
-2.166937
20
12.016605
10
-2.194283
20
12.050005
10
-2.222233
20
12.08364
10
-2.25079
20
12.117503
10
-2.279961
20
12.151587
10
-2.30975
20
12.185885
10
-2.340162
20
12.220389
10
-2.3712
20
12.255093
10
-2.379058
20
12.263799
10
-2.383002
20
12.268157
10
-2.384978
20
12.270337
10
-2.38503
20
12.270356
10
-2.62006
20
12.222327
10
-2.6201
20
12.222289
10
-2.621062
20
12.219509
10
-2.62298
20
12.213954
10
-2.626793
20
12.202863
10
-2.641728
20
12.158764
10
-2.656164
20
12.115095
10
-2.67011
20
12.07186
10
-2.68357
20
12.029064
10
-2.696553
20
11.986712
10
-2.709067
20
11.944809
10
-2.721117
20
11.903358
10
-2.732711
20
11.862366
10
-2.743858
20
11.821835
10
-2.754563
20
11.781771
10
-2.764835
20
11.742177
10
-2.77468
20
11.703057
10
-2.784107
20
11.664417
10
-2.793122
20
11.626259
10
-2.801734
20
11.588588
10
-2.809949
20
11.551408
10
-2.817776
20
11.514722
10
-2.825222
20
11.478533
10
-2.832295
20
11.442846
10
-2.839002
20
11.407664
10
-2.845351
20
11.372991
10
-2.85135
20
11.338829
10
-2.857007
20
11.305182
10
-2.86233
20
11.272053
10
-2.867325
20
11.239445
10
-2.872002
20
11.207361
10
-2.876368
20
11.175805
10
-2.880431
20
11.144778
10
-2.884198
20
11.114283
10
-2.887679
20
11.084323
10
-2.890881
20
11.054901
10
-3.014635
20
11.0201
10
-3.014635
20
11.0201
10
-3.138871
20
10.987062
10
-3.156604
20
11.010757
10
-3.17485
20
11.034773
10
-3.193615
20
11.059103
10
-3.212906
20
11.083742
10
-3.232727
20
11.108682
10
-3.253084
20
11.133918
10
-3.273982
20
11.159442
10
-3.295427
20
11.185249
10
-3.317423
20
11.211331
10
-3.339976
20
11.237682
10
-3.363091
20
11.264296
10
-3.386772
20
11.291165
10
-3.411026
20
11.318282
10
-3.435855
20
11.345641
10
-3.461267
20
11.373235
10
-3.487264
20
11.401056
10
-3.513852
20
11.429098
10
-3.541035
20
11.457353
10
-3.568818
20
11.485815
10
-3.597205
20
11.514475
10
-3.626201
20
11.543327
10
-3.655809
20
11.572364
10
-3.686034
20
11.601577
10
-3.716881
20
11.630959
10
-3.748352
20
11.660504
10
-3.780453
20
11.690203
10
-3.813186
20
11.720049
10
-3.846556
20
11.750033
10
-3.880567
20
11.78015
10
-3.915222
20
11.81039
10
-3.950525
20
11.840745
10
-3.959452
20
11.848351
10
-3.963931
20
11.852157
10
-3.966174
20
11.85406
10
-3.966229
20
11.854072
10
-4.192978
20
11.775777
10
-4.193014
20
11.775734
10
-4.193605
20
11.772852
10
-4.194781
20
11.767094
10
-4.197113
20
11.7556
10
-4.206165
20
11.709929
10
-4.214778
20
11.664749
10
-4.22296
20
11.620064
10
-4.23072
20
11.575878
10
-4.238064
20
11.532193
10
-4.245
20
11.489015
10
-4.251537
20
11.446347
10
-4.257682
20
11.404191
10
-4.263443
20
11.362552
10
-4.268827
20
11.321433
10
-4.273843
20
11.280837
10
-4.278498
20
11.240768
10
-4.2828
20
11.201227
10
-4.286758
20
11.162219
10
-4.290379
20
11.123747
10
-4.293671
20
11.085812
10
-4.296643
20
11.048418
10
-4.299301
20
11.011567
10
-4.301655
20
10.975263
10
-4.303713
20
10.939506
10
-4.305482
20
10.9043
10
-4.306971
20
10.869648
10
-4.308188
20
10.83555
10
-4.30914
20
10.80201
10
-4.309837
20
10.769029
10
-4.310286
20
10.736609
10
-4.310495
20
10.704753
10
-4.310473
20
10.673461
10
-4.310229
20
10.642735
10
-4.309769
20
10.612578
10
-4.309103
20
10.58299
10
-4.427256
20
10.532333
10
-4.427256
20
10.532333
10
-4.546117
20
10.483361
10
-4.566791
20
10.504539
10
-4.588015
20
10.525968
10
-4.609796
20
10.547641
10
-4.632138
20
10.569551
10
-4.655045
20
10.59169
10
-4.678521
20
10.614053
10
-4.702572
20
10.636631
10
-4.727202
20
10.659418
10
-4.752414
20
10.682406
10
-4.778214
20
10.705588
10
-4.804605
20
10.728957
10
-4.831591
20
10.752505
10
-4.859176
20
10.776224
10
-4.887365
20
10.800108
10
-4.91616
20
10.824149
10
-4.945566
20
10.848339
10
-4.975587
20
10.872671
10
-5.006226
20
10.897136
10
-5.037486
20
10.921728
10
-5.069371
20
10.946438
10
-5.101885
20
10.971258
10
-5.13503
20
10.996182
10
-5.168809
20
11.0212
10
-5.203227
20
11.046305
10
-5.238286
20
11.071489
10
-5.273988
20
11.096744
10
-5.310337
20
11.122061
10
-5.347336
20
11.147434
10
-5.384986
20
11.172853
10
-5.423292
20
11.198311
10
-5.462255
20
11.223799
10
-5.472099
20
11.230175
10
-5.477036
20
11.233363
10
-5.479508
20
11.234958
10
-5.479564
20
11.234962
10
-5.694154
20
11.12774
10
-5.694184
20
11.127693
10
-5.694393
20
11.124759
10
-5.694808
20
11.118896
10
-5.69562
20
11.107196
10
-5.698633
20
11.060735
10
-5.701275
20
11.014817
10
-5.703555
20
10.969446
10
-5.705481
20
10.924625
10
-5.70706
20
10.880355
10
-5.708301
20
10.836641
10
-5.709213
20
10.793484
10
-5.709803
20
10.750888
10
-5.710079
20
10.708853
10
-5.71005
20
10.667383
10
-5.709724
20
10.62648
10
-5.709109
20
10.586145
10
-5.708214
20
10.546382
10
-5.707046
20
10.507191
10
-5.705614
20
10.468575
10
-5.703927
20
10.430535
10
-5.701992
20
10.393073
10
-5.699818
20
10.35619
10
-5.697413
20
10.319889
10
-5.694786
20
10.28417
10
-5.691945
20
10.249034
10
-5.688898
20
10.214484
10
-5.685653
20
10.180519
10
-5.68222
20
10.147142
10
-5.678606
20
10.114352
10
-5.674819
20
10.082151
10
-5.670869
20
10.05054
10
-5.666763
20
10.019518
10
-5.66251
20
9.989087
10
-5.658118
20
9.959248
10
-5.653595
20
9.93
10
-5.764125
20
9.864354
10
-5.764125
20
9.864354
10
-5.875578
20
9.800287
10
-5.898839
20
9.818585
10
-5.922679
20
9.837061
10
-5.947102
20
9.855705
10
-5.972112
20
9.874511
10
-5.997713
20
9.893472
10
-6.023908
20
9.912579
10
-6.0507
20
9.931825
10
-6.078093
20
9.951202
10
-6.10609
20
9.970702
10
-6.134695
20
9.990318
10
-6.16391
20
10.010042
10
-6.193739
20
10.029866
10
-6.224185
20
10.049783
10
-6.25525
20
10.069783
10
-6.286937
20
10.08986
10
-6.319249
20
10.110004
10
-6.352189
20
10.130209
10
-6.385758
20
10.150466
10
-6.419961
20
10.170767
10
-6.454799
20
10.191104
10
-6.490274
20
10.211468
10
-6.526388
20
10.231852
10
-6.563145
20
10.252247
10
-6.600545
20
10.272645
10
-6.638591
20
10.293037
10
-6.677284
20
10.313416
10
-6.716627
20
10.333773
10
-6.756621
20
10.354099
10
-6.797267
20
10.374386
10
-6.838568
20
10.394626
10
-6.880524
20
10.414811
10
-6.891116
20
10.419847
10
-6.896427
20
10.422364
10
-6.899087
20
10.423622
10
-6.899142
20
10.423619
10
-7.097902
20
10.289305
10
-7.097925
20
10.289254
10
-7.097749
20
10.286317
10
-7.097396
20
10.280451
10
-7.096673
20
10.268745
10
-7.093596
20
10.222288
10
-7.090222
20
10.176418
10
-7.08656
20
10.131137
10
-7.082619
20
10.086448
10
-7.078407
20
10.042352
10
-7.073932
20
9.998849
10
-7.069202
20
9.955943
10
-7.064227
20
9.913634
10
-7.059014
20
9.871922
10
-7.053573
20
9.830811
10
-7.047911
20
9.7903
10
-7.042036
20
9.750391
10
-7.035958
20
9.711085
10
-7.029685
20
9.672381
10
-7.023225
20
9.634282
10
-7.016587
20
9.596788
10
-7.009779
20
9.559899
10
-7.00281
20
9.523616
10
-6.995687
20
9.487939
10
-6.98842
20
9.452869
10
-6.981017
20
9.418405
10
-6.973486
20
9.384547
10
-6.965836
20
9.351297
10
-6.958076
20
9.318653
10
-6.950212
20
9.286616
10
-6.942255
20
9.255184
10
-6.934213
20
9.224359
10
-6.926093
20
9.194139
10
-6.917904
20
9.164524
10
-6.909654
20
9.135513
10
-6.901353
20
9.107105
10
-7.002369
20
9.027594
10
-7.002369
20
9.027594
10
-7.104506
20
8.949527
10
-7.129956
20
8.964633
10
-7.156003
20
8.979838
10
-7.182651
20
8.995136
10
-7.209902
20
9.010516
10
-7.237759
20
9.025973
10
-7.266224
20
9.041497
10
-7.295299
20
9.057082
10
-7.324987
20
9.072717
10
-7.35529
20
9.088397
10
-7.38621
20
9.104111
10
-7.41775
20
9.119853
10
-7.449911
20
9.135614
10
-7.482696
20
9.151386
10
-7.516105
20
9.167161
10
-7.550142
20
9.182929
10
-7.584807
20
9.198684
10
-7.620102
20
9.214417
10
-7.656029
20
9.230119
10
-7.692589
20
9.245782
10
-7.729783
20
9.261397
10
-7.767613
20
9.276957
10
-7.806079
20
9.292452
10
-7.845183
20
9.307875
10
-7.884925
20
9.323217
10
-7.925307
20
9.338469
10
-7.96633
20
9.353623
10
-8.007993
20
9.36867
10
-8.050298
20
9.383602
10
-8.093245
20
9.39841
10
-8.136834
20
9.413087
10
-8.181066
20
9.427622
10
-8.192225
20
9.431233
10
-8.197819
20
9.433034
10
-8.20062
20
9.433934
10
-8.200674
20
9.433925
10
-8.380202
20
9.274816
10
-8.380218
20
9.274763
10
-8.379661
20
9.271874
10
-8.378544
20
9.266104
10
-8.376301
20
9.254592
10
-8.367185
20
9.208934
10
-8.357853
20
9.163897
10
-8.348313
20
9.119482
10
-8.338572
20
9.07569
10
-8.32864
20
9.032521
10
-8.318525
20
8.989975
10
-8.308235
20
8.948052
10
-8.29778
20
8.906754
10
-8.287168
20
8.866081
10
-8.276407
20
8.826031
10
-8.265505
20
8.786606
10
-8.254472
20
8.747805
10
-8.243316
20
8.709628
10
-8.232044
20
8.672075
10
-8.220667
20
8.635145
10
-8.209191
20
8.598838
10
-8.197627
20
8.563153
10
-8.185981
20
8.52809
10
-8.174263
20
8.493648
10
-8.16248
20
8.459826
10
-8.150642
20
8.426623
10
-8.138756
20
8.394039
10
-8.126832
20
8.362071
10
-8.114877
20
8.33072
10
-8.102899
20
8.299982
10
-8.090907
20
8.269859
10
-8.07891
20
8.240347
10
-8.066915
20
8.211445
10
-8.054931
20
8.183152
10
-8.042965
20
8.155466
10
-8.031027
20
8.128385
10
-8.1208
20
8.036369
10
-8.1208
20
8.036369
10
-8.211873
20
7.945639
10
-8.239077
20
7.957293
10
-8.266887
20
7.968969
10
-8.295304
20
7.980657
10
-8.324329
20
7.992349
10
-8.353965
20
8.004037
10
-8.384212
20
8.015714
10
-8.415073
20
8.027369
10
-8.446548
20
8.038996
10
-8.478638
20
8.050586
10
-8.511345
20
8.062131
10
-8.54467
20
8.073621
10
-8.578613
20
8.085049
10
-8.613176
20
8.096407
10
-8.648359
20
8.107686
10
-8.684162
20
8.118877
10
-8.720587
20
8.129972
10
-8.757634
20
8.140963
10
-8.795303
20
8.151841
10
-8.833594
20
8.162598
10
-8.872509
20
8.173225
10
-8.912045
20
8.183714
10
-8.952205
20
8.194056
10
-8.992988
20
8.204243
10
-9.034393
20
8.214266
10
-9.07642
20
8.224117
10
-9.11907
20
8.233786
10
-9.16234
20
8.243267
10
-9.206232
20
8.252549
10
-9.250745
20
8.261625
10
-9.295877
20
8.270486
10
-9.341627
20
8.279124
10
-9.353162
20
8.281247
10
-9.358943
20
8.282303
10
-9.361838
20
8.28283
10
-9.361891
20
8.282813
10
-9.519115
20
8.101633
10
-9.519124
20
8.101578
10
-9.518194
20
8.098787
10
-9.516334
20
8.093212
10
-9.512607
20
8.082092
10
-9.49761
20
8.038014
10
-9.482479
20
7.99458
10
-9.467223
20
7.951791
10
-9.451849
20
7.909644
10
-9.436368
20
7.86814
10
-9.420786
20
7.827279
10
-9.405113
20
7.787058
10
-9.389356
20
7.747478
10
-9.373526
20
7.708538
10
-9.357629
20
7.670235
10
-9.341675
20
7.63257
10
-9.325672
20
7.595541
10
-9.309627
20
7.559147
10
-9.293551
20
7.523387
10
-9.27745
20
7.488258
10
-9.261334
20
7.453759
10
-9.245211
20
7.419889
10
-9.229088
20
7.386646
10
-9.212974
20
7.354028
10
-9.196878
20
7.322034
10
-9.180807
20
7.29066
10
-9.16477
20
7.259906
10
-9.148775
20
7.229768
10
-9.13283
20
7.200245
10
-9.116943
20
7.171334
10
-9.101122
20
7.143034
10
-9.085375
20
7.11534
10
-9.06971
20
7.088251
10
-9.054135
20
7.061765
10
-9.038658
20
7.035877
10
-9.023287
20
7.010586
10
-9.100282
20
6.90764
10
-9.100282
20
6.90764
10
-9.178733
20
6.805798
10
-9.207226
20
6.813802
10
-9.236322
20
6.821748
10
-9.266021
20
6.829627
10
-9.296324
20
6.83743
10
-9.327232
20
6.845151
10
-9.358745
20
6.852779
10
-9.390863
20
6.860307
10
-9.423586
20
6.867726
10
-9.456915
20
6.875028
10
-9.490849
20
6.882204
10
-9.525388
20
6.889247
10
-9.560533
20
6.896147
10
-9.596282
20
6.902896
10
-9.632636
20
6.909486
10
-9.669594
20
6.915908
10
-9.707156
20
6.922154
10
-9.74532
20
6.928216
10
-9.784087
20
6.934084
10
-9.823455
20
6.939751
10
-9.863423
20
6.945208
10
-9.903991
20
6.950446
10
-9.945157
20
6.955458
10
-9.98692
20
6.960234
10
-10.029279
20
6.964767
10
-10.072233
20
6.969048
10
-10.115779
20
6.973068
10
-10.159918
20
6.976819
10
-10.204646
20
6.980293
10
-10.249962
20
6.983481
10
-10.295864
20
6.986376
10
-10.342351
20
6.988968
10
-10.354064
20
6.989567
10
-10.359934
20
6.98986
10
-10.362872
20
6.990004
10
-10.362923
20
6.989981
10
-10.495153
20
6.789829
10
-10.495154
20
6.789773
10
-10.493869
20
6.787127
10
-10.491297
20
6.781842
10
-10.48615
20
6.771304
10
-10.465528
20
6.729561
10
-10.444858
20
6.688474
10
-10.424146
20
6.648041
10
-10.403403
20
6.608262
10
-10.382637
20
6.569134
10
-10.361855
20
6.530656
10
-10.341066
20
6.492825
10
-10.320278
20
6.45564
10
-10.2995
20
6.419099
10
-10.27874
20
6.3832
10
-10.258006
20
6.347939
10
-10.237306
20
6.313316
10
-10.216649
20
6.279328
10
-10.196042
20
6.245971
10
-10.175494
20
6.213244
10
-10.155013
20
6.181145
10
-10.134606
20
6.149669
10
-10.114282
20
6.118815
10
-10.094049
20
6.088579
10
-10.073914
20
6.058959
10
-10.053886
20
6.029952
10
-10.033972
20
6.001554
10
-10.01418
20
5.973762
10
-9.994518
20
5.946573
10
-9.974993
20
5.919983
10
-9.955613
20
5.893989
10
-9.936386
20
5.868588
10
-9.91732
20
5.843776
10
-9.898421
20
5.819549
10
-9.879698
20
5.795903
10
-9.861157
20
5.772835
10
-9.924056
20
5.660719
10
-9.924056
20
5.660719
10
-9.988543
20
5.549508
10
-10.017837
20
5.553725
10
-10.047721
20
5.557805
10
-10.078194
20
5.56174
10
-10.109257
20
5.565521
10
-10.140908
20
5.569141
10
-10.173147
20
5.572591
10
-10.205972
20
5.575862
10
-10.239384
20
5.578947
10
-10.273381
20
5.581836
10
-10.307961
20
5.584522
10
-10.343124
20
5.586996
10
-10.378869
20
5.58925
10
-10.415193
20
5.591275
10
-10.452096
20
5.593063
10
-10.489577
20
5.594606
10
-10.527632
20
5.595896
10
-10.566261
20
5.596924
10
-10.605462
20
5.597682
10
-10.645233
20
5.598162
10
-10.685572
20
5.598355
10
-10.726476
20
5.598254
10
-10.767944
20
5.597849
10
-10.809973
20
5.597134
10
-10.852562
20
5.596099
10
-10.895707
20
5.594736
10
-10.939405
20
5.593038
10
-10.983656
20
5.590996
10
-11.028454
20
5.588602
10
-11.073799
20
5.585848
10
-11.119687
20
5.582726
10
-11.166114
20
5.579228
10
-11.177805
20
5.578294
10
-11.183663
20
5.577818
10
-11.186595
20
5.577578
10
-11.186642
20
5.577548
10
-11.291616
20
5.361848
10
-11.29161
20
5.361793
10
-11.28999
20
5.359337
10
-11.28675
20
5.354434
10
-11.280272
20
5.344657
10
-11.254378
20
5.305963
10
-11.228521
20
5.267925
10
-11.20271
20
5.230542
10
-11.176952
20
5.193811
10
-11.151256
20
5.157728
10
-11.125629
20
5.122292
10
-11.10008
20
5.087498
10
-11.074617
20
5.053345
10
-11.049247
20
5.019828
10
-11.023979
20
4.986946
10
-10.99882
20
4.954693
10
-10.973778
20
4.923068
10
-10.948861
20
4.892067
10
-10.924077
20
4.861685
10
-10.899433
20
4.831921
10
-10.874937
20
4.802769
10
-10.850596
20
4.774226
10
-10.826419
20
4.746289
10
-10.802412
20
4.718953
10
-10.778584
20
4.692214
10
-10.75494
20
4.666069
10
-10.73149
20
4.640513
10
-10.70824
20
4.615542
10
-10.685197
20
4.591152
10
-10.662368
20
4.567339
10
-10.639762
20
4.544097
10
-10.617384
20
4.521423
10
-10.595242
20
4.499311
10
-10.573342
20
4.477758
10
-10.551693
20
4.456759
10
-10.5303
20
4.436308
10
-10.578026
20
4.316941
10
-10.578026
20
4.316941
10
-10.627446
20
4.198265
10
-10.657039
20
4.198622
10
-10.6872
20
4.198766
10
-10.717926
20
4.19869
10
-10.749217
20
4.198385
10
-10.78107
20
4.197842
10
-10.813483
20
4.197055
10
-10.846455
20
4.196013
10
-10.879983
20
4.19471
10
-10.914066
20
4.193137
10
-10.948701
20
4.191287
10
-10.983887
20
4.18915
10
-11.01962
20
4.186718
10
-11.055898
20
4.183985
10
-11.092719
20
4.180941
10
-11.130079
20
4.177579
10
-11.167978
20
4.173891
10
-11.206411
20
4.169868
10
-11.245375
20
4.165503
10
-11.284868
20
4.160787
10
-11.324887
20
4.155714
10
-11.365428
20
4.150274
10
-11.406489
20
4.14446
10
-11.448065
20
4.138265
10
-11.490154
20
4.13168
10
-11.532752
20
4.124697
10
-11.575855
20
4.11731
10
-11.61946
20
4.10951
10
-11.663563
20
4.101289
10
-11.708161
20
4.09264
10
-11.753248
20
4.083555
10
-11.798822
20
4.074027
10
-11.810291
20
4.071575
10
-11.816037
20
4.070338
10
-11.818912
20
4.069717
10
-11.818955
20
4.069681
10
-11.894876
20
3.842126
10
-11.894863
20
3.842071
10
-11.892937
20
3.839848
10
-11.889084
20
3.835409
10
-11.881385
20
3.826562
10
-11.850662
20
3.791578
10
-11.820062
20
3.757241
10
-11.789592
20
3.723547
10
-11.75926
20
3.690492
10
-11.729074
20
3.658072
10
-11.699041
20
3.626284
10
-11.669169
20
3.595123
10
-11.639466
20
3.564585
10
-11.609938
20
3.534667
10
-11.580594
20
3.505364
10
-11.551441
20
3.476671
10
-11.522485
20
3.448585
10
-11.493735
20
3.421101
10
-11.465197
20
3.394215
10
-11.436879
20
3.367921
10
-11.408787
20
3.342216
10
-11.38093
20
3.317095
10
-11.353312
20
3.292552
10
-11.325943
20
3.268584
10
-11.298828
20
3.245184
10
-11.271975
20
3.222349
10
-11.245389
20
3.200073
10
-11.219078
20
3.17835
10
-11.193049
20
3.157176
10
-11.167308
20
3.136546
10
-11.141861
20
3.116454
10
-11.116715
20
3.096895
10
-11.091876
20
3.077863
10
-11.067351
20
3.059352
10
-11.043145
20
3.041358
10
-11.019266
20
3.023875
10
-11.051004
20
2.8993
10
-11.051004
20
2.8993
10
-11.08451
20
2.775188
10
-11.113897
20
2.77168
10
-11.143819
20
2.767886
10
-11.174272
20
2.7638
10
-11.205255
20
2.759413
10
-11.236765
20
2.754717
10
-11.268798
20
2.749706
10
-11.301352
20
2.744369
10
-11.334423
20
2.738701
10
-11.368009
20
2.732693
10
-11.402106
20
2.726337
10
-11.436712
20
2.719626
10
-11.471822
20
2.712552
10
-11.507433
20
2.705106
10
-11.543541
20
2.697282
10
-11.580144
20
2.689073
10
-11.617236
20
2.680469
10
-11.654815
20
2.671464
10
-11.692877
20
2.66205
10
-11.731416
20
2.65222
10
-11.77043
20
2.641967
10
-11.809915
20
2.631282
10
-11.849865
20
2.620158
10
-11.890277
20
2.608589
10
-11.931147
20
2.596567
10
-11.972469
20
2.584084
10
-12.014239
20
2.571133
10
-12.056453
20
2.557708
10
-12.099106
20
2.543801
10
-12.142192
20
2.529405
10
-12.185708
20
2.514513
10
-12.229649
20
2.499118
10
-12.240699
20
2.49519
10
-12.246234
20
2.493213
10
-12.249004
20
2.492222
10
-12.249042
20
2.492181
10
-12.294612
20
2.256663
10
-12.294592
20
2.256611
10
-12.292392
20
2.254658
10
-12.287993
20
2.25076
10
-12.279205
20
2.242993
10
-12.244179
20
2.212319
10
-12.209358
20
2.18227
10
-12.174751
20
2.152841
10
-12.140364
20
2.124028
10
-12.106204
20
2.095826
10
-12.072279
20
2.068229
10
-12.038596
20
2.041234
10
-12.00516
20
2.014835
10
-11.97198
20
1.989026
10
-11.939062
20
1.963804
10
-11.906413
20
1.939162
10
-11.874039
20
1.915096
10
-11.841948
20
1.8916
10
-11.810145
20
1.868668
10
-11.778637
20
1.846296
10
-11.74743
20
1.824478
10
-11.716532
20
1.803207
10
-11.685948
20
1.782479
10
-11.655684
20
1.762288
10
-11.625747
20
1.742628
10
-11.596142
20
1.723493
10
-11.566877
20
1.704878
10
-11.537956
20
1.686775
10
-11.509385
20
1.66918
10
-11.481171
20
1.652086
10
-11.453319
20
1.635488
10
-11.425835
20
1.619378
10
-11.398725
20
1.603751
10
-11.371993
20
1.5886
10
-11.345646
20
1.573919
10
-11.319689
20
1.559702
10
-11.334896
20
1.43205
10
-11.334896
20
1.43205
10
-11.351915
20
1.304627
10
-11.380593
20
1.297313
10
-11.409763
20
1.289646
10
-11.439423
20
1.28162
10
-11.469568
20
1.273226
10
-11.500195
20
1.264458
10
-11.5313
20
1.255308
10
-11.562879
20
1.245769
10
-11.594928
20
1.235832
10
-11.627442
20
1.225492
10
-11.660418
20
1.21474
10
-11.693851
20
1.203569
10
-11.727738
20
1.191972
10
-11.762072
20
1.179942
10
-11.796851
20
1.167472
10
-11.832068
20
1.154555
10
-11.867721
20
1.141184
10
-11.903803
20
1.127351
10
-11.94031
20
1.113049
10
-11.977237
20
1.098273
10
-12.014579
20
1.083015
10
-12.052331
20
1.067267
10
-12.090487
20
1.051025
10
-12.129044
20
1.03428
10
-12.167994
20
1.017026
10
-12.207333
20
0.999256
10
-12.247056
20
0.980964
10
-12.287156
20
0.962144
10
-12.327629
20
0.942788
10
-12.368468
20
0.922892
10
-12.409668
20
0.902447
10
-12.451223
20
0.881448
10
-12.461666
20
0.876111
10
-12.466896
20
0.873429
10
-12.469513
20
0.872085
10
-12.469545
20
0.87204
10
-12.483983
20
0.632588
10
-12.483957
20
0.632539
10
-12.48152
20
0.63089
10
-12.476651
20
0.627599
10
-12.466924
20
0.621046
10
-12.428194
20
0.595206
10
-12.389749
20
0.569959
10
-12.351596
20
0.545299
10
-12.313743
20
0.521221
10
-12.276194
20
0.497719
10
-12.238957
20
0.474787
10
-12.202038
20
0.452419
10
-12.165443
20
0.43061
10
-12.129178
20
0.409353
10
-12.09325
20
0.388643
10
-12.057663
20
0.368474
10
-12.022425
20
0.348839
10
-11.987541
20
0.329733
10
-11.953017
20
0.311149
10
-11.918859
20
0.29308
10
-11.885072
20
0.275522
10
-11.851661
20
0.258466
10
-11.818633
20
0.241908
10
-11.785993
20
0.22584
10
-11.753745
20
0.210255
10
-11.721897
20
0.195148
10
-11.690452
20
0.180512
10
-11.659415
20
0.166339
10
-11.628793
20
0.152624
10
-11.598589
20
0.139359
10
-11.568809
20
0.126538
10
-11.539457
20
0.114153
10
-11.510539
20
0.102198
10
-11.482058
20
0.090666
10
-11.454021
20
0.07955
10
-11.42643
20
0.068843
10
-11.424844
20
-0.059702
10
-11.424844
20
-0.059702
10
-11.425086
20
-0.188256
10
-11.452564
20
-0.199251
10
-11.480484
20
-0.21066
10
-11.508842
20
-0.222489
10
-11.537634
20
-0.234745
10
-11.566854
20
-0.247436
10
-11.596499
20
-0.260568
10
-11.626562
20
-0.274148
10
-11.65704
20
-0.288182
10
-11.687927
20
-0.302678
10
-11.719217
20
-0.317643
10
-11.750906
20
-0.333082
10
-11.782989
20
-0.349002
10
-11.815459
20
-0.365411
10
-11.848313
20
-0.382313
10
-11.881543
20
-0.399717
10
-11.915145
20
-0.417628
10
-11.949113
20
-0.436052
10
-11.983441
20
-0.454996
10
-12.018123
20
-0.474466
10
-12.053154
20
-0.494468
10
-12.088528
20
-0.515008
10
-12.124238
20
-0.536092
10
-12.160278
20
-0.557727
10
-12.196644
20
-0.579917
10
-12.233327
20
-0.60267
10
-12.270322
20
-0.62599
10
-12.307623
20
-0.649883
10
-12.345223
20
-0.674356
10
-12.383116
20
-0.699413
10
-12.421294
20
-0.72506
10
-12.459753
20
-0.751304
10
-12.46941
20
-0.757958
10
-12.474245
20
-0.761299
10
-12.476664
20
-0.762974
10
-12.47669
20
-0.763023
10
-12.45975
20
-1.002311
10
-12.459718
20
-1.002356
10
-12.457087
20
-1.003673
10
-12.451829
20
-1.0063
10
-12.441331
20
-1.011527
10
-12.399559
20
-1.03209
10
-12.358147
20
-1.052103
10
-12.317103
20
-1.071572
10
-12.27643
20
-1.090504
10
-12.236135
20
-1.108904
10
-12.196223
20
-1.12678
10
-12.156701
20
-1.144137
10
-12.117572
20
-1.160983
10
-12.078843
20
-1.177324
10
-12.040518
20
-1.193168
10
-12.002604
20
-1.208519
10
-11.965105
20
-1.223387
10
-11.928025
20
-1.237776
10
-11.891371
20
-1.251695
10
-11.855146
20
-1.26515
10
-11.819356
20
-1.278149
10
-11.784005
20
-1.290697
10
-11.749098
20
-1.302803
10
-11.71464
20
-1.314473
10
-11.680634
20
-1.325715
10
-11.647086
20
-1.336536
10
-11.614
20
-1.346943
10
-11.581379
20
-1.356943
10
-11.549228
20
-1.366544
10
-11.517551
20
-1.375753
10
-11.486352
20
-1.384577
10
-11.455635
20
-1.393025
10
-11.425404
20
-1.401103
10
-11.395662
20
-1.408819
10
-11.366413
20
-1.41618
10
-11.337661
20
-1.423194
10
-11.31931
20
-1.550433
10
-11.31931
20
-1.550433
10
-11.302771
20
-1.677919
10
-11.328578
20
-1.692406
10
-11.35477
20
-1.707362
10
-11.381342
20
-1.722791
10
-11.408287
20
-1.7387
10
-11.435601
20
-1.755097
10
-11.463278
20
-1.771985
10
-11.491312
20
-1.789373
10
-11.519697
20
-1.807266
10
-11.548427
20
-1.82567
10
-11.577497
20
-1.84459
10
-11.6069
20
-1.864033
10
-11.63663
20
-1.884005
10
-11.666681
20
-1.904511
10
-11.697047
20
-1.925558
10
-11.727721
20
-1.94715
10
-11.758698
20
-1.969293
10
-11.78997
20
-1.991994
10
-11.821532
20
-2.015256
10
-11.853376
20
-2.039087
10
-11.885497
20
-2.06349
10
-11.917887
20
-2.088471
10
-11.950539
20
-2.114037
10
-11.983448
20
-2.14019
10
-12.016605
20
-2.166937
10
-12.050005
20
-2.194283
10
-12.08364
20
-2.222233
10
-12.117503
20
-2.25079
10
-12.151587
20
-2.279961
10
-12.185885
20
-2.30975
10
-12.220389
20
-2.340162
10
-12.255093
20
-2.3712
10
-12.263799
20
-2.379058
10
-12.268157
20
-2.383002
10
-12.270337
20
-2.384978
10
-12.270356
20
-2.38503
10
-12.222327
20
-2.62006
10
-12.222289
20
-2.6201
10
-12.219509
20
-2.621062
10
-12.213954
20
-2.62298
10
-12.202863
20
-2.626793
10
-12.158764
20
-2.641728
10
-12.115095
20
-2.656164
10
-12.07186
20
-2.67011
10
-12.029064
20
-2.68357
10
-11.986712
20
-2.696553
10
-11.944809
20
-2.709067
10
-11.903358
20
-2.721117
10
-11.862366
20
-2.732711
10
-11.821835
20
-2.743858
10
-11.781771
20
-2.754563
10
-11.742177
20
-2.764835
10
-11.703057
20
-2.77468
10
-11.664417
20
-2.784107
10
-11.626259
20
-2.793122
10
-11.588588
20
-2.801734
10
-11.551408
20
-2.809949
10
-11.514722
20
-2.817776
10
-11.478533
20
-2.825222
10
-11.442846
20
-2.832295
10
-11.407664
20
-2.839002
10
-11.372991
20
-2.845351
10
-11.338829
20
-2.85135
10
-11.305182
20
-2.857007
10
-11.272053
20
-2.86233
10
-11.239445
20
-2.867325
10
-11.207361
20
-2.872002
10
-11.175805
20
-2.876368
10
-11.144778
20
-2.880431
10
-11.114283
20
-2.884198
10
-11.084323
20
-2.887679
10
-11.054901
20
-2.890881
10
-11.0201
20
-3.014635
10
-11.0201
20
-3.014635
10
-10.987062
20
-3.138871
10
-11.010757
20
-3.156604
10
-11.034773
20
-3.17485
10
-11.059103
20
-3.193615
10
-11.083742
20
-3.212906
10
-11.108682
20
-3.232727
10
-11.133918
20
-3.253084
10
-11.159442
20
-3.273982
10
-11.185249
20
-3.295427
10
-11.211331
20
-3.317423
10
-11.237682
20
-3.339976
10
-11.264296
20
-3.363091
10
-11.291165
20
-3.386772
10
-11.318282
20
-3.411026
10
-11.345641
20
-3.435855
10
-11.373235
20
-3.461267
10
-11.401056
20
-3.487264
10
-11.429098
20
-3.513852
10
-11.457353
20
-3.541035
10
-11.485815
20
-3.568818
10
-11.514475
20
-3.597205
10
-11.543327
20
-3.626201
10
-11.572364
20
-3.655809
10
-11.601577
20
-3.686034
10
-11.630959
20
-3.716881
10
-11.660504
20
-3.748352
10
-11.690203
20
-3.780453
10
-11.720049
20
-3.813186
10
-11.750033
20
-3.846556
10
-11.78015
20
-3.880567
10
-11.81039
20
-3.915222
10
-11.840745
20
-3.950525
10
-11.848351
20
-3.959452
10
-11.852157
20
-3.963931
10
-11.85406
20
-3.966174
10
-11.854072
20
-3.966229
10
-11.775777
20
-4.192978
10
-11.775734
20
-4.193014
10
-11.772852
20
-4.193605
10
-11.767094
20
-4.194781
10
-11.7556
20
-4.197113
10
-11.709929
20
-4.206165
10
-11.664749
20
-4.214778
10
-11.620064
20
-4.22296
10
-11.575878
20
-4.23072
10
-11.532193
20
-4.238064
10
-11.489015
20
-4.245
10
-11.446347
20
-4.251537
10
-11.404191
20
-4.257682
10
-11.362552
20
-4.263443
10
-11.321433
20
-4.268827
10
-11.280837
20
-4.273843
10
-11.240768
20
-4.278498
10
-11.201227
20
-4.2828
10
-11.162219
20
-4.286758
10
-11.123747
20
-4.290379
10
-11.085812
20
-4.293671
10
-11.048418
20
-4.296643
10
-11.011567
20
-4.299301
10
-10.975263
20
-4.301655
10
-10.939506
20
-4.303713
10
-10.9043
20
-4.305482
10
-10.869648
20
-4.306971
10
-10.83555
20
-4.308188
10
-10.80201
20
-4.30914
10
-10.769029
20
-4.309837
10
-10.736609
20
-4.310286
10
-10.704753
20
-4.310495
10
-10.673461
20
-4.310473
10
-10.642735
20
-4.310229
10
-10.612578
20
-4.309769
10
-10.58299
20
-4.309103
10
-10.532333
20
-4.427256
10
-10.532333
20
-4.427256
10
-10.483361
20
-4.546117
10
-10.504539
20
-4.566791
10
-10.525968
20
-4.588015
10
-10.547641
20
-4.609796
10
-10.569551
20
-4.632138
10
-10.59169
20
-4.655045
10
-10.614053
20
-4.678521
10
-10.636631
20
-4.702572
10
-10.659418
20
-4.727202
10
-10.682406
20
-4.752414
10
-10.705588
20
-4.778214
10
-10.728957
20
-4.804605
10
-10.752505
20
-4.831591
10
-10.776224
20
-4.859176
10
-10.800108
20
-4.887365
10
-10.824149
20
-4.91616
10
-10.848339
20
-4.945566
10
-10.872671
20
-4.975587
10
-10.897136
20
-5.006226
10
-10.921728
20
-5.037486
10
-10.946438
20
-5.069371
10
-10.971258
20
-5.101885
10
-10.996182
20
-5.13503
10
-11.0212
20
-5.168809
10
-11.046305
20
-5.203227
10
-11.071489
20
-5.238286
10
-11.096744
20
-5.273988
10
-11.122061
20
-5.310337
10
-11.147434
20
-5.347336
10
-11.172853
20
-5.384986
10
-11.198311
20
-5.423292
10
-11.223799
20
-5.462255
10
-11.230175
20
-5.472099
10
-11.233363
20
-5.477036
10
-11.234958
20
-5.479508
10
-11.234962
20
-5.479564
10
-11.12774
20
-5.694154
10
-11.127693
20
-5.694184
10
-11.124759
20
-5.694393
10
-11.118896
20
-5.694808
10
-11.107196
20
-5.69562
10
-11.060735
20
-5.698633
10
-11.014817
20
-5.701275
10
-10.969446
20
-5.703555
10
-10.924625
20
-5.705481
10
-10.880355
20
-5.70706
10
-10.836641
20
-5.708301
10
-10.793484
20
-5.709213
10
-10.750888
20
-5.709803
10
-10.708853
20
-5.710079
10
-10.667383
20
-5.71005
10
-10.62648
20
-5.709724
10
-10.586145
20
-5.709109
10
-10.546382
20
-5.708214
10
-10.507191
20
-5.707046
10
-10.468575
20
-5.705614
10
-10.430535
20
-5.703927
10
-10.393073
20
-5.701992
10
-10.35619
20
-5.699818
10
-10.319889
20
-5.697413
10
-10.28417
20
-5.694786
10
-10.249034
20
-5.691945
10
-10.214484
20
-5.688898
10
-10.180519
20
-5.685653
10
-10.147142
20
-5.68222
10
-10.114352
20
-5.678606
10
-10.082151
20
-5.674819
10
-10.05054
20
-5.670869
10
-10.019518
20
-5.666763
10
-9.989087
20
-5.66251
10
-9.959248
20
-5.658118
10
-9.93
20
-5.653595
10
-9.864354
20
-5.764125
10
-9.864354
20
-5.764125
10
-9.800287
20
-5.875578
10
-9.818585
20
-5.898839
10
-9.837061
20
-5.922679
10
-9.855705
20
-5.947102
10
-9.874511
20
-5.972112
10
-9.893472
20
-5.997713
10
-9.912579
20
-6.023908
10
-9.931825
20
-6.0507
10
-9.951202
20
-6.078093
10
-9.970702
20
-6.10609
10
-9.990318
20
-6.134695
10
-10.010042
20
-6.16391
10
-10.029866
20
-6.193739
10
-10.049783
20
-6.224185
10
-10.069783
20
-6.25525
10
-10.08986
20
-6.286937
10
-10.110004
20
-6.319249
10
-10.130209
20
-6.352189
10
-10.150466
20
-6.385758
10
-10.170767
20
-6.419961
10
-10.191104
20
-6.454799
10
-10.211468
20
-6.490274
10
-10.231852
20
-6.526388
10
-10.252247
20
-6.563145
10
-10.272645
20
-6.600545
10
-10.293037
20
-6.638591
10
-10.313416
20
-6.677284
10
-10.333773
20
-6.716627
10
-10.354099
20
-6.756621
10
-10.374386
20
-6.797267
10
-10.394626
20
-6.838568
10
-10.414811
20
-6.880524
10
-10.419847
20
-6.891116
10
-10.422364
20
-6.896427
10
-10.423622
20
-6.899087
10
-10.423619
20
-6.899142
10
-10.289305
20
-7.097902
10
-10.289254
20
-7.097925
10
-10.286317
20
-7.097749
10
-10.280451
20
-7.097396
10
-10.268745
20
-7.096673
10
-10.222288
20
-7.093596
10
-10.176418
20
-7.090222
10
-10.131137
20
-7.08656
10
-10.086448
20
-7.082619
10
-10.042352
20
-7.078407
10
-9.998849
20
-7.073932
10
-9.955943
20
-7.069202
10
-9.913634
20
-7.064227
10
-9.871922
20
-7.059014
10
-9.830811
20
-7.053573
10
-9.7903
20
-7.047911
10
-9.750391
20
-7.042036
10
-9.711085
20
-7.035958
10
-9.672381
20
-7.029685
10
-9.634282
20
-7.023225
10
-9.596788
20
-7.016587
10
-9.559899
20
-7.009779
10
-9.523616
20
-7.00281
10
-9.487939
20
-6.995687
10
-9.452869
20
-6.98842
10
-9.418405
20
-6.981017
10
-9.384547
20
-6.973486
10
-9.351297
20
-6.965836
10
-9.318653
20
-6.958076
10
-9.286616
20
-6.950212
10
-9.255184
20
-6.942255
10
-9.224359
20
-6.934213
10
-9.194139
20
-6.926093
10
-9.164524
20
-6.917904
10
-9.135513
20
-6.909654
10
-9.107105
20
-6.901353
10
-9.027594
20
-7.002369
10
-9.027594
20
-7.002369
10
-8.949527
20
-7.104506
10
-8.964633
20
-7.129956
10
-8.979838
20
-7.156003
10
-8.995136
20
-7.182651
10
-9.010516
20
-7.209902
10
-9.025973
20
-7.237759
10
-9.041497
20
-7.266224
10
-9.057082
20
-7.295299
10
-9.072717
20
-7.324987
10
-9.088397
20
-7.35529
10
-9.104111
20
-7.38621
10
-9.119853
20
-7.41775
10
-9.135614
20
-7.449911
10
-9.151386
20
-7.482696
10
-9.167161
20
-7.516105
10
-9.182929
20
-7.550142
10
-9.198684
20
-7.584807
10
-9.214417
20
-7.620102
10
-9.230119
20
-7.656029
10
-9.245782
20
-7.692589
10
-9.261397
20
-7.729783
10
-9.276957
20
-7.767613
10
-9.292452
20
-7.806079
10
-9.307875
20
-7.845183
10
-9.323217
20
-7.884925
10
-9.338469
20
-7.925307
10
-9.353623
20
-7.96633
10
-9.36867
20
-8.007993
10
-9.383602
20
-8.050298
10
-9.39841
20
-8.093245
10
-9.413087
20
-8.136834
10
-9.427622
20
-8.181066
10
-9.431233
20
-8.192225
10
-9.433034
20
-8.197819
10
-9.433934
20
-8.20062
10
-9.433925
20
-8.200674
10
-9.274816
20
-8.380202
10
-9.274763
20
-8.380218
10
-9.271874
20
-8.379661
10
-9.266104
20
-8.378544
10
-9.254592
20
-8.376301
10
-9.208934
20
-8.367185
10
-9.163897
20
-8.357853
10
-9.119482
20
-8.348313
10
-9.07569
20
-8.338572
10
-9.032521
20
-8.32864
10
-8.989975
20
-8.318525
10
-8.948052
20
-8.308235
10
-8.906754
20
-8.29778
10
-8.866081
20
-8.287168
10
-8.826031
20
-8.276407
10
-8.786606
20
-8.265505
10
-8.747805
20
-8.254472
10
-8.709628
20
-8.243316
10
-8.672075
20
-8.232044
10
-8.635145
20
-8.220667
10
-8.598838
20
-8.209191
10
-8.563153
20
-8.197627
10
-8.52809
20
-8.185981
10
-8.493648
20
-8.174263
10
-8.459826
20
-8.16248
10
-8.426623
20
-8.150642
10
-8.394039
20
-8.138756
10
-8.362071
20
-8.126832
10
-8.33072
20
-8.114877
10
-8.299982
20
-8.102899
10
-8.269859
20
-8.090907
10
-8.240347
20
-8.07891
10
-8.211445
20
-8.066915
10
-8.183152
20
-8.054931
10
-8.155466
20
-8.042965
10
-8.128385
20
-8.031027
10
-8.036369
20
-8.1208
10
-8.036369
20
-8.1208
10
-7.945639
20
-8.211873
10
-7.957293
20
-8.239077
10
-7.968969
20
-8.266887
10
-7.980657
20
-8.295304
10
-7.992349
20
-8.324329
10
-8.004037
20
-8.353965
10
-8.015714
20
-8.384212
10
-8.027369
20
-8.415073
10
-8.038996
20
-8.446548
10
-8.050586
20
-8.478638
10
-8.062131
20
-8.511345
10
-8.073621
20
-8.54467
10
-8.085049
20
-8.578613
10
-8.096407
20
-8.613176
10
-8.107686
20
-8.648359
10
-8.118877
20
-8.684162
10
-8.129972
20
-8.720587
10
-8.140963
20
-8.757634
10
-8.151841
20
-8.795303
10
-8.162598
20
-8.833594
10
-8.173225
20
-8.872509
10
-8.183714
20
-8.912045
10
-8.194056
20
-8.952205
10
-8.204243
20
-8.992988
10
-8.214266
20
-9.034393
10
-8.224117
20
-9.07642
10
-8.233786
20
-9.11907
10
-8.243267
20
-9.16234
10
-8.252549
20
-9.206232
10
-8.261625
20
-9.250745
10
-8.270486
20
-9.295877
10
-8.279124
20
-9.341627
10
-8.281247
20
-9.353162
10
-8.282303
20
-9.358943
10
-8.28283
20
-9.361838
10
-8.282813
20
-9.361891
10
-8.101633
20
-9.519115
10
-8.101578
20
-9.519124
10
-8.098787
20
-9.518194
10
-8.093212
20
-9.516334
10
-8.082092
20
-9.512607
10
-8.038014
20
-9.49761
10
-7.99458
20
-9.482479
10
-7.951791
20
-9.467223
10
-7.909644
20
-9.451849
10
-7.86814
20
-9.436368
10
-7.827279
20
-9.420786
10
-7.787058
20
-9.405113
10
-7.747478
20
-9.389356
10
-7.708538
20
-9.373526
10
-7.670235
20
-9.357629
10
-7.63257
20
-9.341675
10
-7.595541
20
-9.325672
10
-7.559147
20
-9.309627
10
-7.523387
20
-9.293551
10
-7.488258
20
-9.27745
10
-7.453759
20
-9.261334
10
-7.419889
20
-9.245211
10
-7.386646
20
-9.229088
10
-7.354028
20
-9.212974
10
-7.322034
20
-9.196878
10
-7.29066
20
-9.180807
10
-7.259906
20
-9.16477
10
-7.229768
20
-9.148775
10
-7.200245
20
-9.13283
10
-7.171334
20
-9.116943
10
-7.143034
20
-9.101122
10
-7.11534
20
-9.085375
10
-7.088251
20
-9.06971
10
-7.061765
20
-9.054135
10
-7.035877
20
-9.038658
10
-7.010586
20
-9.023287
10
-6.90764
20
-9.100282
10
-6.90764
20
-9.100282
10
-6.805798
20
-9.178733
10
-6.813802
20
-9.207226
10
-6.821748
20
-9.236322
10
-6.829627
20
-9.266021
10
-6.83743
20
-9.296324
10
-6.845151
20
-9.327232
10
-6.852779
20
-9.358745
10
-6.860307
20
-9.390863
10
-6.867726
20
-9.423586
10
-6.875028
20
-9.456915
10
-6.882204
20
-9.490849
10
-6.889247
20
-9.525388
10
-6.896147
20
-9.560533
10
-6.902896
20
-9.596282
10
-6.909486
20
-9.632636
10
-6.915908
20
-9.669594
10
-6.922154
20
-9.707156
10
-6.928216
20
-9.74532
10
-6.934084
20
-9.784087
10
-6.939751
20
-9.823455
10
-6.945208
20
-9.863423
10
-6.950446
20
-9.903991
10
-6.955458
20
-9.945157
10
-6.960234
20
-9.98692
10
-6.964767
20
-10.029279
10
-6.969048
20
-10.072233
10
-6.973068
20
-10.115779
10
-6.976819
20
-10.159918
10
-6.980293
20
-10.204646
10
-6.983481
20
-10.249962
10
-6.986376
20
-10.295864
10
-6.988968
20
-10.342351
10
-6.989567
20
-10.354064
10
-6.98986
20
-10.359934
10
-6.990004
20
-10.362872
10
-6.989981
20
-10.362923
10
-6.789829
20
-10.495153
10
-6.789773
20
-10.495154
10
-6.787127
20
-10.493869
10
-6.781842
20
-10.491297
10
-6.771304
20
-10.48615
10
-6.729561
20
-10.465528
10
-6.688474
20
-10.444858
10
-6.648041
20
-10.424146
10
-6.608262
20
-10.403403
10
-6.569134
20
-10.382637
10
-6.530656
20
-10.361855
10
-6.492825
20
-10.341066
10
-6.45564
20
-10.320278
10
-6.419099
20
-10.2995
10
-6.3832
20
-10.27874
10
-6.347939
20
-10.258006
10
-6.313316
20
-10.237306
10
-6.279328
20
-10.216649
10
-6.245971
20
-10.196042
10
-6.213244
20
-10.175494
10
-6.181145
20
-10.155013
10
-6.149669
20
-10.134606
10
-6.118815
20
-10.114282
10
-6.088579
20
-10.094049
10
-6.058959
20
-10.073914
10
-6.029952
20
-10.053886
10
-6.001554
20
-10.033972
10
-5.973762
20
-10.01418
10
-5.946573
20
-9.994518
10
-5.919983
20
-9.974993
10
-5.893989
20
-9.955613
10
-5.868588
20
-9.936386
10
-5.843776
20
-9.91732
10
-5.819549
20
-9.898421
10
-5.795903
20
-9.879698
10
-5.772835
20
-9.861157
10
-5.660719
20
-9.924056
10
-5.660719
20
-9.924056
10
-5.549508
20
-9.988543
10
-5.553725
20
-10.017837
10
-5.557805
20
-10.047721
10
-5.56174
20
-10.078194
10
-5.565521
20
-10.109257
10
-5.569141
20
-10.140908
10
-5.572591
20
-10.173147
10
-5.575862
20
-10.205972
10
-5.578947
20
-10.239384
10
-5.581836
20
-10.273381
10
-5.584522
20
-10.307961
10
-5.586996
20
-10.343124
10
-5.58925
20
-10.378869
10
-5.591275
20
-10.415193
10
-5.593063
20
-10.452096
10
-5.594606
20
-10.489577
10
-5.595896
20
-10.527632
10
-5.596924
20
-10.566261
10
-5.597682
20
-10.605462
10
-5.598162
20
-10.645233
10
-5.598355
20
-10.685572
10
-5.598254
20
-10.726476
10
-5.597849
20
-10.767944
10
-5.597134
20
-10.809973
10
-5.596099
20
-10.852562
10
-5.594736
20
-10.895707
10
-5.593038
20
-10.939405
10
-5.590996
20
-10.983656
10
-5.588602
20
-11.028454
10
-5.585848
20
-11.073799
10
-5.582726
20
-11.119687
10
-5.579228
20
-11.166114
10
-5.578294
20
-11.177805
10
-5.577818
20
-11.183663
10
-5.577578
20
-11.186595
10
-5.577548
20
-11.186642
10
-5.361848
20
-11.291616
10
-5.361793
20
-11.29161
10
-5.359337
20
-11.28999
10
-5.354434
20
-11.28675
10
-5.344657
20
-11.280272
10
-5.305963
20
-11.254378
10
-5.267925
20
-11.228521
10
-5.230542
20
-11.20271
10
-5.193811
20
-11.176952
10
-5.157728
20
-11.151256
10
-5.122292
20
-11.125629
10
-5.087498
20
-11.10008
10
-5.053345
20
-11.074617
10
-5.019828
20
-11.049247
10
-4.986946
20
-11.023979
10
-4.954693
20
-10.99882
10
-4.923068
20
-10.973778
10
-4.892067
20
-10.948861
10
-4.861685
20
-10.924077
10
-4.831921
20
-10.899433
10
-4.802769
20
-10.874937
10
-4.774226
20
-10.850596
10
-4.746289
20
-10.826419
10
-4.718953
20
-10.802412
10
-4.692214
20
-10.778584
10
-4.666069
20
-10.75494
10
-4.640513
20
-10.73149
10
-4.615542
20
-10.70824
10
-4.591152
20
-10.685197
10
-4.567339
20
-10.662368
10
-4.544097
20
-10.639762
10
-4.521423
20
-10.617384
10
-4.499311
20
-10.595242
10
-4.477758
20
-10.573342
10
-4.456759
20
-10.551693
10
-4.436308
20
-10.5303
10
-4.316941
20
-10.578026
10
-4.316941
20
-10.578026
10
-4.198265
20
-10.627446
10
-4.198622
20
-10.657039
10
-4.198766
20
-10.6872
10
-4.19869
20
-10.717926
10
-4.198385
20
-10.749217
10
-4.197842
20
-10.78107
10
-4.197055
20
-10.813483
10
-4.196013
20
-10.846455
10
-4.19471
20
-10.879983
10
-4.193137
20
-10.914066
10
-4.191287
20
-10.948701
10
-4.18915
20
-10.983887
10
-4.186718
20
-11.01962
10
-4.183985
20
-11.055898
10
-4.180941
20
-11.092719
10
-4.177579
20
-11.130079
10
-4.173891
20
-11.167978
10
-4.169868
20
-11.206411
10
-4.165503
20
-11.245375
10
-4.160787
20
-11.284868
10
-4.155714
20
-11.324887
10
-4.150274
20
-11.365428
10
-4.14446
20
-11.406489
10
-4.138265
20
-11.448065
10
-4.13168
20
-11.490154
10
-4.124697
20
-11.532752
10
-4.11731
20
-11.575855
10
-4.10951
20
-11.61946
10
-4.101289
20
-11.663563
10
-4.09264
20
-11.708161
10
-4.083555
20
-11.753248
10
-4.074027
20
-11.798822
10
-4.071575
20
-11.810291
10
-4.070338
20
-11.816037
10
-4.069717
20
-11.818912
10
-4.069681
20
-11.818955
10
-3.842126
20
-11.894876
10
-3.842071
20
-11.894863
10
-3.839848
20
-11.892937
10
-3.835409
20
-11.889084
10
-3.826562
20
-11.881385
10
-3.791578
20
-11.850662
10
-3.757241
20
-11.820062
10
-3.723547
20
-11.789592
10
-3.690492
20
-11.75926
10
-3.658072
20
-11.729074
10
-3.626284
20
-11.699041
10
-3.595123
20
-11.669169
10
-3.564585
20
-11.639466
10
-3.534667
20
-11.609938
10
-3.505364
20
-11.580594
10
-3.476671
20
-11.551441
10
-3.448585
20
-11.522485
10
-3.421101
20
-11.493735
10
-3.394215
20
-11.465197
10
-3.367921
20
-11.436879
10
-3.342216
20
-11.408787
10
-3.317095
20
-11.38093
10
-3.292552
20
-11.353312
10
-3.268584
20
-11.325943
10
-3.245184
20
-11.298828
10
-3.222349
20
-11.271975
10
-3.200073
20
-11.245389
10
-3.17835
20
-11.219078
10
-3.157176
20
-11.193049
10
-3.136546
20
-11.167308
10
-3.116454
20
-11.141861
10
-3.096895
20
-11.116715
10
-3.077863
20
-11.091876
10
-3.059352
20
-11.067351
10
-3.041358
20
-11.043145
10
-3.023875
20
-11.019266
10
-2.8993
20
-11.051004
10
-2.8993
20
-11.051004
10
-2.775188
20
-11.08451
10
-2.77168
20
-11.113897
10
-2.767886
20
-11.143819
10
-2.7638
20
-11.174272
10
-2.759413
20
-11.205255
10
-2.754717
20
-11.236765
10
-2.749706
20
-11.268798
10
-2.744369
20
-11.301352
10
-2.738701
20
-11.334423
10
-2.732693
20
-11.368009
10
-2.726337
20
-11.402106
10
-2.719626
20
-11.436712
10
-2.712552
20
-11.471822
10
-2.705106
20
-11.507433
10
-2.697282
20
-11.543541
10
-2.689073
20
-11.580144
10
-2.680469
20
-11.617236
10
-2.671464
20
-11.654815
10
-2.66205
20
-11.692877
10
-2.65222
20
-11.731416
10
-2.641967
20
-11.77043
10
-2.631282
20
-11.809915
10
-2.620158
20
-11.849865
10
-2.608589
20
-11.890277
10
-2.596567
20
-11.931147
10
-2.584084
20
-11.972469
10
-2.571133
20
-12.014239
10
-2.557708
20
-12.056453
10
-2.543801
20
-12.099106
10
-2.529405
20
-12.142192
10
-2.514513
20
-12.185708
10
-2.499118
20
-12.229649
10
-2.49519
20
-12.240699
10
-2.493213
20
-12.246234
10
-2.492222
20
-12.249004
10
-2.492181
20
-12.249042
10
-2.256663
20
-12.294612
10
-2.256611
20
-12.294592
10
-2.254658
20
-12.292392
10
-2.25076
20
-12.287993
10
-2.242993
20
-12.279205
10
-2.212319
20
-12.244179
10
-2.18227
20
-12.209358
10
-2.152841
20
-12.174751
10
-2.124028
20
-12.140364
10
-2.095826
20
-12.106204
10
-2.068229
20
-12.072279
10
-2.041234
20
-12.038596
10
-2.014835
20
-12.00516
10
-1.989026
20
-11.97198
10
-1.963804
20
-11.939062
10
-1.939162
20
-11.906413
10
-1.915096
20
-11.874039
10
-1.8916
20
-11.841948
10
-1.868668
20
-11.810145
10
-1.846296
20
-11.778637
10
-1.824478
20
-11.74743
10
-1.803207
20
-11.716532
10
-1.782479
20
-11.685948
10
-1.762288
20
-11.655684
10
-1.742628
20
-11.625747
10
-1.723493
20
-11.596142
10
-1.704878
20
-11.566877
10
-1.686775
20
-11.537956
10
-1.66918
20
-11.509385
10
-1.652086
20
-11.481171
10
-1.635488
20
-11.453319
10
-1.619378
20
-11.425835
10
-1.603751
20
-11.398725
10
-1.5886
20
-11.371993
10
-1.573919
20
-11.345646
10
-1.559702
20
-11.319689
10
-1.43205
20
-11.334896
10
-1.43205
20
-11.334896
10
-1.304627
20
-11.351915
10
-1.297313
20
-11.380593
10
-1.289646
20
-11.409763
10
-1.28162
20
-11.439423
10
-1.273226
20
-11.469568
10
-1.264458
20
-11.500195
10
-1.255308
20
-11.5313
10
-1.245769
20
-11.562879
10
-1.235832
20
-11.594928
10
-1.225492
20
-11.627442
10
-1.21474
20
-11.660418
10
-1.203569
20
-11.693851
10
-1.191972
20
-11.727738
10
-1.179942
20
-11.762072
10
-1.167472
20
-11.796851
10
-1.154555
20
-11.832068
10
-1.141184
20
-11.867721
10
-1.127351
20
-11.903803
10
-1.113049
20
-11.94031
10
-1.098273
20
-11.977237
10
-1.083015
20
-12.014579
10
-1.067267
20
-12.052331
10
-1.051025
20
-12.090487
10
-1.03428
20
-12.129044
10
-1.017026
20
-12.167994
10
-0.999256
20
-12.207333
10
-0.980964
20
-12.247056
10
-0.962144
20
-12.287156
10
-0.942788
20
-12.327629
10
-0.922892
20
-12.368468
10
-0.902447
20
-12.409668
10
-0.881448
20
-12.451223
10
-0.876111
20
-12.461666
10
-0.873429
20
-12.466896
10
-0.872085
20
-12.469513
10
-0.87204
20
-12.469545
10
-0.632588
20
-12.483983
10
-0.632539
20
-12.483957
10
-0.63089
20
-12.48152
10
-0.627599
20
-12.476651
10
-0.621046
20
-12.466924
10
-0.595206
20
-12.428194
10
-0.569959
20
-12.389749
10
-0.545299
20
-12.351596
10
-0.521221
20
-12.313743
10
-0.497719
20
-12.276194
10
-0.474787
20
-12.238957
10
-0.452419
20
-12.202038
10
-0.43061
20
-12.165443
10
-0.409353
20
-12.129178
10
-0.388643
20
-12.09325
10
-0.368474
20
-12.057663
10
-0.348839
20
-12.022425
10
-0.329733
20
-11.987541
10
-0.311149
20
-11.953017
10
-0.29308
20
-11.918859
10
-0.275522
20
-11.885072
10
-0.258466
20
-11.851661
10
-0.241908
20
-11.818633
10
-0.22584
20
-11.785993
10
-0.210255
20
-11.753745
10
-0.195148
20
-11.721897
10
-0.180512
20
-11.690452
10
-0.166339
20
-11.659415
10
-0.152624
20
-11.628793
10
-0.139359
20
-11.598589
10
-0.126538
20
-11.568809
10
-0.114153
20
-11.539457
10
-0.102198
20
-11.510539
10
-0.090666
20
-11.482058
10
-0.07955
20
-11.454021
10
-0.068843
20
-11.42643
10
0.059702
20
-11.424844
10
0.059702
20
-11.424844
10
0.188256
20
-11.425086
10
0.199251
20
-11.452564
10
0.21066
20
-11.480484
10
0.222489
20
-11.508842
10
0.234745
20
-11.537634
10
0.247436
20
-11.566854
10
0.260568
20
-11.596499
10
0.274148
20
-11.626562
10
0.288182
20
-11.65704
10
0.302678
20
-11.687927
10
0.317643
20
-11.719217
10
0.333082
20
-11.750906
10
0.349002
20
-11.782989
10
0.365411
20
-11.815459
10
0.382313
20
-11.848313
10
0.399717
20
-11.881543
10
0.417628
20
-11.915145
10
0.436052
20
-11.949113
10
0.454996
20
-11.983441
10
0.474466
20
-12.018123
10
0.494468
20
-12.053154
10
0.515008
20
-12.088528
10
0.536092
20
-12.124238
10
0.557727
20
-12.160278
10
0.579917
20
-12.196644
10
0.60267
20
-12.233327
10
0.62599
20
-12.270322
10
0.649883
20
-12.307623
10
0.674356
20
-12.345223
10
0.699413
20
-12.383116
10
0.72506
20
-12.421294
10
0.751304
20
-12.459753
10
0.757958
20
-12.46941
10
0.761299
20
-12.474245
10
0.762974
20
-12.476664
10
0.763023
20
-12.47669
10
1.002311
20
-12.45975
10
1.002356
20
-12.459718
10
1.003673
20
-12.457087
10
1.0063
20
-12.451829
10
1.011527
20
-12.441331
10
1.03209
20
-12.399559
10
1.052103
20
-12.358147
10
1.071572
20
-12.317103
10
1.090504
20
-12.27643
10
1.108904
20
-12.236135
10
1.12678
20
-12.196223
10
1.144137
20
-12.156701
10
1.160983
20
-12.117572
10
1.177324
20
-12.078843
10
1.193168
20
-12.040518
10
1.208519
20
-12.002604
10
1.223387
20
-11.965105
10
1.237776
20
-11.928025
10
1.251695
20
-11.891371
10
1.26515
20
-11.855146
10
1.278149
20
-11.819356
10
1.290697
20
-11.784005
10
1.302803
20
-11.749098
10
1.314473
20
-11.71464
10
1.325715
20
-11.680634
10
1.336536
20
-11.647086
10
1.346943
20
-11.614
10
1.356943
20
-11.581379
10
1.366544
20
-11.549228
10
1.375753
20
-11.517551
10
1.384577
20
-11.486352
10
1.393025
20
-11.455635
10
1.401103
20
-11.425404
10
1.408819
20
-11.395662
10
1.41618
20
-11.366413
10
1.423194
20
-11.337661
10
1.550433
20
-11.31931
10
1.550433
20
-11.31931
10
1.677919
20
-11.302771
10
1.692406
20
-11.328578
10
1.707362
20
-11.35477
10
1.722791
20
-11.381342
10
1.7387
20
-11.408287
10
1.755097
20
-11.435601
10
1.771985
20
-11.463278
10
1.789373
20
-11.491312
10
1.807266
20
-11.519697
10
1.82567
20
-11.548427
10
1.84459
20
-11.577497
10
1.864033
20
-11.6069
10
1.884005
20
-11.63663
10
1.904511
20
-11.666681
10
1.925558
20
-11.697047
10
1.94715
20
-11.727721
10
1.969293
20
-11.758698
10
1.991994
20
-11.78997
10
2.015256
20
-11.821532
10
2.039087
20
-11.853376
10
2.06349
20
-11.885497
10
2.088471
20
-11.917887
10
2.114037
20
-11.950539
10
2.14019
20
-11.983448
10
2.166937
20
-12.016605
10
2.194283
20
-12.050005
10
2.222233
20
-12.08364
10
2.25079
20
-12.117503
10
2.279961
20
-12.151587
10
2.30975
20
-12.185885
10
2.340162
20
-12.220389
10
2.3712
20
-12.255093
10
2.379058
20
-12.263799
10
2.383002
20
-12.268157
10
2.384978
20
-12.270337
10
2.38503
20
-12.270356
10
2.62006
20
-12.222327
10
2.6201
20
-12.222289
10
2.621062
20
-12.219509
10
2.62298
20
-12.213954
10
2.626793
20
-12.202863
10
2.641728
20
-12.158764
10
2.656164
20
-12.115095
10
2.67011
20
-12.07186
10
2.68357
20
-12.029064
10
2.696553
20
-11.986712
10
2.709067
20
-11.944809
10
2.721117
20
-11.903358
10
2.732711
20
-11.862366
10
2.743858
20
-11.821835
10
2.754563
20
-11.781771
10
2.764835
20
-11.742177
10
2.77468
20
-11.703057
10
2.784107
20
-11.664417
10
2.793122
20
-11.626259
10
2.801734
20
-11.588588
10
2.809949
20
-11.551408
10
2.817776
20
-11.514722
10
2.825222
20
-11.478533
10
2.832295
20
-11.442846
10
2.839002
20
-11.407664
10
2.845351
20
-11.372991
10
2.85135
20
-11.338829
10
2.857007
20
-11.305182
10
2.86233
20
-11.272053
10
2.867325
20
-11.239445
10
2.872002
20
-11.207361
10
2.876368
20
-11.175805
10
2.880431
20
-11.144778
10
2.884198
20
-11.114283
10
2.887679
20
-11.084323
10
2.890881
20
-11.054901
10
3.014635
20
-11.0201
10
3.014635
20
-11.0201
10
3.138871
20
-10.987062
10
3.156604
20
-11.010757
10
3.17485
20
-11.034773
10
3.193615
20
-11.059103
10
3.212906
20
-11.083742
10
3.232727
20
-11.108682
10
3.253084
20
-11.133918
10
3.273982
20
-11.159442
10
3.295427
20
-11.185249
10
3.317423
20
-11.211331
10
3.339976
20
-11.237682
10
3.363091
20
-11.264296
10
3.386772
20
-11.291165
10
3.411026
20
-11.318282
10
3.435855
20
-11.345641
10
3.461267
20
-11.373235
10
3.487264
20
-11.401056
10
3.513852
20
-11.429098
10
3.541035
20
-11.457353
10
3.568818
20
-11.485815
10
3.597205
20
-11.514475
10
3.626201
20
-11.543327
10
3.655809
20
-11.572364
10
3.686034
20
-11.601577
10
3.716881
20
-11.630959
10
3.748352
20
-11.660504
10
3.780453
20
-11.690203
10
3.813186
20
-11.720049
10
3.846556
20
-11.750033
10
3.880567
20
-11.78015
10
3.915222
20
-11.81039
10
3.950525
20
-11.840745
10
3.959452
20
-11.848351
10
3.963931
20
-11.852157
10
3.966174
20
-11.85406
10
3.966229
20
-11.854072
10
4.192978
20
-11.775777
10
4.193014
20
-11.775734
10
4.193605
20
-11.772852
10
4.194781
20
-11.767094
10
4.197113
20
-11.7556
10
4.206165
20
-11.709929
10
4.214778
20
-11.664749
10
4.22296
20
-11.620064
10
4.23072
20
-11.575878
10
4.238064
20
-11.532193
10
4.245
20
-11.489015
10
4.251537
20
-11.446347
10
4.257682
20
-11.404191
10
4.263443
20
-11.362552
10
4.268827
20
-11.321433
10
4.273843
20
-11.280837
10
4.278498
20
-11.240768
10
4.2828
20
-11.201227
10
4.286758
20
-11.162219
10
4.290379
20
-11.123747
10
4.293671
20
-11.085812
10
4.296643
20
-11.048418
10
4.299301
20
-11.011567
10
4.301655
20
-10.975263
10
4.303713
20
-10.939506
10
4.305482
20
-10.9043
10
4.306971
20
-10.869648
10
4.308188
20
-10.83555
10
4.30914
20
-10.80201
10
4.309837
20
-10.769029
10
4.310286
20
-10.736609
10
4.310495
20
-10.704753
10
4.310473
20
-10.673461
10
4.310229
20
-10.642735
10
4.309769
20
-10.612578
10
4.309103
20
-10.58299
10
4.427256
20
-10.532333
10
4.427256
20
-10.532333
10
4.546117
20
-10.483361
10
4.566791
20
-10.504539
10
4.588015
20
-10.525968
10
4.609796
20
-10.547641
10
4.632138
20
-10.569551
10
4.655045
20
-10.59169
10
4.678521
20
-10.614053
10
4.702572
20
-10.636631
10
4.727202
20
-10.659418
10
4.752414
20
-10.682406
10
4.778214
20
-10.705588
10
4.804605
20
-10.728957
10
4.831591
20
-10.752505
10
4.859176
20
-10.776224
10
4.887365
20
-10.800108
10
4.91616
20
-10.824149
10
4.945566
20
-10.848339
10
4.975587
20
-10.872671
10
5.006226
20
-10.897136
10
5.037486
20
-10.921728
10
5.069371
20
-10.946438
10
5.101885
20
-10.971258
10
5.13503
20
-10.996182
10
5.168809
20
-11.0212
10
5.203227
20
-11.046305
10
5.238286
20
-11.071489
10
5.273988
20
-11.096744
10
5.310337
20
-11.122061
10
5.347336
20
-11.147434
10
5.384986
20
-11.172853
10
5.423292
20
-11.198311
10
5.462255
20
-11.223799
10
5.472099
20
-11.230175
10
5.477036
20
-11.233363
10
5.479508
20
-11.234958
10
5.479564
20
-11.234962
10
5.694154
20
-11.12774
10
5.694184
20
-11.127693
10
5.694393
20
-11.124759
10
5.694808
20
-11.118896
10
5.69562
20
-11.107196
10
5.698633
20
-11.060735
10
5.701275
20
-11.014817
10
5.703555
20
-10.969446
10
5.705481
20
-10.924625
10
5.70706
20
-10.880355
10
5.708301
20
-10.836641
10
5.709213
20
-10.793484
10
5.709803
20
-10.750888
10
5.710079
20
-10.708853
10
5.71005
20
-10.667383
10
5.709724
20
-10.62648
10
5.709109
20
-10.586145
10
5.708214
20
-10.546382
10
5.707046
20
-10.507191
10
5.705614
20
-10.468575
10
5.703927
20
-10.430535
10
5.701992
20
-10.393073
10
5.699818
20
-10.35619
10
5.697413
20
-10.319889
10
5.694786
20
-10.28417
10
5.691945
20
-10.249034
10
5.688898
20
-10.214484
10
5.685653
20
-10.180519
10
5.68222
20
-10.147142
10
5.678606
20
-10.114352
10
5.674819
20
-10.082151
10
5.670869
20
-10.05054
10
5.666763
20
-10.019518
10
5.66251
20
-9.989087
10
5.658118
20
-9.959248
10
5.653595
20
-9.93
10
5.764125
20
-9.864354
10
5.764125
20
-9.864354
10
5.875578
20
-9.800287
10
5.898839
20
-9.818585
10
5.922679
20
-9.837061
10
5.947102
20
-9.855705
10
5.972112
20
-9.874511
10
5.997713
20
-9.893472
10
6.023908
20
-9.912579
10
6.0507
20
-9.931825
10
6.078093
20
-9.951202
10
6.10609
20
-9.970702
10
6.134695
20
-9.990318
10
6.16391
20
-10.010042
10
6.193739
20
-10.029866
10
6.224185
20
-10.049783
10
6.25525
20
-10.069783
10
6.286937
20
-10.08986
10
6.319249
20
-10.110004
10
6.352189
20
-10.130209
10
6.385758
20
-10.150466
10
6.419961
20
-10.170767
10
6.454799
20
-10.191104
10
6.490274
20
-10.211468
10
6.526388
20
-10.231852
10
6.563145
20
-10.252247
10
6.600545
20
-10.272645
10
6.638591
20
-10.293037
10
6.677284
20
-10.313416
10
6.716627
20
-10.333773
10
6.756621
20
-10.354099
10
6.797267
20
-10.374386
10
6.838568
20
-10.394626
10
6.880524
20
-10.414811
10
6.891116
20
-10.419847
10
6.896427
20
-10.422364
10
6.899087
20
-10.423622
10
6.899142
20
-10.423619
10
7.097902
20
-10.289305
10
7.097925
20
-10.289254
10
7.097749
20
-10.286317
10
7.097396
20
-10.280451
10
7.096673
20
-10.268745
10
7.093596
20
-10.222288
10
7.090222
20
-10.176418
10
7.08656
20
-10.131137
10
7.082619
20
-10.086448
10
7.078407
20
-10.042352
10
7.073932
20
-9.998849
10
7.069202
20
-9.955943
10
7.064227
20
-9.913634
10
7.059014
20
-9.871922
10
7.053573
20
-9.830811
10
7.047911
20
-9.7903
10
7.042036
20
-9.750391
10
7.035958
20
-9.711085
10
7.029685
20
-9.672381
10
7.023225
20
-9.634282
10
7.016587
20
-9.596788
10
7.009779
20
-9.559899
10
7.00281
20
-9.523616
10
6.995687
20
-9.487939
10
6.98842
20
-9.452869
10
6.981017
20
-9.418405
10
6.973486
20
-9.384547
10
6.965836
20
-9.351297
10
6.958076
20
-9.318653
10
6.950212
20
-9.286616
10
6.942255
20
-9.255184
10
6.934213
20
-9.224359
10
6.926093
20
-9.194139
10
6.917904
20
-9.164524
10
6.909654
20
-9.135513
10
6.901353
20
-9.107105
10
7.002369
20
-9.027594
10
7.002369
20
-9.027594
10
7.104506
20
-8.949527
10
7.129956
20
-8.964633
10
7.156003
20
-8.979838
10
7.182651
20
-8.995136
10
7.209902
20
-9.010516
10
7.237759
20
-9.025973
10
7.266224
20
-9.041497
10
7.295299
20
-9.057082
10
7.324987
20
-9.072717
10
7.35529
20
-9.088397
10
7.38621
20
-9.104111
10
7.41775
20
-9.119853
10
7.449911
20
-9.135614
10
7.482696
20
-9.151386
10
7.516105
20
-9.167161
10
7.550142
20
-9.182929
10
7.584807
20
-9.198684
10
7.620102
20
-9.214417
10
7.656029
20
-9.230119
10
7.692589
20
-9.245782
10
7.729783
20
-9.261397
10
7.767613
20
-9.276957
10
7.806079
20
-9.292452
10
7.845183
20
-9.307875
10
7.884925
20
-9.323217
10
7.925307
20
-9.338469
10
7.96633
20
-9.353623
10
8.007993
20
-9.36867
10
8.050298
20
-9.383602
10
8.093245
20
-9.39841
10
8.136834
20
-9.413087
10
8.181066
20
-9.427622
10
8.192225
20
-9.431233
10
8.197819
20
-9.433034
10
8.20062
20
-9.433934
10
8.200674
20
-9.433925
10
8.380202
20
-9.274816
10
8.380218
20
-9.274763
10
8.379661
20
-9.271874
10
8.378544
20
-9.266104
10
8.376301
20
-9.254592
10
8.367185
20
-9.208934
10
8.357853
20
-9.163897
10
8.348313
20
-9.119482
10
8.338572
20
-9.07569
10
8.32864
20
-9.032521
10
8.318525
20
-8.989975
10
8.308235
20
-8.948052
10
8.29778
20
-8.906754
10
8.287168
20
-8.866081
10
8.276407
20
-8.826031
10
8.265505
20
-8.786606
10
8.254472
20
-8.747805
10
8.243316
20
-8.709628
10
8.232044
20
-8.672075
10
8.220667
20
-8.635145
10
8.209191
20
-8.598838
10
8.197627
20
-8.563153
10
8.185981
20
-8.52809
10
8.174263
20
-8.493648
10
8.16248
20
-8.459826
10
8.150642
20
-8.426623
10
8.138756
20
-8.394039
10
8.126832
20
-8.362071
10
8.114877
20
-8.33072
10
8.102899
20
-8.299982
10
8.090907
20
-8.269859
10
8.07891
20
-8.240347
10
8.066915
20
-8.211445
10
8.054931
20
-8.183152
10
8.042965
20
-8.155466
10
8.031027
20
-8.128385
10
8.1208
20
-8.036369
10
8.1208
20
-8.036369
10
8.211873
20
-7.945639
10
8.239077
20
-7.957293
10
8.266887
20
-7.968969
10
8.295304
20
-7.980657
10
8.324329
20
-7.992349
10
8.353965
20
-8.004037
10
8.384212
20
-8.015714
10
8.415073
20
-8.027369
10
8.446548
20
-8.038996
10
8.478638
20
-8.050586
10
8.511345
20
-8.062131
10
8.54467
20
-8.073621
10
8.578613
20
-8.085049
10
8.613176
20
-8.096407
10
8.648359
20
-8.107686
10
8.684162
20
-8.118877
10
8.720587
20
-8.129972
10
8.757634
20
-8.140963
10
8.795303
20
-8.151841
10
8.833594
20
-8.162598
10
8.872509
20
-8.173225
10
8.912045
20
-8.183714
10
8.952205
20
-8.194056
10
8.992988
20
-8.204243
10
9.034393
20
-8.214266
10
9.07642
20
-8.224117
10
9.11907
20
-8.233786
10
9.16234
20
-8.243267
10
9.206232
20
-8.252549
10
9.250745
20
-8.261625
10
9.295877
20
-8.270486
10
9.341627
20
-8.279124
10
9.353162
20
-8.281247
10
9.358943
20
-8.282303
10
9.361838
20
-8.28283
10
9.361891
20
-8.282813
10
9.519115
20
-8.101633
10
9.519124
20
-8.101578
10
9.518194
20
-8.098787
10
9.516334
20
-8.093212
10
9.512607
20
-8.082092
10
9.49761
20
-8.038014
10
9.482479
20
-7.99458
10
9.467223
20
-7.951791
10
9.451849
20
-7.909644
10
9.436368
20
-7.86814
10
9.420786
20
-7.827279
10
9.405113
20
-7.787058
10
9.389356
20
-7.747478
10
9.373526
20
-7.708538
10
9.357629
20
-7.670235
10
9.341675
20
-7.63257
10
9.325672
20
-7.595541
10
9.309627
20
-7.559147
10
9.293551
20
-7.523387
10
9.27745
20
-7.488258
10
9.261334
20
-7.453759
10
9.245211
20
-7.419889
10
9.229088
20
-7.386646
10
9.212974
20
-7.354028
10
9.196878
20
-7.322034
10
9.180807
20
-7.29066
10
9.16477
20
-7.259906
10
9.148775
20
-7.229768
10
9.13283
20
-7.200245
10
9.116943
20
-7.171334
10
9.101122
20
-7.143034
10
9.085375
20
-7.11534
10
9.06971
20
-7.088251
10
9.054135
20
-7.061765
10
9.038658
20
-7.035877
10
9.023287
20
-7.010586
10
9.100282
20
-6.90764
10
9.100282
20
-6.90764
10
9.178733
20
-6.805798
10
9.207226
20
-6.813802
10
9.236322
20
-6.821748
10
9.266021
20
-6.829627
10
9.296324
20
-6.83743
10
9.327232
20
-6.845151
10
9.358745
20
-6.852779
10
9.390863
20
-6.860307
10
9.423586
20
-6.867726
10
9.456915
20
-6.875028
10
9.490849
20
-6.882204
10
9.525388
20
-6.889247
10
9.560533
20
-6.896147
10
9.596282
20
-6.902896
10
9.632636
20
-6.909486
10
9.669594
20
-6.915908
10
9.707156
20
-6.922154
10
9.74532
20
-6.928216
10
9.784087
20
-6.934084
10
9.823455
20
-6.939751
10
9.863423
20
-6.945208
10
9.903991
20
-6.950446
10
9.945157
20
-6.955458
10
9.98692
20
-6.960234
10
10.029279
20
-6.964767
10
10.072233
20
-6.969048
10
10.115779
20
-6.973068
10
10.159918
20
-6.976819
10
10.204646
20
-6.980293
10
10.249962
20
-6.983481
10
10.295864
20
-6.986376
10
10.342351
20
-6.988968
10
10.354064
20
-6.989567
10
10.359934
20
-6.98986
10
10.362872
20
-6.990004
10
10.362923
20
-6.989981
10
10.495153
20
-6.789829
10
10.495154
20
-6.789773
10
10.493869
20
-6.787127
10
10.491297
20
-6.781842
10
10.48615
20
-6.771304
10
10.465528
20
-6.729561
10
10.444858
20
-6.688474
10
10.424146
20
-6.648041
10
10.403403
20
-6.608262
10
10.382637
20
-6.569134
10
10.361855
20
-6.530656
10
10.341066
20
-6.492825
10
10.320278
20
-6.45564
10
10.2995
20
-6.419099
10
10.27874
20
-6.3832
10
10.258006
20
-6.347939
10
10.237306
20
-6.313316
10
10.216649
20
-6.279328
10
10.196042
20
-6.245971
10
10.175494
20
-6.213244
10
10.155013
20
-6.181145
10
10.134606
20
-6.149669
10
10.114282
20
-6.118815
10
10.094049
20
-6.088579
10
10.073914
20
-6.058959
10
10.053886
20
-6.029952
10
10.033972
20
-6.001554
10
10.01418
20
-5.973762
10
9.994518
20
-5.946573
10
9.974993
20
-5.919983
10
9.955613
20
-5.893989
10
9.936386
20
-5.868588
10
9.91732
20
-5.843776
10
9.898421
20
-5.819549
10
9.879698
20
-5.795903
10
9.861157
20
-5.772835
10
9.924056
20
-5.660719
10
9.924056
20
-5.660719
10
9.988543
20
-5.549508
10
10.017837
20
-5.553725
10
10.047721
20
-5.557805
10
10.078194
20
-5.56174
10
10.109257
20
-5.565521
10
10.140908
20
-5.569141
10
10.173147
20
-5.572591
10
10.205972
20
-5.575862
10
10.239384
20
-5.578947
10
10.273381
20
-5.581836
10
10.307961
20
-5.584522
10
10.343124
20
-5.586996
10
10.378869
20
-5.58925
10
10.415193
20
-5.591275
10
10.452096
20
-5.593063
10
10.489577
20
-5.594606
10
10.527632
20
-5.595896
10
10.566261
20
-5.596924
10
10.605462
20
-5.597682
10
10.645233
20
-5.598162
10
10.685572
20
-5.598355
10
10.726476
20
-5.598254
10
10.767944
20
-5.597849
10
10.809973
20
-5.597134
10
10.852562
20
-5.596099
10
10.895707
20
-5.594736
10
10.939405
20
-5.593038
10
10.983656
20
-5.590996
10
11.028454
20
-5.588602
10
11.073799
20
-5.585848
10
11.119687
20
-5.582726
10
11.166114
20
-5.579228
10
11.177805
20
-5.578294
10
11.183663
20
-5.577818
10
11.186595
20
-5.577578
10
11.186642
20
-5.577548
10
11.291616
20
-5.361848
10
11.29161
20
-5.361793
10
11.28999
20
-5.359337
10
11.28675
20
-5.354434
10
11.280272
20
-5.344657
10
11.254378
20
-5.305963
10
11.228521
20
-5.267925
10
11.20271
20
-5.230542
10
11.176952
20
-5.193811
10
11.151256
20
-5.157728
10
11.125629
20
-5.122292
10
11.10008
20
-5.087498
10
11.074617
20
-5.053345
10
11.049247
20
-5.019828
10
11.023979
20
-4.986946
10
10.99882
20
-4.954693
10
10.973778
20
-4.923068
10
10.948861
20
-4.892067
10
10.924077
20
-4.861685
10
10.899433
20
-4.831921
10
10.874937
20
-4.802769
10
10.850596
20
-4.774226
10
10.826419
20
-4.746289
10
10.802412
20
-4.718953
10
10.778584
20
-4.692214
10
10.75494
20
-4.666069
10
10.73149
20
-4.640513
10
10.70824
20
-4.615542
10
10.685197
20
-4.591152
10
10.662368
20
-4.567339
10
10.639762
20
-4.544097
10
10.617384
20
-4.521423
10
10.595242
20
-4.499311
10
10.573342
20
-4.477758
10
10.551693
20
-4.456759
10
10.5303
20
-4.436308
10
10.578026
20
-4.316941
10
10.578026
20
-4.316941
10
10.627446
20
-4.198265
10
10.657039
20
-4.198622
10
10.6872
20
-4.198766
10
10.717926
20
-4.19869
10
10.749217
20
-4.198385
10
10.78107
20
-4.197842
10
10.813483
20
-4.197055
10
10.846455
20
-4.196013
10
10.879983
20
-4.19471
10
10.914066
20
-4.193137
10
10.948701
20
-4.191287
10
10.983887
20
-4.18915
10
11.01962
20
-4.186718
10
11.055898
20
-4.183985
10
11.092719
20
-4.180941
10
11.130079
20
-4.177579
10
11.167978
20
-4.173891
10
11.206411
20
-4.169868
10
11.245375
20
-4.165503
10
11.284868
20
-4.160787
10
11.324887
20
-4.155714
10
11.365428
20
-4.150274
10
11.406489
20
-4.14446
10
11.448065
20
-4.138265
10
11.490154
20
-4.13168
10
11.532752
20
-4.124697
10
11.575855
20
-4.11731
10
11.61946
20
-4.10951
10
11.663563
20
-4.101289
10
11.708161
20
-4.09264
10
11.753248
20
-4.083555
10
11.798822
20
-4.074027
10
11.810291
20
-4.071575
10
11.816037
20
-4.070338
10
11.818912
20
-4.069717
10
11.818955
20
-4.069681
10
11.894876
20
-3.842126
10
11.894863
20
-3.842071
10
11.892937
20
-3.839848
10
11.889084
20
-3.835409
10
11.881385
20
-3.826562
10
11.850662
20
-3.791578
10
11.820062
20
-3.757241
10
11.789592
20
-3.723547
10
11.75926
20
-3.690492
10
11.729074
20
-3.658072
10
11.699041
20
-3.626284
10
11.669169
20
-3.595123
10
11.639466
20
-3.564585
10
11.609938
20
-3.534667
10
11.580594
20
-3.505364
10
11.551441
20
-3.476671
10
11.522485
20
-3.448585
10
11.493735
20
-3.421101
10
11.465197
20
-3.394215
10
11.436879
20
-3.367921
10
11.408787
20
-3.342216
10
11.38093
20
-3.317095
10
11.353312
20
-3.292552
10
11.325943
20
-3.268584
10
11.298828
20
-3.245184
10
11.271975
20
-3.222349
10
11.245389
20
-3.200073
10
11.219078
20
-3.17835
10
11.193049
20
-3.157176
10
11.167308
20
-3.136546
10
11.141861
20
-3.116454
10
11.116715
20
-3.096895
10
11.091876
20
-3.077863
10
11.067351
20
-3.059352
10
11.043145
20
-3.041358
10
11.019266
20
-3.023875
10
11.051004
20
-2.8993
10
11.051004
20
-2.8993
10
11.08451
20
-2.775188
10
11.113897
20
-2.77168
10
11.143819
20
-2.767886
10
11.174272
20
-2.7638
10
11.205255
20
-2.759413
10
11.236765
20
-2.754717
10
11.268798
20
-2.749706
10
11.301352
20
-2.744369
10
11.334423
20
-2.738701
10
11.368009
20
-2.732693
10
11.402106
20
-2.726337
10
11.436712
20
-2.719626
10
11.471822
20
-2.712552
10
11.507433
20
-2.705106
10
11.543541
20
-2.697282
10
11.580144
20
-2.689073
10
11.617236
20
-2.680469
10
11.654815
20
-2.671464
10
11.692877
20
-2.66205
10
11.731416
20
-2.65222
10
11.77043
20
-2.641967
10
11.809915
20
-2.631282
10
11.849865
20
-2.620158
10
11.890277
20
-2.608589
10
11.931147
20
-2.596567
10
11.972469
20
-2.584084
10
12.014239
20
-2.571133
10
12.056453
20
-2.557708
10
12.099106
20
-2.543801
10
12.142192
20
-2.529405
10
12.185708
20
-2.514513
10
12.229649
20
-2.499118
10
12.240699
20
-2.49519
10
12.246234
20
-2.493213
10
12.249004
20
-2.492222
10
12.249042
20
-2.492181
10
12.294612
20
-2.256663
10
12.294592
20
-2.256611
10
12.292392
20
-2.254658
10
12.287993
20
-2.25076
10
12.279205
20
-2.242993
10
12.244179
20
-2.212319
10
12.209358
20
-2.18227
10
12.174751
20
-2.152841
10
12.140364
20
-2.124028
10
12.106204
20
-2.095826
10
12.072279
20
-2.068229
10
12.038596
20
-2.041234
10
12.00516
20
-2.014835
10
11.97198
20
-1.989026
10
11.939062
20
-1.963804
10
11.906413
20
-1.939162
10
11.874039
20
-1.915096
10
11.841948
20
-1.8916
10
11.810145
20
-1.868668
10
11.778637
20
-1.846296
10
11.74743
20
-1.824478
10
11.716532
20
-1.803207
10
11.685948
20
-1.782479
10
11.655684
20
-1.762288
10
11.625747
20
-1.742628
10
11.596142
20
-1.723493
10
11.566877
20
-1.704878
10
11.537956
20
-1.686775
10
11.509385
20
-1.66918
10
11.481171
20
-1.652086
10
11.453319
20
-1.635488
10
11.425835
20
-1.619378
10
11.398725
20
-1.603751
10
11.371993
20
-1.5886
10
11.345646
20
-1.573919
10
11.319689
20
-1.559702
10
11.334896
20
-1.43205
10
11.334896
20
-1.43205
10
11.351915
20
-1.304627
10
11.380593
20
-1.297313
10
11.409763
20
-1.289646
10
11.439423
20
-1.28162
10
11.469568
20
-1.273226
10
11.500195
20
-1.264458
10
11.5313
20
-1.255308
10
11.562879
20
-1.245769
10
11.594928
20
-1.235832
10
11.627442
20
-1.225492
10
11.660418
20
-1.21474
10
11.693851
20
-1.203569
10
11.727738
20
-1.191972
10
11.762072
20
-1.179942
10
11.796851
20
-1.167472
10
11.832068
20
-1.154555
10
11.867721
20
-1.141184
10
11.903803
20
-1.127351
10
11.94031
20
-1.113049
10
11.977237
20
-1.098273
10
12.014579
20
-1.083015
10
12.052331
20
-1.067267
10
12.090487
20
-1.051025
10
12.129044
20
-1.03428
10
12.167994
20
-1.017026
10
12.207333
20
-0.999256
10
12.247056
20
-0.980964
10
12.287156
20
-0.962144
10
12.327629
20
-0.942788
10
12.368468
20
-0.922892
10
12.409668
20
-0.902447
10
12.451223
20
-0.881448
10
12.461666
20
-0.876111
10
12.466896
20
-0.873429
10
12.469513
20
-0.872085
10
12.469545
20
-0.87204
10
12.483983
20
-0.632588
10
12.483957
20
-0.632539
10
12.48152
20
-0.63089
10
12.476651
20
-0.627599
10
12.466924
20
-0.621046
10
12.428194
20
-0.595206
10
12.389749
20
-0.569959
10
12.351596
20
-0.545299
10
12.313743
20
-0.521221
10
12.276194
20
-0.497719
10
12.238957
20
-0.474787
10
12.202038
20
-0.452419
10
12.165443
20
-0.43061
10
12.129178
20
-0.409353
10
12.09325
20
-0.388643
10
12.057663
20
-0.368474
10
12.022425
20
-0.348839
10
11.987541
20
-0.329733
10
11.953017
20
-0.311149
10
11.918859
20
-0.29308
10
11.885072
20
-0.275522
10
11.851661
20
-0.258466
10
11.818633
20
-0.241908
10
11.785993
20
-0.22584
10
11.753745
20
-0.210255
10
11.721897
20
-0.195148
10
11.690452
20
-0.180512
10
11.659415
20
-0.166339
10
11.628793
20
-0.152624
10
11.598589
20
-0.139359
10
11.568809
20
-0.126538
10
11.539457
20
-0.114153
10
11.510539
20
-0.102198
10
11.482058
20
-0.090666
10
11.454021
20
-0.07955
10
11.42643
20
-0.068843
10
11.424844
20
0.059702
8
gear
0
LWPOLYLINE
5
1004
100
AcDbEntity
100
AcDbPolyline
90
5
70
0
43
0
10
10.904233
20
2.205296
10
10.898246
20
2.234692
10
10.892181
20
2.264073
10
10.886036
20
2.293437
10
10.879812
20
2.322784
8
gear_texts
0
LWPOLYLINE
5
1005
100
AcDbEntity
100
AcDbPolyline
90
2
70
0
43
0
10
10.833436
20
2.251862
10
10.950925
20
2.276283
8
gear_texts
0
LWPOLYLINE
5
1006
100
AcDbEntity
100
AcDbPolyline
90
5
70
0
43
0
10
10.963042
20
2.217189
10
10.927635
20
2.240719
10
10.892181
20
2.264073
10
10.85668
20
2.287252
10
10.821134
20
2.310256
8
gear_texts
0
LWPOLYLINE
5
1007
100
AcDbEntity
100
AcDbPolyline
90
5
70
0
43
0
10
10.845424
20
2.193402
10
10.868858
20
2.228666
10
10.892181
20
2.264073
10
10.915391
20
2.299621
10
10.938489
20
2.335311
8
gear_texts
0
LWPOLYLINE
5
1008
100
AcDbEntity
100
AcDbPolyline
90
3
70
0
43
0
10
10.974841
20
2.158031
10
11.010072
20
2.134137
10
10.833361
20
2.099884
8
gear_texts
0
LWPOLYLINE
5
1009
100
AcDbEntity
100
AcDbPolyline
90
3
70
0
43
0
10
10.838984
20
2.070663
10
10.833361
20
2.099884
10
10.827659
20
2.12909
8
gear_texts
0
LWPOLYLINE
5
1010
100
AcDbEntity
100
AcDbPolyline
90
7
70
0
43
0
10
11.073356
20
1.776801
10
10.895629
20
1.748283
10
10.935287
20
1.784908
10
10.974827
20
1.821758
10
11.014247
20
1.858835
10
11.053546
20
1.896138
10
10.876138
20
1.865705
8
gear_texts
0
LWPOLYLINE
5
1011
100
AcDbEntity
100
AcDbPolyline
90
5
70
0
43
0
10
11.041265
20
1.588866
10
11.03694
20
1.618634
10
11.032535
20
1.648391
10
11.02805
20
1.678135
10
11.023485
20
1.707868
8
gear_texts
0
LWPOLYLINE
5
1012
100
AcDbEntity
100
AcDbPolyline
90
5
70
0
43
0
10
10.981877
20
1.580319
10
10.977575
20
1.609928
10
10.973194
20
1.639524
10
10.968733
20
1.669109
10
10.964192
20
1.698681
8
gear_texts
0
LWPOLYLINE
5
1013
100
AcDbEntity
100
AcDbPolyline
90
9
70
0
43
0
10
11.006007
20
1.402436
10
11.002186
20
1.43211
10
10.998284
20
1.461774
10
10.994302
20
1.491427
10
10.99024
20
1.521069
10
11.033939
20
1.496803
10
11.077586
20
1.472314
10
11.121182
20
1.447599
10
10.942687
20
1.424365
8
gear_texts
0
LWPOLYLINE
5
1014
100
AcDbEntity
100
AcDbPolyline
90
19
70
0
43
0
10
11.046782
20
1.316905
10
11.013411
20
1.343058
10
10.983632
20
1.339426
10
10.957414
20
1.306251
10
10.960897
20
1.276699
10
10.9643
20
1.247136
10
10.99744
20
1.220875
10
11.027257
20
1.224186
10
11.053723
20
1.257308
10
11.050293
20
1.287111
10
11.046782
20
1.316905
10
11.07297
20
1.350321
10
11.102749
20
1.353952
10
11.136149
20
1.327559
10
11.139688
20
1.297524
10
11.143147
20
1.267479
10
11.116707
20
1.234116
10
11.086891
20
1.230806
10
11.053723
20
1.257308
8
gear_texts
0
LWPOLYLINE
5
1015
100
AcDbEntity
100
AcDbPolyline
90
11
70
0
43
0
10
11.078273
20
1.018572
10
11.08098
20
0.988694
10
11.083605
20
0.958809
10
11.086151
20
0.928917
10
11.118517
20
0.901443
10
11.148419
20
0.903867
10
11.175836
20
0.936432
10
11.173271
20
0.966566
10
11.170624
20
0.996692
10
11.167895
20
1.026812
10
10.988651
20
1.010331
8
gear_texts
0
LWPOLYLINE
5
1016
100
AcDbEntity
100
AcDbPolyline
90
2
70
0
43
0
10
11.003559
20
0.832413
10
11.123217
20
0.841465
8
gear_texts
0
LWPOLYLINE
5
1017
100
AcDbEntity
100
AcDbPolyline
90
2
70
0
43
0
10
11.153132
20
0.843728
10
11.183046
20
0.845991
8
gear_texts
0
LWPOLYLINE
5
1018
100
AcDbEntity
100
AcDbPolyline
90
4
70
0
43
0
10
11.045534
20
0.656055
10
11.013782
20
0.683979
10
11.041835
20
0.715617
10
11.191521
20
0.725318
8
gear_texts
0
LWPOLYLINE
5
1019
100
AcDbEntity
100
AcDbPolyline
90
5
70
0
43
0
10
11.135375
20
0.661392
10
11.133551
20
0.691417
10
11.131646
20
0.721438
10
11.129661
20
0.751453
10
11.127594
20
0.781463
8
gear_texts
0
LWPOLYLINE
5
1020
100
AcDbEntity
100
AcDbPolyline
90
10
70
0
43
0
10
11.02473
20
0.475969
10
11.023407
20
0.505697
10
11.022003
20
0.535421
10
11.020519
20
0.565141
10
11.048911
20
0.596475
10
11.108824
20
0.599709
10
11.140362
20
0.571287
10
11.141862
20
0.541244
10
11.143281
20
0.511196
10
11.144619
20
0.481145
8
gear_texts
0
LWPOLYLINE
5
1021
100
AcDbEntity
100
AcDbPolyline
90
6
70
0
43
0
10
11.087094
20
0.418768
10
11.118165
20
0.38992
10
11.14916
20
0.360908
10
11.150093
20
0.330841
10
11.120955
20
0.299964
10
11.030988
20
0.297537
8
gear_texts
0
LWPOLYLINE
5
1022
100
AcDbEntity
100
AcDbPolyline
90
2
70
0
43
0
10
11.027137
20
0.416503
10
11.207009
20
0.423297
8
gear_texts
0
LWPOLYLINE
5
1023
100
AcDbEntity
100
AcDbPolyline
90
10
70
0
43
0
10
11.034639
20
0.089271
10
11.03484
20
0.059514
10
11.03496
20
0.029757
10
11.035
20
0
10
11.06496
20
-0.029838
10
11.184959
20
-0.030162
10
11.215
20
0
10
11.214959
20
0.030243
10
11.214837
20
0.060485
10
11.214633
20
0.090727
8
gear_texts
0
LWPOLYLINE
5
1024
100
AcDbEntity
100
AcDbPolyline
90
2
70
0
43
0
10
11.214837
20
0.060485
10
11.03484
20
0.059514
8
gear_texts
0
LWPOLYLINE
5
1025
100
AcDbEntity
100
AcDbPolyline
90
5
70
0
43
0
10
11.153013
20
-0.210554
10
11.15354
20
-0.180478
10
11.153986
20
-0.1504
10
11.154351
20
-0.120321
10
11.154635
20
-0.090242
8
gear_texts
0
LWPOLYLINE
5
1026
100
AcDbEntity
100
AcDbPolyline
90
5
70
0
43
0
10
11.093023
20
-0.209421
10
11.093548
20
-0.179507
10
11.093992
20
-0.149591
10
11.094355
20
-0.119674
10
11.094637
20
-0.089756
8
gear_texts
0
LWPOLYLINE
5
1027
100
AcDbEntity
100
AcDbPolyline
90
15
70
0
43
0
10
11.02822
20
-0.386766
10
11.029223
20
-0.357025
10
11.030146
20
-0.327282
10
11.030988
20
-0.297537
10
11.03175
20
-0.267789
10
11.091733
20
-0.269245
10
11.120955
20
-0.299964
10
11.120106
20
-0.329952
10
11.119176
20
-0.359937
10
11.148146
20
-0.390972
10
11.178128
20
-0.392023
10
11.209129
20
-0.362849
10
11.210066
20
-0.332621
10
11.210923
20
-0.30239
10
11.181706
20
-0.27143
8
gear_texts
0
LWPOLYLINE
5
1028
100
AcDbEntity
100
AcDbPolyline
90
9
70
0
43
0
10
11.08044
20
-0.568214
10
11.081932
20
-0.538332
10
11.083344
20
-0.508447
10
11.084674
20
-0.478557
10
11.085925
20
-0.448664
10
11.124637
20
-0.480282
10
11.16326
20
-0.512113
10
11.201791
20
-0.544155
10
11.022003
20
-0.535421
8
gear_texts
0
LWPOLYLINE
5
1029
100
AcDbEntity
100
AcDbPolyline
90
11
70
0
43
0
10
11.097667
20
-0.779361
10
11.095525
20
-0.809285
10
11.093303
20
-0.839202
10
11.090999
20
-0.869114
10
11.118517
20
-0.901443
10
11.148419
20
-0.903867
10
11.180724
20
-0.876145
10
11.183046
20
-0.845991
10
11.185287
20
-0.815832
10
11.187446
20
-0.785666
10
11.007888
20
-0.773056
8
gear_texts
0
LWPOLYLINE
5
1030
100
AcDbEntity
100
AcDbPolyline
90
5
70
0
43
0
10
11.102477
20
-1.081212
10
11.105353
20
-1.051269
10
11.108147
20
-1.021318
10
11.110861
20
-0.99136
10
11.113494
20
-0.961395
8
gear_texts
0
LWPOLYLINE
5
1031
100
AcDbEntity
100
AcDbPolyline
90
5
70
0
43
0
10
11.04276
20
-1.075397
10
11.04562
20
-1.045615
10
11.048399
20
-1.015825
10
11.051098
20
-0.986028
10
11.053717
20
-0.956223
8
gear_texts
0
LWPOLYLINE
5
1032
100
AcDbEntity
100
AcDbPolyline
90
15
70
0
43
0
10
10.9643
20
-1.247136
10
10.967623
20
-1.217565
10
10.970867
20
-1.187985
10
10.97403
20
-1.158397
10
10.977114
20
-1.1288
10
11.036799
20
-1.134937
10
11.063533
20
-1.167844
10
11.060344
20
-1.197674
10
11.057074
20
-1.227496
10
11.083531
20
-1.260698
10
11.113339
20
-1.264089
10
11.146524
20
-1.237426
10
11.149821
20
-1.207363
10
11.153036
20
-1.177292
10
11.126327
20
-1.144144
8
gear_texts
0
LWPOLYLINE
5
1033
100
AcDbEntity
100
AcDbPolyline
90
11
70
0
43
0
10
11.028022
20
-1.465726
10
11.02403
20
-1.495459
10
11.019957
20
-1.525181
10
11.015804
20
-1.554893
10
11.041265
20
-1.588866
10
11.070959
20
-1.593139
10
11.10492
20
-1.567472
10
11.109107
20
-1.53752
10
11.113213
20
-1.507557
10
11.117238
20
-1.477584
10
10.938807
20
-1.453869
8
gear_texts
0
LWPOLYLINE
5
1034
100
AcDbEntity
100
AcDbPolyline
90
7
70
0
43
0
10
10.913853
20
-1.630658
10
10.973194
20
-1.639524
10
11.02805
20
-1.678135
10
11.082777
20
-1.717054
10
11.018839
20
-1.737588
10
10.954871
20
-1.757789
10
10.895629
20
-1.748283
8
gear_texts
0
LWPOLYLINE
5
1035
100
AcDbEntity
100
AcDbPolyline
90
5
70
0
43
0
10
10.973194
20
-1.639524
10
10.968733
20
-1.669109
10
10.964192
20
-1.698681
10
10.959571
20
-1.728242
10
10.954871
20
-1.757789
8
gear_texts
0
LWPOLYLINE
5
1036
100
AcDbEntity
100
AcDbPolyline
90
5
70
0
43
0
10
10.984079
20
-1.945262
10
10.989284
20
-1.915635
10
10.99441
20
-1.885994
10
10.999456
20
-1.856339
10
11.004422
20
-1.826671
8
gear_texts
0
LWPOLYLINE
5
1037
100
AcDbEntity
100
AcDbPolyline
90
5
70
0
43
0
10
10.924998
20
-1.934799
10
10.930176
20
-1.905331
10
10.935274
20
-1.875849
10
10.940293
20
-1.846354
10
10.945232
20
-1.816846
8
gear_texts
0
LWPOLYLINE
5
1038
100
AcDbEntity
100
AcDbPolyline
90
15
70
0
43
0
10
10.833361
20
-2.099884
10
10.838984
20
-2.070663
10
10.844529
20
-2.041427
10
10.849994
20
-2.012176
10
10.855381
20
-1.98291
10
10.914404
20
-1.993692
10
10.938485
20
-2.028587
10
10.932975
20
-2.058076
10
10.927386
20
-2.087551
10
10.951168
20
-2.122719
10
10.98062
20
-2.128428
10
11.015787
20
-2.104439
10
11.021422
20
-2.074726
10
11.026976
20
-2.044998
10
11.002939
20
-2.009864
8
gear_texts
0
LWPOLYLINE
5
1039
100
AcDbEntity
100
AcDbPolyline
90
7
70
0
43
0
10
10.998402
20
-2.193486
10
10.992447
20
-2.223136
10
10.986412
20
-2.252771
10
10.980297
20
-2.282389
10
10.974103
20
-2.31199
10
10.892181
20
-2.264073
10
10.810081
20
-2.216614
8
gear_texts
0
LINE
5
1001
100
AcDbEntity
100
AcDbLine
10
0.1
20
0
30
0
11
-0.1
21
0
31
0
8
gear_guides
0
LINE
5
1002
100
AcDbEntity
100
AcDbLine
10
0
20
0.1
30
0
11
0
21
-0.1
31
0
8
gear_guides
0
CIRCLE
5
1003
100
AcDbEntity
100
AcDbCircle
10
11.970042
20
0.847399
30
0
40
0.19625
8
gear_guides
0
CIRCLE
5
1040
100
AcDbEntity
100
AcDbCircle
10
0
20
0
30
0
40
12
8
gear_guides
0
CIRCLE
5
1041
100
AcDbEntity
100
AcDbCircle
10
0
20
0
30
0
40
12.5
8
gear_guides
0
CIRCLE
5
1042
100
AcDbEntity
100
AcDbCircle
10
0
20
0
30
0
40
10.692078
8
gear_guides
0
ENDSEC
0
SECTION
2
OBJECTS
0
DICTIONARY
5
21D
330
0
100
AcDbDictionary
281
1
3
ACAD_CIP_PREVIOUS_PRODUCT_INFO
350
291
3
ACAD_COLOR
350
273
3
ACAD_DETAILVIEWSTYLE
350
27B
3
ACAD_GROUP
350
21E
3
ACAD_LAYOUT
350
272
3
ACAD_MATERIAL
350
221
3
ACAD_MLEADERSTYLE
350
276
3
ACAD_MLINESTYLE
350
26F
3
ACAD_PLOTSETTINGS
350
271
3
ACAD_PLOTSTYLENAME
350
21F
3
ACAD_SCALELIST
350
253
3
ACAD_SECTIONVIEWSTYLE
350
278
3
ACAD_TABLESTYLE
350
274
3
ACAD_VISUALSTYLE
350
23A
3
ACDB_RECOMPOSE_DATA
350
1057
3
AcDbVariableDictionary
350
29D
0
DICTIONARY
5
297
330
213
100
AcDbDictionary
280
1
281
1
3
ACAD_LAYERSTATES
360
298
0
DICTIONARY
5
292
330
265
100
AcDbDictionary
280
1
281
1
3
ADSK_XREC_LAYER_RECONCILED
360
293
0
XRECORD
5
291
102
{ACAD_REACTORS
330
21D
102
}
330
21D
100
AcDbXrecord
280
1
300
ACDMAC
300
2013
300
ACDMAC_F_S
0
DICTIONARY
5
273
102
{ACAD_REACTORS
330
21D
102
}
330
21D
100
AcDbDictionary
281
1
0
DICTIONARY
5
27B
102
{ACAD_REACTORS
330
21D
102
}
330
21D
100
AcDbDictionary
281
1
3
Imperial24
350
27C
0
DICTIONARY
5
21E
102
{ACAD_REACTORS
330
21D
102
}
330
21D
100
AcDbDictionary
281
1
0
DICTIONARY
5
272
102
{ACAD_REACTORS
330
21D
102
}
330
21D
100
AcDbDictionary
281
1
3
Layout1
350
280
3
Model
350
284
0
DICTIONARY
5
221
102
{ACAD_REACTORS
330
21D
102
}
330
21D
100
AcDbDictionary
281
1
3
ByBlock
350
22A
3
ByLayer
350
222
3
Global
350
232
0
DICTIONARY
5
276
102
{ACAD_REACTORS
330
21D
102
}
330
21D
100
AcDbDictionary
281
1
3
Standard
350
277
0
DICTIONARY
5
26F
102
{ACAD_REACTORS
330
21D
102
}
330
21D
100
AcDbDictionary
281
1
3
Standard
350
270
0
DICTIONARY
5
271
102
{ACAD_REACTORS
330
21D
102
}
330
21D
100
AcDbDictionary
281
1
0
ACDBDICTIONARYWDFLT
5
21F
102
{ACAD_REACTORS
330
21D
102
}
330
21D
100
AcDbDictionary
281
1
3
Normal
350
220
100
AcDbDictionaryWithDefault
340
220
0
DICTIONARY
5
253
102
{ACAD_REACTORS
330
21D
102
}
330
21D
100
AcDbDictionary
281
1
3
A0
350
254
3
A1
350
255
3
A2
350
256
3
A3
350
257
3
A4
350
258
3
A5
350
259
3
A6
350
25A
3
A7
350
25B
3
A8
350
25C
3
A9
350
25D
3
B0
350
25E
3
B1
350
25F
3
B2
350
260
3
B3
350
261
3
B4
350
262
3
B5
350
263
3
B6
350
264
0
DICTIONARY
5
278
102
{ACAD_REACTORS
330
21D
102
}
330
21D
100
AcDbDictionary
281
1
3
Imperial24
350
27A
0
DICTIONARY
5
274
102
{ACAD_REACTORS
330
21D
102
}
330
21D
100
AcDbDictionary
281
1
3
Standard
350
275
0
DICTIONARY
5
23A
102
{ACAD_REACTORS
330
21D
102
}
330
21D
100
AcDbDictionary
281
1
3
2dWireframe
350
240
3
Basic
350
23F
3
Brighten
350
246
3
ColorChange
350
24A
3
Conceptual
350
243
3
Dim
350
245
3
EdgeColorOff
350
252
3
Facepattern
350
249
3
Flat
350
23B
3
FlatWithEdges
350
23C
3
Gouraud
350
23D
3
GouraudWithEdges
350
23E
3
Hidden
350
242
3
JitterOff
350
250
3
Linepattern
350
248
3
OverhangOff
350
251
3
Realistic
350
244
3
Shaded
350
24F
3
Shaded with edges
350
24E
3
Shades of Gray
350
24B
3
Sketchy
350
24C
3
Thicken
350
247
3
Wireframe
350
241
3
X-Ray
350
24D
0
XRECORD
5
1057
102
{ACAD_REACTORS
330
21D
102
}
330
21D
100
AcDbXrecord
280
1
90
1
330
275
0
DICTIONARY
5
29D
102
{ACAD_REACTORS
330
21D
102
}
330
21D
100
AcDbDictionary
281
1
3
CANNOSCALE
350
2A3
3
CMLEADERSTYLE
350
29F
3
CTABLESTYLE
350
29E
3
CVIEWDETAILSTYLE
350
2A0
3
CVIEWSECTIONSTYLE
350
2A1
3
LAYEREVAL
350
2A5
3
LAYERNOTIFY
350
2A6
3
LIGHTINGUNITS
350
2A4
3
MSLTSCALE
350
2A2
0
DICTIONARY
5
298
102
{ACAD_REACTORS
330
297
102
}
330
297
100
AcDbDictionary
281
1
0
XRECORD
5
293
102
{ACAD_REACTORS
330
292
102
}
330
292
100
AcDbXrecord
280
1
290
1
0
ACDBDETAILVIEWSTYLE
5
27C
102
{ACAD_REACTORS
330
27B
102
}
330
27B
100
AcDbModelDocViewStyle
70
0
3
Imperial24
290
0
100
AcDbDetailViewStyle
70
0
71
0
90
3
71
1
340
266
62
256
40
0.24
340
0
62
256
40
0.24
300

40
0.36
280
3
71
2
340
26D
90
25
62
256
71
3
340
266
62
256
40
0.24
90
1
40
0.75
90
1
300
%<AcVar ViewType  "%tc1">% %<AcVar ViewDetailId>%PSCALE %<AcVar ViewScale  "%sn">%
71
4
340
26D
90
25
62
256
340
26D
90
25
62
256
280
0
0
LAYOUT
5
280
102
{ACAD_REACTORS
330
272
102
}
330
272
100
AcDbPlotSettings
1

2
HP_LaserJet_P1505
4

6

40
0.0
41
0.0
42
0.0
43
0.0
44
0.0
45
0.0
46
0.0
47
0.0
48
0.0
49
0.0
140
0.0
141
0.0
142
1.0
143
1.0
70
688
72
0
73
0
74
5
7

75
16
147
1.0
76
0
77
2
78
300
148
0.0
149
0.0
100
AcDbLayout
1
Layout1
70
1
71
1
10
0.0
20
0.0
11
12.0
21
9.0
12
0.0
22
0.0
32
0.0
14
0.0
24
0.0
34
0.0
15
0.0
25
0.0
35
0.0
146
0.0
13
0.0
23
0.0
33
0.0
16
1.0
26
0.0
36
0.0
17
0.0
27
1.0
37
0.0
76
0
330
27D
0
LAYOUT
5
284
102
{ACAD_REACTORS
330
272
102
}
330
272
100
AcDbPlotSettings
1

2
HP_LaserJet_P1505
4

6

40
0.0
41
0.0
42
0.0
43
0.0
44
0.0
45
0.0
46
0.0
47
0.0
48
0.0
49
0.0
140
0.0
141
0.0
142
1.0
143
1.0
70
1712
72
0
73
0
74
0
7

75
0
147
1.0
76
0
77
2
78
300
148
0.0
149
0.0
100
AcDbLayout
1
Model
70
1
71
0
10
0.0
20
0.0
11
12.0
21
9.0
12
0.0
22
0.0
32
0.0
14
0.0
24
0.0
34
0.0
15
0.0
25
0.0
35
0.0
146
0.0
13
0.0
23
0.0
33
0.0
16
1.0
26
0.0
36
0.0
17
0.0
27
1.0
37
0.0
76
0
330
281
331
285
0
MATERIAL
5
22A
102
{ACAD_XDICTIONARY
360
22B
102
}
102
{ACAD_REACTORS
330
221
102
}
330
221
100
AcDbMaterial
1
ByBlock
72
0
43
0.0208333333333333
43
0.0
43
0.0
43
0.0
43
0.0
43
0.0208333333333333
43
0.0
43
0.0
43
0.0
43
0.0
43
1.0
43
0.0
43
0.0
43
0.0
43
0.0
43
1.0
77
0
47
0.0208333333333333
47
0.0
47
0.0
47
0.0
47
0.0
47
0.0208333333333333
47
0.0
47
0.0
47
0.0
47
0.0
47
1.0
47
0.0
47
0.0
47
0.0
47
0.0
47
1.0
171
0
49
0.0208333333333333
49
0.0
49
0.0
49
0.0
49
0.0
49
0.0208333333333333
49
0.0
49
0.0
49
0.0
49
0.0
49
1.0
49
0.0
49
0.0
49
0.0
49
0.0
49
1.0
175
0
142
0.0208333333333333
142
0.0
142
0.0
142
0.0
142
0.0
142
0.0208333333333333
142
0.0
142
0.0
142
0.0
142
0.0
142
1.0
142
0.0
142
0.0
142
0.0
142
0.0
142
1.0
179
0
144
0.0208333333333333
144
0.0
144
0.0
144
0.0
144
0.0
144
0.0208333333333333
144
0.0
144
0.0
144
0.0
144
0.0
144
1.0
144
0.0
144
0.0
144
0.0
144
0.0
144
1.0
147
0.0208333333333333
147
0.0
147
0.0
147
0.0
147
0.0
147
0.0208333333333333
147
0.0
147
0.0
147
0.0
147
0.0
147
1.0
147
0.0
147
0.0
147
0.0
147
0.0
147
1.0
0
MATERIAL
5
222
102
{ACAD_XDICTIONARY
360
223
102
}
102
{ACAD_REACTORS
330
221
102
}
330
221
100
AcDbMaterial
1
ByLayer
72
0
43
0.0208333333333333
43
0.0
43
0.0
43
0.0
43
0.0
43
0.0208333333333333
43
0.0
43
0.0
43
0.0
43
0.0
43
1.0
43
0.0
43
0.0
43
0.0
43
0.0
43
1.0
77
0
47
0.0208333333333333
47
0.0
47
0.0
47
0.0
47
0.0
47
0.0208333333333333
47
0.0
47
0.0
47
0.0
47
0.0
47
1.0
47
0.0
47
0.0
47
0.0
47
0.0
47
1.0
171
0
49
0.0208333333333333
49
0.0
49
0.0
49
0.0
49
0.0
49
0.0208333333333333
49
0.0
49
0.0
49
0.0
49
0.0
49
1.0
49
0.0
49
0.0
49
0.0
49
0.0
49
1.0
175
0
142
0.0208333333333333
142
0.0
142
0.0
142
0.0
142
0.0
142
0.0208333333333333
142
0.0
142
0.0
142
0.0
142
0.0
142
1.0
142
0.0
142
0.0
142
0.0
142
0.0
142
1.0
179
0
144
0.0208333333333333
144
0.0
144
0.0
144
0.0
144
0.0
144
0.0208333333333333
144
0.0
144
0.0
144
0.0
144
0.0
144
1.0
144
0.0
144
0.0
144
0.0
144
0.0
144
1.0
147
0.0208333333333333
147
0.0
147
0.0
147
0.0
147
0.0
147
0.0208333333333333
147
0.0
147
0.0
147
0.0
147
0.0
147
1.0
147
0.0
147
0.0
147
0.0
147
0.0
147
1.0
0
MATERIAL
5
232
102
{ACAD_XDICTIONARY
360
233
102
}
102
{ACAD_REACTORS
330
221
102
}
330
221
100
AcDbMaterial
1
Global
72
0
43
0.0208333333333333
43
0.0
43
0.0
43
0.0
43
0.0
43
0.0208333333333333
43
0.0
43
0.0
43
0.0
43
0.0
43
1.0
43
0.0
43
0.0
43
0.0
43
0.0
43
1.0
77
0
47
0.0208333333333333
47
0.0
47
0.0
47
0.0
47
0.0
47
0.0208333333333333
47
0.0
47
0.0
47
0.0
47
0.0
47
1.0
47
0.0
47
0.0
47
0.0
47
0.0
47
1.0
171
0
49
0.0208333333333333
49
0.0
49
0.0
49
0.0
49
0.0
49
0.0208333333333333
49
0.0
49
0.0
49
0.0
49
0.0
49
1.0
49
0.0
49
0.0
49
0.0
49
0.0
49
1.0
175
0
142
0.0208333333333333
142
0.0
142
0.0
142
0.0
142
0.0
142
0.0208333333333333
142
0.0
142
0.0
142
0.0
142
0.0
142
1.0
142
0.0
142
0.0
142
0.0
142
0.0
142
1.0
179
0
144
0.0208333333333333
144
0.0
144
0.0
144
0.0
144
0.0
144
0.0208333333333333
144
0.0
144
0.0
144
0.0
144
0.0
144
1.0
144
0.0
144
0.0
144
0.0
144
0.0
144
1.0
147
0.0208333333333333
147
0.0
147
0.0
147
0.0
147
0.0
147
0.0208333333333333
147
0.0
147
0.0
147
0.0
147
0.0
147
1.0
147
0.0
147
0.0
147
0.0
147
0.0
147
1.0
0
MLEADERSTYLE
5
277
102
{ACAD_REACTORS
330
276
102
}
330
276
100
AcDbMLeaderStyle
179
2
170
2
171
1
172
0
90
2
40
0.0
41
0.0
173
1
91
-1056964608
340
26B
92
-2
290
1
42
0.09
291
1
43
0.36
3
Standard
44
0.18
300

342
266
174
1
178
6
175
1
176
0
93
-1056964608
45
0.18
292
0
297
0
46
0.18
94
-1056964608
47
1.0
49
1.0
140
1.0
293
1
141
0.0
294
1
177
0
142
1.0
295
0
296
0
143
0.125
271
0
272
9
273
9
298
0
0
MLINESTYLE
5
270
102
{ACAD_REACTORS
330
26F
102
}
330
26F
100
AcDbMlineStyle
2
STANDARD
70
0
3

62
256
51
90.0
52
90.0
71
2
49
0.5
62
256
6
BYLAYER
49
-0.5
62
256
6
BYLAYER
0
ACDBPLACEHOLDER
5
220
102
{ACAD_REACTORS
330
21F
102
}
330
21F
0
SCALE
5
254
102
{ACAD_REACTORS
330
253
102
}
330
253
100
AcDbScale
70
0
300
1:1
140
1.0
141
1.0
290
1
0
SCALE
5
255
102
{ACAD_REACTORS
330
253
102
}
330
253
100
AcDbScale
70
0
300
1/128" = 1'-0"
140
0.0078125
141
12.0
290
0
0
SCALE
5
256
102
{ACAD_REACTORS
330
253
102
}
330
253
100
AcDbScale
70
0
300
1/64" = 1'-0"
140
0.015625
141
12.0
290
0
0
SCALE
5
257
102
{ACAD_REACTORS
330
253
102
}
330
253
100
AcDbScale
70
0
300
1/32" = 1'-0"
140
0.03125
141
12.0
290
0
0
SCALE
5
258
102
{ACAD_REACTORS
330
253
102
}
330
253
100
AcDbScale
70
0
300
1/16" = 1'-0"
140
0.0625
141
12.0
290
0
0
SCALE
5
259
102
{ACAD_REACTORS
330
253
102
}
330
253
100
AcDbScale
70
0
300
3/32" = 1'-0"
140
0.09375
141
12.0
290
0
0
SCALE
5
25A
102
{ACAD_REACTORS
330
253
102
}
330
253
100
AcDbScale
70
0
300
1/8" = 1'-0"
140
0.125
141
12.0
290
0
0
SCALE
5
25B
102
{ACAD_REACTORS
330
253
102
}
330
253
100
AcDbScale
70
0
300
3/16" = 1'-0"
140
0.1875
141
12.0
290
0
0
SCALE
5
25C
102
{ACAD_REACTORS
330
253
102
}
330
253
100
AcDbScale
70
0
300
1/4" = 1'-0"
140
0.25
141
12.0
290
0
0
SCALE
5
25D
102
{ACAD_REACTORS
330
253
102
}
330
253
100
AcDbScale
70
0
300
3/8" = 1'-0"
140
0.375
141
12.0
290
0
0
SCALE
5
25E
102
{ACAD_REACTORS
330
253
102
}
330
253
100
AcDbScale
70
0
300
1/2" = 1'-0"
140
0.5
141
12.0
290
0
0
SCALE
5
25F
102
{ACAD_REACTORS
330
253
102
}
330
253
100
AcDbScale
70
0
300
3/4" = 1'-0"
140
0.75
141
12.0
290
0
0
SCALE
5
260
102
{ACAD_REACTORS
330
253
102
}
330
253
100
AcDbScale
70
0
300
1" = 1'-0"
140
1.0
141
12.0
290
0
0
SCALE
5
261
102
{ACAD_REACTORS
330
253
102
}
330
253
100
AcDbScale
70
0
300
1-1/2" = 1'-0"
140
1.5
141
12.0
290
0
0
SCALE
5
262
102
{ACAD_REACTORS
330
253
102
}
330
253
100
AcDbScale
70
0
300
3" = 1'-0"
140
3.0
141
12.0
290
0
0
SCALE
5
263
102
{ACAD_REACTORS
330
253
102
}
330
253
100
AcDbScale
70
0
300
6" = 1'-0"
140
6.0
141
12.0
290
0
0
SCALE
5
264
102
{ACAD_REACTORS
330
253
102
}
330
253
100
AcDbScale
70
0
300
1'-0" = 1'-0"
140
12.0
141
12.0
290
0
0
ACDBSECTIONVIEWSTYLE
5
27A
102
{ACAD_REACTORS
330
278
102
}
330
278
100
AcDbModelDocViewStyle
70
0
3
Imperial24
290
0
100
AcDbSectionViewStyle
70
0
71
0
90
78
71
1
340
266
62
256
40
0.24
340
0
340
0
62
256
40
0.24
300
I, O, Q, S, X, Z
40
0.48
90
3
40
0.18
90
1
71
2
340
279
90
25
62
256
340
26D
90
50
62
256
40
0.24
40
0.0
40
0.24
71
3
340
266
62
256
40
0.24
90
1
40
0.75
90
1
300
%<AcVar ViewType  "%tc1">% %<AcVar ViewSectionStartId>%-%<AcVar ViewSectionEndId>%PSCALE %<AcVar ViewScale  "%sn">%
71
4
62
256
62
257
300
ANSI31
40
1.0
90
0
290
0
290
0
90
6
40
0.0
40
1.570796326794896
40
0.2617993877991494
40
1.308996938995747
40
-0.2617993877991494
40
1.832595714594044
0
TABLESTYLE
5
275
102
{ACAD_XDICTIONARY
360
2A7
102
}
102
{ACAD_REACTORS
330
274
102
}
330
274
100
AcDbTableStyle
280
0
3
Standard
70
0
71
0
40
0.06
41
0.06
280
0
281
0
7
STANDARD
140
0.18
170
2
62
0
63
7
283
0
90
512
91
0
1

274
-2
284
1
64
0
275
-2
285
1
65
0
276
-2
286
1
66
0
277
-2
287
1
67
0
278
-2
288
1
68
0
279
-2
289
1
69
0
7
STANDARD
140
0.25
170
5
62
0
63
7
283
0
90
512
91
0
1

274
-2
284
1
64
0
275
-2
285
1
65
0
276
-2
286
1
66
0
277
-2
287
1
67
0
278
-2
288
1
68
0
279
-2
289
1
69
0
7
STANDARD
140
0.18
170
5
62
0
63
7
283
0
90
512
91
0
1

274
-2
284
1
64
0
275
-2
285
1
65
0
276
-2
286
1
66
0
277
-2
287
1
67
0
278
-2
288
1
68
0
279
-2
289
1
69
0
0
VISUALSTYLE
5
240
102
{ACAD_REACTORS
330
23A
102
}
330
23A
100
AcDbVisualStyle
2
2dWireframe
70
4
177
3
291
0
70
58
90
0
176
1
90
2
176
1
90
0
176
1
90
0
176
1
40
0.6
176
1
40
30.0
176
1
62
7
420
16777215
176
1
90
1
176
1
90
4
176
1
62
7
176
1
62
257
176
1
90
1
176
1
90
1
176
1
40
1.0
176
1
90
0
176
1
62
257
176
1
40
1.0
176
1
90
1
176
1
90
6
176
1
90
2
176
1
62
7
176
1
90
5
176
1
90
0
176
1
90
0
176
1
290
0
176
1
90
1
176
1
40
0.0
176
1
90
0
176
1
290
1
176
1
290
1
176
1
290
0
176
1
290
0
176
1
290
0
176
1
290
0
176
1
290
0
176
1
290
0
176
1
290
0
176
1
90
50
176
1
40
0.0
176
1
40
1.0
176
1
90
0
176
1
62
18
176
1
90
50
176
1
90
3
176
1
62
5
420
255
176
1
290
0
176
1
90
50
176
1
90
50
176
1
90
50
176
1
290
0
176
1
90
50
176
1
62
256
176
0
40
1.0
176
0
90
2
176
1
1
strokes_ogs.tif
176
1
290
0
176
1
40
1.0
176
1
40
1.0
176
1
1001
ACAD
1000
AcDbSavedByObjectVersion
1070
0
0
VISUALSTYLE
5
23F
102
{ACAD_REACTORS
330
23A
102
}
330
23A
100
AcDbVisualStyle
2
Basic
70
7
177
3
291
1
70
58
90
1
176
1
90
0
176
1
90
1
176
1
90
0
176
1
40
0.6
176
1
40
30.0
176
1
62
7
420
16777215
176
1
90
0
176
1
90
4
176
1
62
7
176
1
62
257
176
1
90
1
176
1
90
1
176
1
40
1.0
176
1
90
8
176
1
62
7
176
1
40
1.0
176
1
90
1
176
1
90
6
176
1
90
2
176
1
62
7
176
1
90
5
176
1
90
0
176
1
90
0
176
1
290
0
176
1
90
1
176
1
40
0.0
176
1
90
0
176
1
290
0
176
1
290
1
176
1
290
1
176
1
290
0
176
1
290
0
176
1
290
0
176
1
290
0
176
1
290
0
176
1
290
0
176
1
90
50
176
1
40
0.0
176
1
40
1.0
176
1
90
0
176
1
62
18
176
1
90
50
176
1
90
3
176
1
62
5
420
255
176
1
290
0
176
1
90
50
176
1
90
50
176
1
90
50
176
1
290
0
176
1
90
50
176
1
62
256
176
0
40
1.0
176
0
90
2
176
1
1
strokes_ogs.tif
176
1
290
0
176
1
40
1.0
176
1
40
1.0
176
1
1001
ACAD
1000
AcDbSavedByObjectVersion
1070
0
0
VISUALSTYLE
5
246
102
{ACAD_REACTORS
330
23A
102
}
330
23A
100
AcDbVisualStyle
2
Brighten
70
12
177
3
291
1
70
58
90
2
176
1
90
2
176
1
90
0
176
1
90
0
176
1
40
0.6
176
1
40
30.0
176
1
62
7
420
16777215
176
1
90
1
176
1
90
4
176
1
62
7
176
1
62
257
176
1
90
1
176
1
90
1
176
1
40
1.0
176
1
90
8
176
1
62
7
176
1
40
1.0
176
1
90
1
176
1
90
6
176
1
90
2
176
1
62
7
176
1
90
5
176
1
90
0
176
1
90
0
176
1
290
0
176
1
90
1
176
1
40
50.0
176
1
90
0
176
1
290
0
176
1
290
1
176
1
290
1
176
1
290
0
176
1
290
0
176
1
290
0
176
1
290
0
176
1
290
0
176
1
290
0
176
1
90
50
176
1
40
0.0
176
1
40
1.0
176
1
90
0
176
1
62
18
176
1
90
50
176
1
90
3
176
1
62
5
420
255
176
1
290
0
176
1
90
50
176
1
90
50
176
1
90
50
176
1
290
0
176
1
90
50
176
1
62
256
176
0
40
1.0
176
0
90
2
176
1
1
strokes_ogs.tif
176
1
290
0
176
1
40
1.0
176
1
40
1.0
176
1
1001
ACAD
1000
AcDbSavedByObjectVersion
1070
0
0
VISUALSTYLE
5
24A
102
{ACAD_REACTORS
330
23A
102
}
330
23A
100
AcDbVisualStyle
2
ColorChange
70
16
177
3
291
1
70
58
90
2
176
1
90
2
176
1
90
3
176
1
90
0
176
1
40
0.6
176
1
40
30.0
176
1
62
8
420
8421504
176
1
90
1
176
1
90
4
176
1
62
7
176
1
62
257
176
1
90
1
176
1
90
1
176
1
40
1.0
176
1
90
8
176
1
62
8
420
8421504
176
1
40
1.0
176
1
90
1
176
1
90
6
176
1
90
2
176
1
62
7
176
1
90
5
176
1
90
0
176
1
90
0
176
1
290
0
176
1
90
1
176
1
40
0.0
176
1
90
0
176
1
290
0
176
1
290
1
176
1
290
1
176
1
290
0
176
1
290
0
176
1
290
0
176
1
290
0
176
1
290
0
176
1
290
0
176
1
90
50
176
1
40
0.0
176
1
40
1.0
176
1
90
0
176
1
62
18
176
1
90
50
176
1
90
3
176
1
62
5
420
255
176
1
290
0
176
1
90
50
176
1
90
50
176
1
90
50
176
1
290
0
176
1
90
50
176
1
62
256
176
0
40
1.0
176
0
90
2
176
1
1
strokes_ogs.tif
176
1
290
0
176
1
40
1.0
176
1
40
1.0
176
1
1001
ACAD
1000
AcDbSavedByObjectVersion
1070
0
0
VISUALSTYLE
5
243
102
{ACAD_REACTORS
330
23A
102
}
330
23A
100
AcDbVisualStyle
2
Conceptual
70
9
177
3
291
0
70
58
90
3
176
1
90
2
176
1
90
0
176
1
90
0
176
1
40
0.6
176
1
40
30.0
176
1
62
7
420
16777215
176
1
90
2
176
1
90
2
176
1
62
7
176
1
62
257
176
1
90
1
176
1
90
1
176
1
40
179.0
176
1
90
8
176
1
62
7
176
1
40
1.0
176
1
90
1
176
1
90
6
176
1
90
2
176
1
62
7
176
1
90
3
176
1
90
0
176
1
90
0
176
1
290
0
176
1
90
1
176
1
40
0.0
176
1
90
0
176
1
290
0
176
1
290
1
176
1
290
1
176
1
290
0
176
1
290
0
176
1
290
0
176
1
290
0
176
1
290
0
176
1
290
0
176
1
90
50
176
1
40
0.0
176
1
40
1.0
176
1
90
0
176
1
62
18
176
1
90
50
176
1
90
3
176
1
62
5
420
255
176
1
290
0
176
1
90
50
176
1
90
50
176
1
90
50
176
1
290
0
176
1
90
50
176
1
62
256
176
0
40
1.0
176
0
90
2
176
1
1
strokes_ogs.tif
176
1
290
0
176
1
40
1.0
176
1
40
1.0
176
1
1001
ACAD
1000
AcDbSavedByObjectVersion
1070
0
0
VISUALSTYLE
5
245
102
{ACAD_REACTORS
330
23A
102
}
330
23A
100
AcDbVisualStyle
2
Dim
70
11
177
3
291
1
70
58
90
2
176
1
90
2
176
1
90
0
176
1
90
0
176
1
40
0.6
176
1
40
30.0
176
1
62
7
420
16777215
176
1
90
1
176
1
90
4
176
1
62
7
176
1
62
257
176
1
90
1
176
1
90
1
176
1
40
1.0
176
1
90
8
176
1
62
7
176
1
40
1.0
176
1
90
1
176
1
90
6
176
1
90
2
176
1
62
7
176
1
90
5
176
1
90
0
176
1
90
0
176
1
290
0
176
1
90
1
176
1
40
-50.0
176
1
90
0
176
1
290
0
176
1
290
1
176
1
290
1
176
1
290
0
176
1
290
0
176
1
290
0
176
1
290
0
176
1
290
0
176
1
290
0
176
1
90
50
176
1
40
0.0
176
1
40
1.0
176
1
90
0
176
1
62
18
176
1
90
50
176
1
90
3
176
1
62
5
420
255
176
1
290
0
176
1
90
50
176
1
90
50
176
1
90
50
176
1
290
0
176
1
90
50
176
1
62
256
176
0
40
1.0
176
0
90
2
176
1
1
strokes_ogs.tif
176
1
290
0
176
1
40
1.0
176
1
40
1.0
176
1
1001
ACAD
1000
AcDbSavedByObjectVersion
1070
0
0
VISUALSTYLE
5
252
102
{ACAD_REACTORS
330
23A
102
}
330
23A
100
AcDbVisualStyle
2
EdgeColorOff
70
22
177
3
291
1
70
58
90
2
176
0
90
2
176
0
90
0
176
0
90
0
176
0
40
0.6
176
0
40
30.0
176
0
62
7
420
16777215
176
0
90
1
176
0
90
4
176
0
62
7
176
0
62
257
176
0
90
1
176
0
90
1
176
0
40
1.0
176
0
90
8
176
2
62
7
176
0
40
1.0
176
0
90
1
176
0
90
6
176
0
90
2
176
0
62
7
176
0
90
5
176
0
90
0
176
0
90
0
176
0
290
0
176
0
90
1
176
0
40
0.0
176
0
90
0
176
0
290
0
176
1
290
1
176
1
290
1
176
1
290
0
176
1
290
0
176
1
290
0
176
1
290
0
176
1
290
0
176
1
290
0
176
1
90
50
176
0
40
0.0
176
0
40
1.0
176
0
90
0
176
0
62
18
176
0
90
50
176
0
90
3
176
0
62
5
420
255
176
0
290
0
176
1
90
50
176
0
90
50
176
0
90
50
176
0
290
0
176
1
90
50
176
0
62
256
176
0
40
1.0
176
0
90
2
176
0
1
strokes_ogs.tif
176
0
290
0
176
1
40
1.0
176
0
40
1.0
176
0
1001
ACAD
1000
AcDbSavedByObjectVersion
1070
0
0
VISUALSTYLE
5
249
102
{ACAD_REACTORS
330
23A
102
}
330
23A
100
AcDbVisualStyle
2
Facepattern
70
15
177
3
291
1
70
58
90
2
176
1
90
2
176
1
90
0
176
1
90
0
176
1
40
0.6
176
1
40
30.0
176
1
62
7
420
16777215
176
1
90
1
176
1
90
4
176
1
62
7
176
1
62
257
176
1
90
1
176
1
90
1
176
1
40
1.0
176
1
90
8
176
1
62
7
176
1
40
1.0
176
1
90
1
176
1
90
6
176
1
90
2
176
1
62
7
176
1
90
5
176
1
90
0
176
1
90
0
176
1
290
0
176
1
90
1
176
1
40
0.0
176
1
90
0
176
1
290
0
176
1
290
1
176
1
290
1
176
1
290
0
176
1
290
0
176
1
290
0
176
1
290
0
176
1
290
0
176
1
290
0
176
1
90
50
176
1
40
0.0
176
1
40
1.0
176
1
90
0
176
1
62
18
176
1
90
50
176
1
90
3
176
1
62
5
420
255
176
1
290
0
176
1
90
50
176
1
90
50
176
1
90
50
176
1
290
0
176
1
90
50
176
1
62
256
176
0
40
1.0
176
0
90
2
176
1
1
strokes_ogs.tif
176
1
290
0
176
1
40
1.0
176
1
40
1.0
176
1
1001
ACAD
1000
AcDbSavedByObjectVersion
1070
0
0
VISUALSTYLE
5
23B
102
{ACAD_REACTORS
330
23A
102
}
330
23A
100
AcDbVisualStyle
2
Flat
70
0
177
3
291
1
70
58
90
2
176
1
90
1
176
1
90
1
176
1
90
2
176
1
40
0.6
176
1
40
30.0
176
1
62
7
420
16777215
176
1
90
0
176
1
90
0
176
1
62
7
176
1
62
257
176
1
90
1
176
1
90
1
176
1
40
1.0
176
1
90
8
176
1
62
7
176
1
40
1.0
176
1
90
1
176
1
90
6
176
1
90
2
176
1
62
7
176
1
90
5
176
1
90
0
176
1
90
0
176
1
290
0
176
1
90
13
176
1
40
0.0
176
1
90
0
176
1
290
0
176
1
290
1
176
1
290
1
176
1
290
0
176
1
290
0
176
1
290
0
176
1
290
0
176
1
290
0
176
1
290
0
176
1
90
50
176
1
40
0.0
176
1
40
1.0
176
1
90
0
176
1
62
18
176
1
90
50
176
1
90
3
176
1
62
5
420
255
176
1
290
0
176
1
90
50
176
1
90
50
176
1
90
50
176
1
290
0
176
1
90
50
176
1
62
256
176
0
40
1.0
176
0
90
2
176
1
1
strokes_ogs.tif
176
1
290
0
176
1
40
1.0
176
1
40
1.0
176
1
1001
ACAD
1000
AcDbSavedByObjectVersion
1070
0
0
VISUALSTYLE
5
23C
102
{ACAD_REACTORS
330
23A
102
}
330
23A
100
AcDbVisualStyle
2
FlatWithEdges
70
1
177
3
291
1
70
58
90
2
176
1
90
1
176
1
90
1
176
1
90
2
176
1
40
0.6
176
1
40
30.0
176
1
62
7
420
16777215
176
1
90
1
176
1
90
0
176
1
62
7
176
1
62
257
176
1
90
1
176
1
90
1
176
1
40
1.0
176
1
90
0
176
1
62
257
176
1
40
1.0
176
1
90
1
176
1
90
6
176
1
90
2
176
1
62
7
176
1
90
5
176
1
90
0
176
1
90
0
176
1
290
0
176
1
90
13
176
1
40
0.0
176
1
90
0
176
1
290
0
176
1
290
1
176
1
290
1
176
1
290
0
176
1
290
0
176
1
290
0
176
1
290
0
176
1
290
0
176
1
290
0
176
1
90
50
176
1
40
0.0
176
1
40
1.0
176
1
90
0
176
1
62
18
176
1
90
50
176
1
90
3
176
1
62
5
420
255
176
1
290
0
176
1
90
50
176
1
90
50
176
1
90
50
176
1
290
0
176
1
90
50
176
1
62
256
176
0
40
1.0
176
0
90
2
176
1
1
strokes_ogs.tif
176
1
290
0
176
1
40
1.0
176
1
40
1.0
176
1
1001
ACAD
1000
AcDbSavedByObjectVersion
1070
0
0
VISUALSTYLE
5
23D
102
{ACAD_REACTORS
330
23A
102
}
330
23A
100
AcDbVisualStyle
2
Gouraud
70
2
177
3
291
1
70
58
90
2
176
1
90
2
176
1
90
1
176
1
90
2
176
1
40
0.6
176
1
40
30.0
176
1
62
7
420
16777215
176
1
90
0
176
1
90
0
176
1
62
7
176
1
62
257
176
1
90
1
176
1
90
1
176
1
40
1.0
176
1
90
0
176
1
62
7
176
1
40
1.0
176
1
90
1
176
1
90
6
176
1
90
2
176
1
62
7
176
1
90
5
176
1
90
0
176
1
90
0
176
1
290
0
176
1
90
13
176
1
40
0.0
176
1
90
0
176
1
290
0
176
1
290
1
176
1
290
1
176
1
290
0
176
1
290
0
176
1
290
0
176
1
290
0
176
1
290
0
176
1
290
0
176
1
90
50
176
1
40
0.0
176
1
40
1.0
176
1
90
0
176
1
62
18
176
1
90
50
176
1
90
3
176
1
62
5
420
255
176
1
290
0
176
1
90
50
176
1
90
50
176
1
90
50
176
1
290
0
176
1
90
50
176
1
62
256
176
0
40
1.0
176
0
90
2
176
1
1
strokes_ogs.tif
176
1
290
0
176
1
40
1.0
176
1
40
1.0
176
1
1001
ACAD
1000
AcDbSavedByObjectVersion
1070
0
0
VISUALSTYLE
5
23E
102
{ACAD_REACTORS
330
23A
102
}
330
23A
100
AcDbVisualStyle
2
GouraudWithEdges
70
3
177
3
291
1
70
58
90
2
176
1
90
2
176
1
90
1
176
1
90
2
176
1
40
0.6
176
1
40
30.0
176
1
62
7
420
16777215
176
1
90
1
176
1
90
0
176
1
62
7
176
1
62
257
176
1
90
1
176
1
90
1
176
1
40
1.0
176
1
90
0
176
1
62
257
176
1
40
1.0
176
1
90
1
176
1
90
6
176
1
90
2
176
1
62
7
176
1
90
5
176
1
90
0
176
1
90
0
176
1
290
0
176
1
90
13
176
1
40
0.0
176
1
90
0
176
1
290
0
176
1
290
1
176
1
290
1
176
1
290
0
176
1
290
0
176
1
290
0
176
1
290
0
176
1
290
0
176
1
290
0
176
1
90
50
176
1
40
0.0
176
1
40
1.0
176
1
90
0
176
1
62
18
176
1
90
50
176
1
90
3
176
1
62
5
420
255
176
1
290
0
176
1
90
50
176
1
90
50
176
1
90
50
176
1
290
0
176
1
90
50
176
1
62
256
176
0
40
1.0
176
0
90
2
176
1
1
strokes_ogs.tif
176
1
290
0
176
1
40
1.0
176
1
40
1.0
176
1
1001
ACAD
1000
AcDbSavedByObjectVersion
1070
0
0
VISUALSTYLE
5
242
102
{ACAD_REACTORS
330
23A
102
}
330
23A
100
AcDbVisualStyle
2
Hidden
70
6
177
3
291
0
70
58
90
1
176
1
90
2
176
1
90
2
176
1
90
0
176
1
40
0.6
176
1
40
30.0
176
1
62
7
420
16777215
176
1
90
2
176
1
90
2
176
1
62
7
176
1
62
257
176
1
90
2
176
1
90
1
176
1
40
40.0
176
1
90
0
176
1
62
257
176
1
40
1.0
176
1
90
1
176
1
90
6
176
1
90
2
176
1
62
7
176
1
90
3
176
1
90
0
176
1
90
0
176
1
290
0
176
1
90
1
176
1
40
0.0
176
1
90
0
176
1
290
0
176
1
290
1
176
1
290
1
176
1
290
0
176
1
290
0
176
1
290
0
176
1
290
0
176
1
290
0
176
1
290
0
176
1
90
50
176
1
40
0.0
176
1
40
1.0
176
1
90
0
176
1
62
18
176
1
90
50
176
1
90
3
176
1
62
5
420
255
176
1
290
0
176
1
90
50
176
1
90
50
176
1
90
50
176
1
290
0
176
1
90
50
176
1
62
256
176
0
40
1.0
176
0
90
2
176
1
1
strokes_ogs.tif
176
1
290
0
176
1
40
1.0
176
1
40
1.0
176
1
1001
ACAD
1000
AcDbSavedByObjectVersion
1070
0
0
VISUALSTYLE
5
250
102
{ACAD_REACTORS
330
23A
102
}
330
23A
100
AcDbVisualStyle
2
JitterOff
70
20
177
3
291
1
70
58
90
2
176
0
90
2
176
0
90
0
176
0
90
0
176
0
40
0.6
176
0
40
30.0
176
0
62
7
420
16777215
176
0
90
1
176
0
90
4
176
0
62
7
176
0
62
257
176
0
90
1
176
0
90
1
176
0
40
1.0
176
0
90
10
176
2
62
7
176
0
40
1.0
176
0
90
1
176
0
90
6
176
0
90
2
176
0
62
7
176
0
90
5
176
0
90
0
176
0
90
0
176
0
290
0
176
0
90
1
176
0
40
0.0
176
0
90
0
176
0
290
0
176
1
290
1
176
1
290
1
176
1
290
0
176
1
290
0
176
1
290
0
176
1
290
0
176
1
290
0
176
1
290
0
176
1
90
50
176
0
40
0.0
176
0
40
1.0
176
0
90
0
176
0
62
18
176
0
90
50
176
0
90
3
176
0
62
5
420
255
176
0
290
0
176
1
90
50
176
0
90
50
176
0
90
50
176
0
290
0
176
1
90
50
176
0
62
256
176
0
40
1.0
176
0
90
2
176
0
1
strokes_ogs.tif
176
0
290
0
176
1
40
1.0
176
0
40
1.0
176
0
1001
ACAD
1000
AcDbSavedByObjectVersion
1070
0
0
VISUALSTYLE
5
248
102
{ACAD_REACTORS
330
23A
102
}
330
23A
100
AcDbVisualStyle
2
Linepattern
70
14
177
3
291
1
70
58
90
2
176
1
90
2
176
1
90
0
176
1
90
0
176
1
40
0.6
176
1
40
30.0
176
1
62
7
420
16777215
176
1
90
1
176
1
90
4
176
1
62
7
176
1
62
257
176
1
90
7
176
1
90
7
176
1
40
1.0
176
1
90
8
176
1
62
7
176
1
40
1.0
176
1
90
1
176
1
90
6
176
1
90
2
176
1
62
7
176
1
90
5
176
1
90
0
176
1
90
0
176
1
290
0
176
1
90
1
176
1
40
0.0
176
1
90
0
176
1
290
0
176
1
290
1
176
1
290
1
176
1
290
0
176
1
290
0
176
1
290
0
176
1
290
0
176
1
290
0
176
1
290
0
176
1
90
50
176
1
40
0.0
176
1
40
1.0
176
1
90
0
176
1
62
18
176
1
90
50
176
1
90
3
176
1
62
5
420
255
176
1
290
0
176
1
90
50
176
1
90
50
176
1
90
50
176
1
290
0
176
1
90
50
176
1
62
256
176
0
40
1.0
176
0
90
2
176
1
1
strokes_ogs.tif
176
1
290
0
176
1
40
1.0
176
1
40
1.0
176
1
1001
ACAD
1000
AcDbSavedByObjectVersion
1070
0
0
VISUALSTYLE
5
251
102
{ACAD_REACTORS
330
23A
102
}
330
23A
100
AcDbVisualStyle
2
OverhangOff
70
21
177
3
291
1
70
58
90
2
176
0
90
2
176
0
90
0
176
0
90
0
176
0
40
0.6
176
0
40
30.0
176
0
62
7
420
16777215
176
0
90
1
176
0
90
4
176
0
62
7
176
0
62
257
176
0
90
1
176
0
90
1
176
0
40
1.0
176
0
90
9
176
2
62
7
176
0
40
1.0
176
0
90
1
176
0
90
6
176
0
90
2
176
0
62
7
176
0
90
5
176
0
90
0
176
0
90
0
176
0
290
0
176
0
90
1
176
0
40
0.0
176
0
90
0
176
0
290
0
176
1
290
1
176
1
290
1
176
1
290
0
176
1
290
0
176
1
290
0
176
1
290
0
176
1
290
0
176
1
290
0
176
1
90
50
176
0
40
0.0
176
0
40
1.0
176
0
90
0
176
0
62
18
176
0
90
50
176
0
90
3
176
0
62
5
420
255
176
0
290
0
176
1
90
50
176
0
90
50
176
0
90
50
176
0
290
0
176
1
90
50
176
0
62
256
176
0
40
1.0
176
0
90
2
176
0
1
strokes_ogs.tif
176
0
290
0
176
1
40
1.0
176
0
40
1.0
176
0
1001
ACAD
1000
AcDbSavedByObjectVersion
1070
0
0
VISUALSTYLE
5
244
102
{ACAD_REACTORS
330
23A
102
}
330
23A
100
AcDbVisualStyle
2
Realistic
70
8
177
3
291
0
70
58
90
2
176
1
90
3
176
1
90
0
176
1
90
2
176
1
40
0.6
176
1
40
30.0
176
1
62
7
420
16777215
176
1
90
0
176
1
90
0
176
1
62
7
176
1
62
257
176
1
90
1
176
1
90
1
176
1
40
1.0
176
1
90
8
176
1
62
257
176
1
40
1.0
176
1
90
1
176
1
90
6
176
1
90
2
176
1
62
7
176
1
90
3
176
1
90
0
176
1
90
0
176
1
290
0
176
1
90
13
176
1
40
0.0
176
1
90
0
176
1
290
0
176
1
290
1
176
1
290
1
176
1
290
0
176
1
290
0
176
1
290
0
176
1
290
0
176
1
290
0
176
1
290
0
176
1
90
50
176
1
40
0.0
176
1
40
1.0
176
1
90
0
176
1
62
18
176
1
90
50
176
1
90
3
176
1
62
5
420
255
176
1
290
0
176
1
90
50
176
1
90
50
176
1
90
50
176
1
290
0
176
1
90
50
176
1
62
256
176
0
40
1.0
176
0
90
2
176
1
1
strokes_ogs.tif
176
1
290
0
176
1
40
1.0
176
1
40
1.0
176
1
1001
ACAD
1000
AcDbSavedByObjectVersion
1070
0
0
VISUALSTYLE
5
24F
102
{ACAD_REACTORS
330
23A
102
}
330
23A
100
AcDbVisualStyle
2
Shaded
70
27
177
3
291
0
70
58
90
2
176
1
90
2
176
1
90
1
176
1
90
2
176
1
40
0.6
176
1
40
30.0
176
1
62
7
420
16777215
176
1
90
0
176
1
90
4
176
1
62
7
176
1
62
257
176
1
90
1
176
1
90
1
176
1
40
1.0
176
1
90
8
176
1
62
257
176
1
40
1.0
176
1
90
1
176
1
90
6
176
1
90
2
176
1
62
8
420
7895160
176
1
90
3
176
1
90
0
176
1
90
0
176
1
290
0
176
1
90
5
176
1
40
0.0
176
1
90
0
176
1
290
0
176
1
290
1
176
1
290
1
176
1
290
0
176
1
290
0
176
1
290
0
176
1
290
0
176
1
290
0
176
1
290
0
176
1
90
50
176
1
40
0.0
176
1
40
1.0
176
1
90
0
176
1
62
18
176
1
90
50
176
1
90
3
176
1
62
5
420
255
176
1
290
0
176
1
90
50
176
1
90
50
176
1
90
50
176
1
290
0
176
1
90
50
176
1
62
256
176
0
40
1.0
176
0
90
2
176
1
1
strokes_ogs.tif
176
1
290
0
176
1
40
1.0
176
1
40
1.0
176
1
1001
ACAD
1000
AcDbSavedByObjectVersion
1070
0
0
VISUALSTYLE
5
24E
102
{ACAD_REACTORS
330
23A
102
}
330
23A
100
AcDbVisualStyle
2
Shaded with edges
70
26
177
3
291
0
70
58
90
2
176
1
90
2
176
1
90
1
176
1
90
2
176
1
40
0.6
176
1
40
30.0
176
1
62
7
420
16777215
176
1
90
1
176
1
90
10
176
1
62
7
176
1
62
257
176
1
90
2
176
1
90
1
176
1
40
1.0
176
1
90
8
176
1
62
257
176
1
40
1.0
176
1
90
1
176
1
90
6
176
1
90
2
176
1
62
7
176
1
90
3
176
1
90
0
176
1
90
0
176
1
290
0
176
1
90
5
176
1
40
0.0
176
1
90
0
176
1
290
0
176
1
290
1
176
1
290
1
176
1
290
0
176
1
290
0
176
1
290
0
176
1
290
0
176
1
290
0
176
1
290
0
176
1
90
50
176
1
40
0.0
176
1
40
1.0
176
1
90
0
176
1
62
18
176
1
90
50
176
1
90
3
176
1
62
5
420
255
176
1
290
0
176
1
90
50
176
1
90
50
176
1
90
50
176
1
290
0
176
1
90
50
176
1
62
256
176
0
40
1.0
176
0
90
2
176
1
1
strokes_ogs.tif
176
1
290
0
176
1
40
1.0
176
1
40
1.0
176
1
1001
ACAD
1000
AcDbSavedByObjectVersion
1070
0
0
VISUALSTYLE
5
24B
102
{ACAD_REACTORS
330
23A
102
}
330
23A
100
AcDbVisualStyle
2
Shades of Gray
70
23
177
3
291
0
70
58
90
2
176
1
90
2
176
1
90
3
176
1
90
0
176
1
40
0.6
176
1
40
30.0
176
1
62
7
420
16777215
176
1
90
2
176
1
90
2
176
1
62
7
176
1
62
7
176
1
90
1
176
1
90
1
176
1
40
40.0
176
1
90
8
176
1
62
7
176
1
40
1.0
176
1
90
1
176
1
90
6
176
1
90
2
176
1
62
7
176
1
90
3
176
1
90
0
176
1
90
0
176
1
290
0
176
1
90
1
176
1
40
0.0
176
1
90
0
176
1
290
0
176
1
290
1
176
1
290
1
176
1
290
0
176
1
290
0
176
1
290
0
176
1
290
0
176
1
290
0
176
1
290
0
176
1
90
50
176
1
40
0.0
176
1
40
1.0
176
1
90
0
176
1
62
18
176
1
90
50
176
1
90
3
176
1
62
5
420
255
176
1
290
0
176
1
90
50
176
1
90
50
176
1
90
50
176
1
290
0
176
1
90
50
176
1
62
256
176
0
40
1.0
176
0
90
2
176
1
1
strokes_ogs.tif
176
1
290
0
176
1
40
1.0
176
1
40
1.0
176
1
1001
ACAD
1000
AcDbSavedByObjectVersion
1070
0
0
VISUALSTYLE
5
24C
102
{ACAD_REACTORS
330
23A
102
}
330
23A
100
AcDbVisualStyle
2
Sketchy
70
24
177
3
291
0
70
58
90
1
176
1
90
2
176
1
90
2
176
1
90
0
176
1
40
0.6
176
1
40
30.0
176
1
62
7
420
16777215
176
1
90
2
176
1
90
2
176
1
62
7
176
1
62
7
176
1
90
1
176
1
90
1
176
1
40
40.0
176
1
90
11
176
1
62
7
176
1
40
1.0
176
1
90
1
176
1
90
6
176
1
90
2
176
1
62
7
176
1
90
6
176
1
90
0
176
1
90
0
176
1
290
0
176
1
90
1
176
1
40
0.0
176
1
90
0
176
1
290
0
176
1
290
1
176
1
290
1
176
1
290
0
176
1
290
0
176
1
290
0
176
1
290
0
176
1
290
0
176
1
290
0
176
1
90
50
176
1
40
0.0
176
1
40
1.0
176
1
90
0
176
1
62
18
176
1
90
50
176
1
90
3
176
1
62
5
420
255
176
1
290
0
176
1
90
50
176
1
90
50
176
1
90
50
176
1
290
0
176
1
90
50
176
1
62
256
176
0
40
1.0
176
0
90
2
176
1
1
strokes_ogs.tif
176
1
290
0
176
1
40
1.0
176
1
40
1.0
176
1
1001
ACAD
1000
AcDbSavedByObjectVersion
1070
0
0
VISUALSTYLE
5
247
102
{ACAD_REACTORS
330
23A
102
}
330
23A
100
AcDbVisualStyle
2
Thicken
70
13
177
3
291
1
70
58
90
2
176
1
90
2
176
1
90
0
176
1
90
0
176
1
40
0.6
176
1
40
30.0
176
1
62
7
420
16777215
176
1
90
1
176
1
90
4
176
1
62
7
176
1
62
257
176
1
90
1
176
1
90
1
176
1
40
1.0
176
1
90
12
176
1
62
7
176
1
40
1.0
176
1
90
1
176
1
90
6
176
1
90
2
176
1
62
7
176
1
90
5
176
1
90
0
176
1
90
0
176
1
290
0
176
1
90
1
176
1
40
0.0
176
1
90
0
176
1
290
0
176
1
290
1
176
1
290
1
176
1
290
0
176
1
290
0
176
1
290
0
176
1
290
0
176
1
290
0
176
1
290
0
176
1
90
50
176
1
40
0.0
176
1
40
1.0
176
1
90
0
176
1
62
18
176
1
90
50
176
1
90
3
176
1
62
5
420
255
176
1
290
0
176
1
90
50
176
1
90
50
176
1
90
50
176
1
290
0
176
1
90
50
176
1
62
256
176
0
40
1.0
176
0
90
2
176
1
1
strokes_ogs.tif
176
1
290
0
176
1
40
1.0
176
1
40
1.0
176
1
1001
ACAD
1000
AcDbSavedByObjectVersion
1070
0
0
VISUALSTYLE
5
241
102
{ACAD_REACTORS
330
23A
102
}
330
23A
100
AcDbVisualStyle
2
Wireframe
70
5
177
3
291
0
70
58
90
0
176
1
90
2
176
1
90
0
176
1
90
0
176
1
40
0.6
176
1
40
30.0
176
1
62
7
420
16777215
176
1
90
1
176
1
90
4
176
1
62
7
176
1
62
257
176
1
90
1
176
1
90
1
176
1
40
1.0
176
1
90
0
176
1
62
257
176
1
40
1.0
176
1
90
1
176
1
90
6
176
1
90
2
176
1
62
7
176
1
90
3
176
1
90
0
176
1
90
0
176
1
290
0
176
1
90
1
176
1
40
0.0
176
1
90
0
176
1
290
0
176
1
290
1
176
1
290
1
176
1
290
0
176
1
290
0
176
1
290
0
176
1
290
0
176
1
290
0
176
1
290
0
176
1
90
50
176
1
40
0.0
176
1
40
1.0
176
1
90
0
176
1
62
18
176
1
90
50
176
1
90
3
176
1
62
5
420
255
176
1
290
0
176
1
90
50
176
1
90
50
176
1
90
50
176
1
290
0
176
1
90
50
176
1
62
256
176
0
40
1.0
176
0
90
2
176
1
1
strokes_ogs.tif
176
1
290
0
176
1
40
1.0
176
1
40
1.0
176
1
1001
ACAD
1000
AcDbSavedByObjectVersion
1070
0
0
VISUALSTYLE
5
24D
102
{ACAD_REACTORS
330
23A
102
}
330
23A
100
AcDbVisualStyle
2
X-Ray
70
25
177
3
291
0
70
58
90
2
176
1
90
2
176
1
90
1
176
1
90
1
176
1
40
0.5
176
1
40
30.0
176
1
62
7
420
16777215
176
1
90
1
176
1
90
0
176
1
62
7
176
1
62
257
176
1
90
1
176
1
90
1
176
1
40
1.0
176
1
90
8
176
1
62
7
176
1
40
1.0
176
1
90
1
176
1
90
6
176
1
90
2
176
1
62
7
176
1
90
3
176
1
90
0
176
1
90
0
176
1
290
0
176
1
90
13
176
1
40
0.0
176
1
90
0
176
1
290
0
176
1
290
1
176
1
290
1
176
1
290
0
176
1
290
0
176
1
290
0
176
1
290
0
176
1
290
0
176
1
290
0
176
1
90
50
176
1
40
0.0
176
1
40
1.0
176
1
90
0
176
1
62
18
176
1
90
50
176
1
90
3
176
1
62
5
420
255
176
1
290
0
176
1
90
50
176
1
90
50
176
1
90
50
176
1
290
0
176
1
90
50
176
1
62
256
176
0
40
1.0
176
0
90
2
176
1
1
strokes_ogs.tif
176
1
290
0
176
1
40
1.0
176
1
40
1.0
176
1
1001
ACAD
1000
AcDbSavedByObjectVersion
1070
0
0
DICTIONARYVAR
5
2A3
102
{ACAD_REACTORS
330
29D
102
}
330
29D
100
DictionaryVariables
280
0
1
1:1
0
DICTIONARYVAR
5
29F
102
{ACAD_REACTORS
330
29D
102
}
330
29D
100
DictionaryVariables
280
0
1
STANDARD
0
DICTIONARYVAR
5
29E
102
{ACAD_REACTORS
330
29D
102
}
330
29D
100
DictionaryVariables
280
0
1
STANDARD
0
DICTIONARYVAR
5
2A0
102
{ACAD_REACTORS
330
29D
102
}
330
29D
100
DictionaryVariables
280
0
1
Imperial24
0
DICTIONARYVAR
5
2A1
102
{ACAD_REACTORS
330
29D
102
}
330
29D
100
DictionaryVariables
280
0
1
Imperial24
0
DICTIONARYVAR
5
2A5
102
{ACAD_REACTORS
330
29D
102
}
330
29D
100
DictionaryVariables
280
0
1
1
0
DICTIONARYVAR
5
2A6
102
{ACAD_REACTORS
330
29D
102
}
330
29D
100
DictionaryVariables
280
0
1
15
0
DICTIONARYVAR
5
2A4
102
{ACAD_REACTORS
330
29D
102
}
330
29D
100
DictionaryVariables
280
0
1
0
0
DICTIONARYVAR
5
2A2
102
{ACAD_REACTORS
330
29D
102
}
330
29D
100
DictionaryVariables
280
0
1
0
0
DICTIONARY
5
22B
330
22A
100
AcDbDictionary
280
1
281
1
3
BUMPTILE
360
22D
3
DIFFUSETILE
360
22C
3
OPACITYTILE
360
230
3
REFLECTIONTILE
360
22F
3
REFRACTIONTILE
360
231
3
SPECULARTILE
360
22E
0
DICTIONARY
5
223
330
222
100
AcDbDictionary
280
1
281
1
3
BUMPTILE
360
225
3
DIFFUSETILE
360
224
3
OPACITYTILE
360
228
3
REFLECTIONTILE
360
227
3
REFRACTIONTILE
360
229
3
SPECULARTILE
360
226
0
DICTIONARY
5
233
330
232
100
AcDbDictionary
280
1
281
1
3
BUMPTILE
360
235
3
DIFFUSETILE
360
234
3
OPACITYTILE
360
238
3
REFLECTIONTILE
360
237
3
REFRACTIONTILE
360
239
3
SPECULARTILE
360
236
0
DICTIONARY
5
2A7
330
275
100
AcDbDictionary
280
1
281
1
3
ACAD_ROUNDTRIP_2008_TABLESTYLE_CELLSTYLEMAP
360
1056
0
XRECORD
5
22D
102
{ACAD_REACTORS
330
22B
102
}
330
22B
100
AcDbXrecord
280
1
270
1
271
1
0
XRECORD
5
22C
102
{ACAD_REACTORS
330
22B
102
}
330
22B
100
AcDbXrecord
280
1
270
1
271
1
0
XRECORD
5
230
102
{ACAD_REACTORS
330
22B
102
}
330
22B
100
AcDbXrecord
280
1
270
1
271
1
0
XRECORD
5
22F
102
{ACAD_REACTORS
330
22B
102
}
330
22B
100
AcDbXrecord
280
1
270
1
271
1
0
XRECORD
5
231
102
{ACAD_REACTORS
330
22B
102
}
330
22B
100
AcDbXrecord
280
1
270
1
271
1
0
XRECORD
5
22E
102
{ACAD_REACTORS
330
22B
102
}
330
22B
100
AcDbXrecord
280
1
270
1
271
1
0
XRECORD
5
225
102
{ACAD_REACTORS
330
223
102
}
330
223
100
AcDbXrecord
280
1
270
1
271
1
0
XRECORD
5
224
102
{ACAD_REACTORS
330
223
102
}
330
223
100
AcDbXrecord
280
1
270
1
271
1
0
XRECORD
5
228
102
{ACAD_REACTORS
330
223
102
}
330
223
100
AcDbXrecord
280
1
270
1
271
1
0
XRECORD
5
227
102
{ACAD_REACTORS
330
223
102
}
330
223
100
AcDbXrecord
280
1
270
1
271
1
0
XRECORD
5
229
102
{ACAD_REACTORS
330
223
102
}
330
223
100
AcDbXrecord
280
1
270
1
271
1
0
XRECORD
5
226
102
{ACAD_REACTORS
330
223
102
}
330
223
100
AcDbXrecord
280
1
270
1
271
1
0
XRECORD
5
235
102
{ACAD_REACTORS
330
233
102
}
330
233
100
AcDbXrecord
280
1
270
1
271
1
0
XRECORD
5
234
102
{ACAD_REACTORS
330
233
102
}
330
233
100
AcDbXrecord
280
1
270
1
271
1
0
XRECORD
5
238
102
{ACAD_REACTORS
330
233
102
}
330
233
100
AcDbXrecord
280
1
270
1
271
1
0
XRECORD
5
237
102
{ACAD_REACTORS
330
233
102
}
330
233
100
AcDbXrecord
280
1
270
1
271
1
0
XRECORD
5
239
102
{ACAD_REACTORS
330
233
102
}
330
233
100
AcDbXrecord
280
1
270
1
271
1
0
XRECORD
5
236
102
{ACAD_REACTORS
330
233
102
}
330
233
100
AcDbXrecord
280
1
270
1
271
1
0
CELLSTYLEMAP
5
1056
102
{ACAD_REACTORS
330
2A7
102
}
330
2A7
100
AcDbCellStyleMap
90
3
300
CELLSTYLE
1
TABLEFORMAT_BEGIN
90
5
170
1
91
0
92
32768
62
257
93
1
300
CONTENTFORMAT
1
CONTENTFORMAT_BEGIN
90
0
91
0
92
512
93
0
300

40
0.0
140
1.0
94
5
62
0
340
266
144
0.25
309
CONTENTFORMAT_END
171
1
301
MARGIN
1
CELLMARGIN_BEGIN
40
0.06
40
0.06
40
0.06
40
0.06
40
0.18
40
0.18
309
CELLMARGIN_END
94
6
95
1
302
GRIDFORMAT
1
GRIDFORMAT_BEGIN
90
0
91
1
62
0
92
-2
340
0
93
0
40
0.045
309
GRIDFORMAT_END
95
2
302
GRIDFORMAT
1
GRIDFORMAT_BEGIN
90
0
91
1
62
0
92
-2
340
0
93
0
40
0.045
309
GRIDFORMAT_END
95
4
302
GRIDFORMAT
1
GRIDFORMAT_BEGIN
90
0
91
1
62
0
92
-2
340
0
93
0
40
0.045
309
GRIDFORMAT_END
95
8
302
GRIDFORMAT
1
GRIDFORMAT_BEGIN
90
0
91
1
62
0
92
-2
340
0
93
0
40
0.045
309
GRIDFORMAT_END
95
16
302
GRIDFORMAT
1
GRIDFORMAT_BEGIN
90
0
91
1
62
0
92
-2
340
0
93
0
40
0.045
309
GRIDFORMAT_END
95
32
302
GRIDFORMAT
1
GRIDFORMAT_BEGIN
90
0
91
1
62
0
92
-2
340
0
93
0
40
0.045
309
GRIDFORMAT_END
309
TABLEFORMAT_END
1
CELLSTYLE_BEGIN
90
1
91
1
300
_TITLE
309
CELLSTYLE_END
300
CELLSTYLE
1
TABLEFORMAT_BEGIN
90
5
170
1
91
0
92
0
62
257
93
1
300
CONTENTFORMAT
1
CONTENTFORMAT_BEGIN
90
0
91
0
92
512
93
0
300

40
0.0
140
1.0
94
5
62
0
340
266
144
0.18
309
CONTENTFORMAT_END
171
1
301
MARGIN
1
CELLMARGIN_BEGIN
40
0.06
40
0.06
40
0.06
40
0.06
40
0.18
40
0.18
309
CELLMARGIN_END
94
6
95
1
302
GRIDFORMAT
1
GRIDFORMAT_BEGIN
90
0
91
1
62
0
92
-2
340
0
93
0
40
0.045
309
GRIDFORMAT_END
95
2
302
GRIDFORMAT
1
GRIDFORMAT_BEGIN
90
0
91
1
62
0
92
-2
340
0
93
0
40
0.045
309
GRIDFORMAT_END
95
4
302
GRIDFORMAT
1
GRIDFORMAT_BEGIN
90
0
91
1
62
0
92
-2
340
0
93
0
40
0.045
309
GRIDFORMAT_END
95
8
302
GRIDFORMAT
1
GRIDFORMAT_BEGIN
90
0
91
1
62
0
92
-2
340
0
93
0
40
0.045
309
GRIDFORMAT_END
95
16
302
GRIDFORMAT
1
GRIDFORMAT_BEGIN
90
0
91
1
62
0
92
-2
340
0
93
0
40
0.045
309
GRIDFORMAT_END
95
32
302
GRIDFORMAT
1
GRIDFORMAT_BEGIN
90
0
91
1
62
0
92
-2
340
0
93
0
40
0.045
309
GRIDFORMAT_END
309
TABLEFORMAT_END
1
CELLSTYLE_BEGIN
90
2
91
1
300
_HEADER
309
CELLSTYLE_END
300
CELLSTYLE
1
TABLEFORMAT_BEGIN
90
5
170
1
91
0
92
0
62
257
93
1
300
CONTENTFORMAT
1
CONTENTFORMAT_BEGIN
90
0
91
0
92
512
93
0
300

40
0.0
140
1.0
94
2
62
0
340
266
144
0.18
309
CONTENTFORMAT_END
171
1
301
MARGIN
1
CELLMARGIN_BEGIN
40
0.06
40
0.06
40
0.06
40
0.06
40
0.18
40
0.18
309
CELLMARGIN_END
94
6
95
1
302
GRIDFORMAT
1
GRIDFORMAT_BEGIN
90
0
91
1
62
0
92
-2
340
0
93
0
40
0.045
309
GRIDFORMAT_END
95
2
302
GRIDFORMAT
1
GRIDFORMAT_BEGIN
90
0
91
1
62
0
92
-2
340
0
93
0
40
0.045
309
GRIDFORMAT_END
95
4
302
GRIDFORMAT
1
GRIDFORMAT_BEGIN
90
0
91
1
62
0
92
-2
340
0
93
0
40
0.045
309
GRIDFORMAT_END
95
8
302
GRIDFORMAT
1
GRIDFORMAT_BEGIN
90
0
91
1
62
0
92
-2
340
0
93
0
40
0.045
309
GRIDFORMAT_END
95
16
302
GRIDFORMAT
1
GRIDFORMAT_BEGIN
90
0
91
1
62
0
92
-2
340
0
93
0
40
0.045
309
GRIDFORMAT_END
95
32
302
GRIDFORMAT
1
GRIDFORMAT_BEGIN
90
0
91
1
62
0
92
-2
340
0
93
0
40
0.045
309
GRIDFORMAT_END
309
TABLEFORMAT_END
1
CELLSTYLE_BEGIN
90
3
91
2
300
_DATA
309
CELLSTYLE_END
0
ENDSEC
0
SECTION
2
ACDSDATA
70
2
71
2
0
ACDSSCHEMA
90
0
1
AcDb_Thumbnail_Schema
2
AcDbDs::ID
280
10
91
8
2
Thumbnail_Data
280
15
91
0
101
ACDSRECORD
95
0
90
1
2
AcDbDs::TreatedAsObjectData
280
1
291
1
101
ACDSRECORD
95
0
90
2
2
AcDbDs::Legacy
280
1
291
1
101
ACDSRECORD
1
AcDbDs::ID
90
3
2
AcDs:Indexable
280
1
291
1
101
ACDSRECORD
1
AcDbDs::ID
90
4
2
AcDbDs::HandleAttribute
280
7
282
1
0
ACDSSCHEMA
90
1
1
AcDbDs::TreatedAsObjectDataSchema
2
AcDbDs::TreatedAsObjectData
280
1
91
0
0
ACDSSCHEMA
90
2
1
AcDbDs::LegacySchema
2
AcDbDs::Legacy
280
1
91
0
0
ACDSSCHEMA
90
3
1
AcDbDs::IndexedPropertySchema
2
AcDs:Indexable
280
1
91
0
0
ACDSSCHEMA
90
4
1
AcDbDs::HandleAttributeSchema
2
AcDbDs::HandleAttribute
280
7
91
1
284
1
0
ACDSRECORD
90
0
2
AcDbDs::ID
280
10
320
284
2
Thumbnail_Data
280
15
94
1130
310
89504E470D0A1A0A0000000D4948445200000100000000BB0803000000BDD6B05600000300504C54452128300000000000000000000000000000000000000000000000000000000000000000330000660000990000CC0000FF0033000033330033660033990033CC0033FF0066000066330066660066990066CC0066FF0099
310
000099330099660099990099CC0099FF00CC0000CC3300CC6600CC9900CCCC00CCFF00FF0000FF3300FF6600FF9900FFCC00FFFF3300003300333300663300993300CC3300FF3333003333333333663333993333CC3333FF3366003366333366663366993366CC3366FF3399003399333399663399993399CC3399FF33CC00
310
33CC3333CC6633CC9933CCCC33CCFF33FF0033FF3333FF6633FF9933FFCC33FFFF6600006600336600666600996600CC6600FF6633006633336633666633996633CC6633FF6666006666336666666666996666CC6666FF6699006699336699666699996699CC6699FF66CC0066CC3366CC6666CC9966CCCC66CCFF66FF0066
310
FF3366FF6666FF9966FFCC66FFFF9900009900339900669900999900CC9900FF9933009933339933669933999933CC9933FF9966009966339966669966999966CC9966FF9999009999339999669999999999CC9999FF99CC0099CC3399CC6699CC9999CCCC99CCFF99FF0099FF3399FF6699FF9999FFCC99FFFFCC0000CC00
310
33CC0066CC0099CC00CCCC00FFCC3300CC3333CC3366CC3399CC33CCCC33FFCC6600CC6633CC6666CC6699CC66CCCC66FFCC9900CC9933CC9966CC9999CC99CCCC99FFCCCC00CCCC33CCCC66CCCC99CCCCCCCCCCFFCCFF00CCFF33CCFF66CCFF99CCFFCCCCFFFFFF0000FF0033FF0066FF0099FF00CCFF00FFFF3300FF3333
310
FF3366FF3399FF33CCFF33FFFF6600FF6633FF6666FF6699FF66CCFF66FFFF9900FF9933FF9966FF9999FF99CCFF99FFFFCC00FFCC33FFCC66FFCC99FFCCCCFFCCFFFFFF00FFFF33FFFF66FFFF99FFFFCCFFFFFF0000000D0D0D1A1A1A2828283535354343435050505D5D5D6B6B6B787878868686939393A1A1A1AEAEAEBB
310
BBBBC9C9C9D6D6D6E4E4E4F1F1F1FFFFFF000000000000000000000000000000000000000000000000000000000000544354A80000004549444154789CEDC13101000000C2A0F54F6D094FA000000000000000000000000000000000000000000000000000000000000000000000000000000000000000000000E062BBBB00
310
01006808E50000000049454E44AE4260824BBACA0DB465ABDB4063B2B20534072BDA4047AC9A0DF4A42AD9407A015D99E20BA8D8407A019D89143066171752C0D0E513E84D54AE01050C5E7F7B0A18BA7C020A18BA7C02F105C4FF0C2920FE4024FE484C01F1C7E2F11723AEC65C8EBA1E372071982F7D48A87EFCC5989C41
310
49A3B22F9BB861E9DF3E73F299D3F25FC9D901000000000000000000000000000000000000000000E0344F3123803F1ED9B2780000000049454E44AE426082FADAD667F149BFC5000000000000000000000000000000000000000070A90F51C3A687E5D1137C0000000049454E44AE426082
0
ENDSEC
0
EOF
