0
SECTION
2
HEADER
9
$ANGDIR
70
1
9
$AUNITS
70
0
9
$PROJECTNAME
1
Update Final Project v7
9
$TDCREATE
40
2460281.66461509
9
$INSUNITS
70
4
0
ENDSEC
0
SECTION
2
ENTITIES
0
POLYLINE
66
1
8
outline
10
0.0
20
0.0
30
0.0
70
1
0
VERTEX
8
0
10
0
20
5.08
30
0
0
VERTEX
8
0
10
59.67
20
5.08
30
0
0
VERTEX
8
0
10
59.67
20
75.87
30
0
0
VERTEX
8
0
10
0
20
75.87
30
0
0
VERTEX
8
0
10
0
20
5.08
30
0
0
SEQEND
0
POLYLINE
66
1
8
holes
10
0.0
20
0.0
30
0.0
70
1
0
VERTEX
8
0
10
6.125
20
71.805790625
30
0
0
VERTEX
8
0
10
6.117246875
20
71.677603125
30
0
0
VERTEX
8
0
10
6.1017656250000005
20
71.550115625
30
0
0
VERTEX
8
0
10
6.07861875
20
71.4238
30
0
0
VERTEX
8
0
10
6.047884375000001
20
71.299109375
30
0
0
VERTEX
8
0
10
6.009678125000001
20
71.176503125
30
0
0
VERTEX
8
0
10
5.964140625000001
20
71.056425
30
0
0
VERTEX
8
0
10
5.911434375000001
20
70.93931875
30
0
0
VERTEX
8
0
10
5.851753125
20
70.82560625
30
0
0
VERTEX
8
0
10
5.785315625
20
70.71570625
30
0
0
VERTEX
8
0
10
5.712365625
20
70.61001875000001
30
0
0
VERTEX
8
0
10
5.633165625
20
70.508928125
30
0
0
VERTEX
8
0
10
5.54800625
20
70.412803125
30
0
0
VERTEX
8
0
10
5.457196875
20
70.32199375
30
0
0
VERTEX
8
0
10
5.361071875
20
70.236834375
30
0
0
VERTEX
8
0
10
5.25998125
20
70.157634375
30
0
0
VERTEX
8
0
10
5.15429375
20
70.08468437500001
30
0
0
VERTEX
8
0
10
5.04439375
20
70.018246875
30
0
0
VERTEX
8
0
10
4.93068125
20
69.958565625
30
0
0
VERTEX
8
0
10
4.813575
20
69.905859375
30
0
0
VERTEX
8
0
10
4.693496875
20
69.860321875
30
0
0
VERTEX
8
0
10
4.5708906250000005
20
69.82211562500001
30
0
0
VERTEX
8
0
10
4.4462
20
69.79138125
30
0
0
VERTEX
8
0
10
4.319884375
20
69.768234375
30
0
0
VERTEX
8
0
10
4.192396875
20
69.752753125
30
0
0
VERTEX
8
0
10
4.064209375
20
69.745
30
0
0
VERTEX
8
0
10
3.935790625
20
69.745
30
0
0
VERTEX
8
0
10
3.807603125
20
69.752753125
30
0
0
VERTEX
8
0
10
3.680115625
20
69.768234375
30
0
0
VERTEX
8
0
10
3.5538000000000003
20
69.79138125
30
0
0
VERTEX
8
0
10
3.4291093750000003
20
69.82211562500001
30
0
0
VERTEX
8
0
10
3.3065031250000003
20
69.860321875
30
0
0
VERTEX
8
0
10
3.1864250000000003
20
69.905859375
30
0
0
VERTEX
8
0
10
3.0693187500000003
20
69.958565625
30
0
0
VERTEX
8
0
10
2.95560625
20
70.018246875
30
0
0
VERTEX
8
0
10
2.84570625
20
70.08468437500001
30
0
0
VERTEX
8
0
10
2.74001875
20
70.157634375
30
0
0
VERTEX
8
0
10
2.638928125
20
70.236834375
30
0
0
VERTEX
8
0
10
2.5428031250000003
20
70.32199375
30
0
0
VERTEX
8
0
10
2.45199375
20
70.412803125
30
0
0
VERTEX
8
0
10
2.3668343750000003
20
70.508928125
30
0
0
VERTEX
8
0
10
2.287634375
20
70.61001875000001
30
0
0
VERTEX
8
0
10
2.214684375
20
70.71570625
30
0
0
VERTEX
8
0
10
2.148246875
20
70.82560625
30
0
0
VERTEX
8
0
10
2.088565625
20
70.93931875
30
0
0
VERTEX
8
0
10
2.0358593750000002
20
71.056425
30
0
0
VERTEX
8
0
10
1.990321875
20
71.176503125
30
0
0
VERTEX
8
0
10
1.952115625
20
71.299109375
30
0
0
VERTEX
8
0
10
1.92138125
20
71.4238
30
0
0
VERTEX
8
0
10
1.8982343750000001
20
71.550115625
30
0
0
VERTEX
8
0
10
1.882753125
20
71.677603125
30
0
0
VERTEX
8
0
10
1.875
20
71.805790625
30
0
0
VERTEX
8
0
10
1.875
20
71.93420937500001
30
0
0
VERTEX
8
0
10
1.882753125
20
72.062396875
30
0
0
VERTEX
8
0
10
1.8982343750000001
20
72.189884375
30
0
0
VERTEX
8
0
10
1.92138125
20
72.31620000000001
30
0
0
VERTEX
8
0
10
1.952115625
20
72.44089062500001
30
0
0
VERTEX
8
0
10
1.990321875
20
72.563496875
30
0
0
VERTEX
8
0
10
2.0358593750000002
20
72.683575
30
0
0
VERTEX
8
0
10
2.088565625
20
72.80068125
30
0
0
VERTEX
8
0
10
2.148246875
20
72.91439375
30
0
0
VERTEX
8
0
10
2.214684375
20
73.02429375
30
0
0
VERTEX
8
0
10
2.287634375
20
73.12998125
30
0
0
VERTEX
8
0
10
2.3668343750000003
20
73.231071875
30
0
0
VERTEX
8
0
10
2.45199375
20
73.327196875
30
0
0
VERTEX
8
0
10
2.5428031250000003
20
73.41800625
30
0
0
VERTEX
8
0
10
2.638928125
20
73.50316562500001
30
0
0
VERTEX
8
0
10
2.74001875
20
73.58236562500001
30
0
0
VERTEX
8
0
10
2.84570625
20
73.655315625
30
0
0
VERTEX
8
0
10
2.95560625
20
73.721753125
30
0
0
VERTEX
8
0
10
3.0693187500000003
20
73.781434375
30
0
0
VERTEX
8
0
10
3.1864250000000003
20
73.834140625
30
0
0
VERTEX
8
0
10
3.3065031250000003
20
73.879678125
30
0
0
VERTEX
8
0
10
3.4291093750000003
20
73.917884375
30
0
0
VERTEX
8
0
10
3.5538000000000003
20
73.94861875000001
30
0
0
VERTEX
8
0
10
3.680115625
20
73.971765625
30
0
0
VERTEX
8
0
10
3.807603125
20
73.987246875
30
0
0
VERTEX
8
0
10
3.935790625
20
73.995
30
0
0
VERTEX
8
0
10
4.064209375
20
73.995
30
0
0
VERTEX
8
0
10
4.192396875
20
73.987246875
30
0
0
VERTEX
8
0
10
4.319884375
20
73.971765625
30
0
0
VERTEX
8
0
10
4.4462
20
73.94861875000001
30
0
0
VERTEX
8
0
10
4.5708906250000005
20
73.917884375
30
0
0
VERTEX
8
0
10
4.693496875
20
73.879678125
30
0
0
VERTEX
8
0
10
4.813575
20
73.834140625
30
0
0
VERTEX
8
0
10
4.93068125
20
73.781434375
30
0
0
VERTEX
8
0
10
5.04439375
20
73.721753125
30
0
0
VERTEX
8
0
10
5.15429375
20
73.655315625
30
0
0
VERTEX
8
0
10
5.25998125
20
73.58236562500001
30
0
0
VERTEX
8
0
10
5.361071875
20
73.50316562500001
30
0
0
VERTEX
8
0
10
5.457196875
20
73.41800625
30
0
0
VERTEX
8
0
10
5.54800625
20
73.327196875
30
0
0
VERTEX
8
0
10
5.633165625
20
73.231071875
30
0
0
VERTEX
8
0
10
5.712365625
20
73.12998125
30
0
0
VERTEX
8
0
10
5.785315625
20
73.02429375
30
0
0
VERTEX
8
0
10
5.851753125
20
72.91439375
30
0
0
VERTEX
8
0
10
5.911434375000001
20
72.80068125
30
0
0
VERTEX
8
0
10
5.964140625000001
20
72.683575
30
0
0
VERTEX
8
0
10
6.009678125000001
20
72.563496875
30
0
0
VERTEX
8
0
10
6.047884375000001
20
72.44089062500001
30
0
0
VERTEX
8
0
10
6.07861875
20
72.31620000000001
30
0
0
VERTEX
8
0
10
6.1017656250000005
20
72.189884375
30
0
0
VERTEX
8
0
10
6.117246875
20
72.062396875
30
0
0
VERTEX
8
0
10
6.125
20
71.93420937500001
30
0
0
VERTEX
8
0
10
6.125
20
71.805790625
30
0
0
SEQEND
0
POLYLINE
66
1
8
holes
10
0.0
20
0.0
30
0.0
70
1
0
VERTEX
8
0
10
57.795
20
71.805790625
30
0
0
VERTEX
8
0
10
57.787246875
20
71.677603125
30
0
0
VERTEX
8
0
10
57.771765625
20
71.550115625
30
0
0
VERTEX
8
0
10
57.748618750000006
20
71.4238
30
0
0
VERTEX
8
0
10
57.717884375000004
20
71.299109375
30
0
0
VERTEX
8
0
10
57.679678125
20
71.176503125
30
0
0
VERTEX
8
0
10
57.634140625
20
71.056425
30
0
0
VERTEX
8
0
10
57.581434375
20
70.93931875
30
0
0
VERTEX
8
0
10
57.521753125000004
20
70.82560625
30
0
0
VERTEX
8
0
10
57.455315625000004
20
70.71570625
30
0
0
VERTEX
8
0
10
57.382365625000006
20
70.61001875000001
30
0
0
VERTEX
8
0
10
57.303165625000005
20
70.508928125
30
0
0
VERTEX
8
0
10
57.21800625
20
70.412803125
30
0
0
VERTEX
8
0
10
57.127196875
20
70.32199375
30
0
0
VERTEX
8
0
10
57.031071875
20
70.236834375
30
0
0
VERTEX
8
0
10
56.929981250000004
20
70.157634375
30
0
0
VERTEX
8
0
10
56.82429375
20
70.08468437500001
30
0
0
VERTEX
8
0
10
56.71439375
20
70.018246875
30
0
0
VERTEX
8
0
10
56.60068125
20
69.958565625
30
0
0
VERTEX
8
0
10
56.483575
20
69.905859375
30
0
0
VERTEX
8
0
10
56.363496875
20
69.860321875
30
0
0
VERTEX
8
0
10
56.240890625000006
20
69.82211562500001
30
0
0
VERTEX
8
0
10
56.1162
20
69.79138125
30
0
0
VERTEX
8
0
10
55.989884375
20
69.768234375
30
0
0
VERTEX
8
0
10
55.862396875
20
69.752753125
30
0
0
VERTEX
8
0
10
55.734209375000006
20
69.745
30
0
0
VERTEX
8
0
10
55.605790625000004
20
69.745
30
0
0
VERTEX
8
0
10
55.477603125
20
69.752753125
30
0
0
VERTEX
8
0
10
55.350115625
20
69.768234375
30
0
0
VERTEX
8
0
10
55.223800000000004
20
69.79138125
30
0
0
VERTEX
8
0
10
55.099109375000005
20
69.82211562500001
30
0
0
VERTEX
8
0
10
54.976503125
20
69.860321875
30
0
0
VERTEX
8
0
10
54.856425
20
69.905859375
30
0
0
VERTEX
8
0
10
54.73931875
20
69.958565625
30
0
0
VERTEX
8
0
10
54.625606250000004
20
70.018246875
30
0
0
VERTEX
8
0
10
54.51570625
20
70.08468437500001
30
0
0
VERTEX
8
0
10
54.410018750000006
20
70.157634375
30
0
0
VERTEX
8
0
10
54.308928125
20
70.236834375
30
0
0
VERTEX
8
0
10
54.212803125
20
70.32199375
30
0
0
VERTEX
8
0
10
54.12199375
20
70.412803125
30
0
0
VERTEX
8
0
10
54.036834375000005
20
70.508928125
30
0
0
VERTEX
8
0
10
53.957634375000005
20
70.61001875000001
30
0
0
VERTEX
8
0
10
53.884684375
20
70.71570625
30
0
0
VERTEX
8
0
10
53.818246875
20
70.82560625
30
0
0
VERTEX
8
0
10
53.758565625
20
70.93931875
30
0
0
VERTEX
8
0
10
53.705859375
20
71.056425
30
0
0
VERTEX
8
0
10
53.660321875
20
71.176503125
30
0
0
VERTEX
8
0
10
53.622115625
20
71.299109375
30
0
0
VERTEX
8
0
10
53.591381250000005
20
71.4238
30
0
0
VERTEX
8
0
10
53.568234375
20
71.550115625
30
0
0
VERTEX
8
0
10
53.552753125
20
71.677603125
30
0
0
VERTEX
8
0
10
53.545
20
71.805790625
30
0
0
VERTEX
8
0
10
53.545
20
71.93420937500001
30
0
0
VERTEX
8
0
10
53.552753125
20
72.062396875
30
0
0
VERTEX
8
0
10
53.568234375
20
72.189884375
30
0
0
VERTEX
8
0
10
53.591381250000005
20
72.31620000000001
30
0
0
VERTEX
8
0
10
53.622115625
20
72.44089062500001
30
0
0
VERTEX
8
0
10
53.660321875
20
72.563496875
30
0
0
VERTEX
8
0
10
53.705859375
20
72.683575
30
0
0
VERTEX
8
0
10
53.758565625
20
72.80068125
30
0
0
VERTEX
8
0
10
53.818246875
20
72.91439375
30
0
0
VERTEX
8
0
10
53.884684375
20
73.02429375
30
0
0
VERTEX
8
0
10
53.957634375000005
20
73.12998125
30
0
0
VERTEX
8
0
10
54.036834375000005
20
73.231071875
30
0
0
VERTEX
8
0
10
54.12199375
20
73.327196875
30
0
0
VERTEX
8
0
10
54.212803125
20
73.41800625
30
0
0
VERTEX
8
0
10
54.308928125
20
73.50316562500001
30
0
0
VERTEX
8
0
10
54.410018750000006
20
73.58236562500001
30
0
0
VERTEX
8
0
10
54.51570625
20
73.655315625
30
0
0
VERTEX
8
0
10
54.625606250000004
20
73.721753125
30
0
0
VERTEX
8
0
10
54.73931875
20
73.781434375
30
0
0
VERTEX
8
0
10
54.856425
20
73.834140625
30
0
0
VERTEX
8
0
10
54.976503125
20
73.879678125
30
0
0
VERTEX
8
0
10
55.099109375000005
20
73.917884375
30
0
0
VERTEX
8
0
10
55.223800000000004
20
73.94861875000001
30
0
0
VERTEX
8
0
10
55.350115625
20
73.971765625
30
0
0
VERTEX
8
0
10
55.477603125
20
73.987246875
30
0
0
VERTEX
8
0
10
55.605790625000004
20
73.995
30
0
0
VERTEX
8
0
10
55.734209375000006
20
73.995
30
0
0
VERTEX
8
0
10
55.862396875
20
73.987246875
30
0
0
VERTEX
8
0
10
55.989884375
20
73.971765625
30
0
0
VERTEX
8
0
10
56.1162
20
73.94861875000001
30
0
0
VERTEX
8
0
10
56.240890625000006
20
73.917884375
30
0
0
VERTEX
8
0
10
56.363496875
20
73.879678125
30
0
0
VERTEX
8
0
10
56.483575
20
73.834140625
30
0
0
VERTEX
8
0
10
56.60068125
20
73.781434375
30
0
0
VERTEX
8
0
10
56.71439375
20
73.721753125
30
0
0
VERTEX
8
0
10
56.82429375
20
73.655315625
30
0
0
VERTEX
8
0
10
56.929981250000004
20
73.58236562500001
30
0
0
VERTEX
8
0
10
57.031071875
20
73.50316562500001
30
0
0
VERTEX
8
0
10
57.127196875
20
73.41800625
30
0
0
VERTEX
8
0
10
57.21800625
20
73.327196875
30
0
0
VERTEX
8
0
10
57.303165625000005
20
73.231071875
30
0
0
VERTEX
8
0
10
57.382365625000006
20
73.12998125
30
0
0
VERTEX
8
0
10
57.455315625000004
20
73.02429375
30
0
0
VERTEX
8
0
10
57.521753125000004
20
72.91439375
30
0
0
VERTEX
8
0
10
57.581434375
20
72.80068125
30
0
0
VERTEX
8
0
10
57.634140625
20
72.683575
30
0
0
VERTEX
8
0
10
57.679678125
20
72.563496875
30
0
0
VERTEX
8
0
10
57.717884375000004
20
72.44089062500001
30
0
0
VERTEX
8
0
10
57.748618750000006
20
72.31620000000001
30
0
0
VERTEX
8
0
10
57.771765625
20
72.189884375
30
0
0
VERTEX
8
0
10
57.787246875
20
72.062396875
30
0
0
VERTEX
8
0
10
57.795
20
71.93420937500001
30
0
0
VERTEX
8
0
10
57.795
20
71.805790625
30
0
0
SEQEND
0
POLYLINE
66
1
8
holes
10
0.0
20
0.0
30
0.0
70
1
0
VERTEX
8
0
10
6.125
20
9.015790625000001
30
0
0
VERTEX
8
0
10
6.117246875
20
8.887603125
30
0
0
VERTEX
8
0
10
6.1017656250000005
20
8.760115625000001
30
0
0
VERTEX
8
0
10
6.07861875
20
8.6338
30
0
0
VERTEX
8
0
10
6.047884375000001
20
8.509109375
30
0
0
VERTEX
8
0
10
6.009678125000001
20
8.386503125
30
0
0
VERTEX
8
0
10
5.964140625000001
20
8.266425
30
0
0
VERTEX
8
0
10
5.911434375000001
20
8.14931875
30
0
0
VERTEX
8
0
10
5.851753125
20
8.03560625
30
0
0
VERTEX
8
0
10
5.785315625
20
7.92570625
30
0
0
VERTEX
8
0
10
5.712365625
20
7.82001875
30
0
0
VERTEX
8
0
10
5.633165625
20
7.718928125000001
30
0
0
VERTEX
8
0
10
5.54800625
20
7.622803125000001
30
0
0
VERTEX
8
0
10
5.457196875
20
7.531993750000001
30
0
0
VERTEX
8
0
10
5.361071875
20
7.446834375000001
30
0
0
VERTEX
8
0
10
5.25998125
20
7.367634375000001
30
0
0
VERTEX
8
0
10
5.15429375
20
7.294684375
30
0
0
VERTEX
8
0
10
5.04439375
20
7.228246875
30
0
0
VERTEX
8
0
10
4.93068125
20
7.168565625
30
0
0
VERTEX
8
0
10
4.813575
20
7.115859375
30
0
0
VERTEX
8
0
10
4.693496875
20
7.070321875
30
0
0
VERTEX
8
0
10
4.5708906250000005
20
7.032115625
30
0
0
VERTEX
8
0
10
4.4462
20
7.0013812500000006
30
0
0
VERTEX
8
0
10
4.319884375
20
6.978234375
30
0
0
VERTEX
8
0
10
4.192396875
20
6.962753125000001
30
0
0
VERTEX
8
0
10
4.064209375
20
6.955
30
0
0
VERTEX
8
0
10
3.935790625
20
6.955
30
0
0
VERTEX
8
0
10
3.807603125
20
6.962753125000001
30
0
0
VERTEX
8
0
10
3.680115625
20
6.978234375
30
0
0
VERTEX
8
0
10
3.5538000000000003
20
7.0013812500000006
30
0
0
VERTEX
8
0
10
3.4291093750000003
20
7.032115625
30
0
0
VERTEX
8
0
10
3.3065031250000003
20
7.070321875
30
0
0
VERTEX
8
0
10
3.1864250000000003
20
7.115859375
30
0
0
VERTEX
8
0
10
3.0693187500000003
20
7.168565625
30
0
0
VERTEX
8
0
10
2.95560625
20
7.228246875
30
0
0
VERTEX
8
0
10
2.84570625
20
7.294684375
30
0
0
VERTEX
8
0
10
2.74001875
20
7.367634375000001
30
0
0
VERTEX
8
0
10
2.638928125
20
7.446834375000001
30
0
0
VERTEX
8
0
10
2.5428031250000003
20
7.531993750000001
30
0
0
VERTEX
8
0
10
2.45199375
20
7.622803125000001
30
0
0
VERTEX
8
0
10
2.3668343750000003
20
7.718928125000001
30
0
0
VERTEX
8
0
10
2.287634375
20
7.82001875
30
0
0
VERTEX
8
0
10
2.214684375
20
7.92570625
30
0
0
VERTEX
8
0
10
2.148246875
20
8.03560625
30
0
0
VERTEX
8
0
10
2.088565625
20
8.14931875
30
0
0
VERTEX
8
0
10
2.0358593750000002
20
8.266425
30
0
0
VERTEX
8
0
10
1.990321875
20
8.386503125
30
0
0
VERTEX
8
0
10
1.952115625
20
8.509109375
30
0
0
VERTEX
8
0
10
1.92138125
20
8.6338
30
0
0
VERTEX
8
0
10
1.8982343750000001
20
8.760115625000001
30
0
0
VERTEX
8
0
10
1.882753125
20
8.887603125
30
0
0
VERTEX
8
0
10
1.875
20
9.015790625000001
30
0
0
VERTEX
8
0
10
1.875
20
9.144209375
30
0
0
VERTEX
8
0
10
1.882753125
20
9.272396875
30
0
0
VERTEX
8
0
10
1.8982343750000001
20
9.399884375000001
30
0
0
VERTEX
8
0
10
1.92138125
20
9.526200000000001
30
0
0
VERTEX
8
0
10
1.952115625
20
9.650890625
30
0
0
VERTEX
8
0
10
1.990321875
20
9.773496875000001
30
0
0
VERTEX
8
0
10
2.0358593750000002
20
9.893575
30
0
0
VERTEX
8
0
10
2.088565625
20
10.010681250000001
30
0
0
VERTEX
8
0
10
2.148246875
20
10.124393750000001
30
0
0
VERTEX
8
0
10
2.214684375
20
10.23429375
30
0
0
VERTEX
8
0
10
2.287634375
20
10.339981250000001
30
0
0
VERTEX
8
0
10
2.3668343750000003
20
10.441071875
30
0
0
VERTEX
8
0
10
2.45199375
20
10.537196875000001
30
0
0
VERTEX
8
0
10
2.5428031250000003
20
10.62800625
30
0
0
VERTEX
8
0
10
2.638928125
20
10.713165625
30
0
0
VERTEX
8
0
10
2.74001875
20
10.792365625
30
0
0
VERTEX
8
0
10
2.84570625
20
10.865315625000001
30
0
0
VERTEX
8
0
10
2.95560625
20
10.931753125
30
0
0
VERTEX
8
0
10
3.0693187500000003
20
10.991434375
30
0
0
VERTEX
8
0
10
3.1864250000000003
20
11.044140625
30
0
0
VERTEX
8
0
10
3.3065031250000003
20
11.089678125
30
0
0
VERTEX
8
0
10
3.4291093750000003
20
11.127884375
30
0
0
VERTEX
8
0
10
3.5538000000000003
20
11.15861875
30
0
0
VERTEX
8
0
10
3.680115625
20
11.181765625
30
0
0
VERTEX
8
0
10
3.807603125
20
11.197246875000001
30
0
0
VERTEX
8
0
10
3.935790625
20
11.205
30
0
0
VERTEX
8
0
10
4.064209375
20
11.205
30
0
0
VERTEX
8
0
10
4.192396875
20
11.197246875000001
30
0
0
VERTEX
8
0
10
4.319884375
20
11.181765625
30
0
0
VERTEX
8
0
10
4.4462
20
11.15861875
30
0
0
VERTEX
8
0
10
4.5708906250000005
20
11.127884375
30
0
0
VERTEX
8
0
10
4.693496875
20
11.089678125
30
0
0
VERTEX
8
0
10
4.813575
20
11.044140625
30
0
0
VERTEX
8
0
10
4.93068125
20
10.991434375
30
0
0
VERTEX
8
0
10
5.04439375
20
10.931753125
30
0
0
VERTEX
8
0
10
5.15429375
20
10.865315625000001
30
0
0
VERTEX
8
0
10
5.25998125
20
10.792365625
30
0
0
VERTEX
8
0
10
5.361071875
20
10.713165625
30
0
0
VERTEX
8
0
10
5.457196875
20
10.62800625
30
0
0
VERTEX
8
0
10
5.54800625
20
10.537196875000001
30
0
0
VERTEX
8
0
10
5.633165625
20
10.441071875
30
0
0
VERTEX
8
0
10
5.712365625
20
10.339981250000001
30
0
0
VERTEX
8
0
10
5.785315625
20
10.23429375
30
0
0
VERTEX
8
0
10
5.851753125
20
10.124393750000001
30
0
0
VERTEX
8
0
10
5.911434375000001
20
10.010681250000001
30
0
0
VERTEX
8
0
10
5.964140625000001
20
9.893575
30
0
0
VERTEX
8
0
10
6.009678125000001
20
9.773496875000001
30
0
0
VERTEX
8
0
10
6.047884375000001
20
9.650890625
30
0
0
VERTEX
8
0
10
6.07861875
20
9.526200000000001
30
0
0
VERTEX
8
0
10
6.1017656250000005
20
9.399884375000001
30
0
0
VERTEX
8
0
10
6.117246875
20
9.272396875
30
0
0
VERTEX
8
0
10
6.125
20
9.144209375
30
0
0
VERTEX
8
0
10
6.125
20
9.015790625000001
30
0
0
SEQEND
0
POLYLINE
66
1
8
holes
10
0.0
20
0.0
30
0.0
70
1
0
VERTEX
8
0
10
57.795
20
9.015790625000001
30
0
0
VERTEX
8
0
10
57.787246875
20
8.887603125
30
0
0
VERTEX
8
0
10
57.771765625
20
8.760115625000001
30
0
0
VERTEX
8
0
10
57.748618750000006
20
8.6338
30
0
0
VERTEX
8
0
10
57.717884375000004
20
8.509109375
30
0
0
VERTEX
8
0
10
57.679678125
20
8.386503125
30
0
0
VERTEX
8
0
10
57.634140625
20
8.266425
30
0
0
VERTEX
8
0
10
57.581434375
20
8.14931875
30
0
0
VERTEX
8
0
10
57.521753125000004
20
8.03560625
30
0
0
VERTEX
8
0
10
57.455315625000004
20
7.92570625
30
0
0
VERTEX
8
0
10
57.382365625000006
20
7.82001875
30
0
0
VERTEX
8
0
10
57.303165625000005
20
7.718928125000001
30
0
0
VERTEX
8
0
10
57.21800625
20
7.622803125000001
30
0
0
VERTEX
8
0
10
57.127196875
20
7.531993750000001
30
0
0
VERTEX
8
0
10
57.031071875
20
7.446834375000001
30
0
0
VERTEX
8
0
10
56.929981250000004
20
7.367634375000001
30
0
0
VERTEX
8
0
10
56.82429375
20
7.294684375
30
0
0
VERTEX
8
0
10
56.71439375
20
7.228246875
30
0
0
VERTEX
8
0
10
56.60068125
20
7.168565625
30
0
0
VERTEX
8
0
10
56.483575
20
7.115859375
30
0
0
VERTEX
8
0
10
56.363496875
20
7.070321875
30
0
0
VERTEX
8
0
10
56.240890625000006
20
7.032115625
30
0
0
VERTEX
8
0
10
56.1162
20
7.0013812500000006
30
0
0
VERTEX
8
0
10
55.989884375
20
6.978234375
30
0
0
VERTEX
8
0
10
55.862396875
20
6.962753125000001
30
0
0
VERTEX
8
0
10
55.734209375000006
20
6.955
30
0
0
VERTEX
8
0
10
55.605790625000004
20
6.955
30
0
0
VERTEX
8
0
10
55.477603125
20
6.962753125000001
30
0
0
VERTEX
8
0
10
55.350115625
20
6.978234375
30
0
0
VERTEX
8
0
10
55.223800000000004
20
7.0013812500000006
30
0
0
VERTEX
8
0
10
55.099109375000005
20
7.032115625
30
0
0
VERTEX
8
0
10
54.976503125
20
7.070321875
30
0
0
VERTEX
8
0
10
54.856425
20
7.115859375
30
0
0
VERTEX
8
0
10
54.73931875
20
7.168565625
30
0
0
VERTEX
8
0
10
54.625606250000004
20
7.228246875
30
0
0
VERTEX
8
0
10
54.51570625
20
7.294684375
30
0
0
VERTEX
8
0
10
54.410018750000006
20
7.367634375000001
30
0
0
VERTEX
8
0
10
54.308928125
20
7.446834375000001
30
0
0
VERTEX
8
0
10
54.212803125
20
7.531993750000001
30
0
0
VERTEX
8
0
10
54.12199375
20
7.622803125000001
30
0
0
VERTEX
8
0
10
54.036834375000005
20
7.718928125000001
30
0
0
VERTEX
8
0
10
53.957634375000005
20
7.82001875
30
0
0
VERTEX
8
0
10
53.884684375
20
7.92570625
30
0
0
VERTEX
8
0
10
53.818246875
20
8.03560625
30
0
0
VERTEX
8
0
10
53.758565625
20
8.14931875
30
0
0
VERTEX
8
0
10
53.705859375
20
8.266425
30
0
0
VERTEX
8
0
10
53.660321875
20
8.386503125
30
0
0
VERTEX
8
0
10
53.622115625
20
8.509109375
30
0
0
VERTEX
8
0
10
53.591381250000005
20
8.6338
30
0
0
VERTEX
8
0
10
53.568234375
20
8.760115625000001
30
0
0
VERTEX
8
0
10
53.552753125
20
8.887603125
30
0
0
VERTEX
8
0
10
53.545
20
9.015790625000001
30
0
0
VERTEX
8
0
10
53.545
20
9.144209375
30
0
0
VERTEX
8
0
10
53.552753125
20
9.272396875
30
0
0
VERTEX
8
0
10
53.568234375
20
9.399884375000001
30
0
0
VERTEX
8
0
10
53.591381250000005
20
9.526200000000001
30
0
0
VERTEX
8
0
10
53.622115625
20
9.650890625
30
0
0
VERTEX
8
0
10
53.660321875
20
9.773496875000001
30
0
0
VERTEX
8
0
10
53.705859375
20
9.893575
30
0
0
VERTEX
8
0
10
53.758565625
20
10.010681250000001
30
0
0
VERTEX
8
0
10
53.818246875
20
10.124393750000001
30
0
0
VERTEX
8
0
10
53.884684375
20
10.23429375
30
0
0
VERTEX
8
0
10
53.957634375000005
20
10.339981250000001
30
0
0
VERTEX
8
0
10
54.036834375000005
20
10.441071875
30
0
0
VERTEX
8
0
10
54.12199375
20
10.537196875000001
30
0
0
VERTEX
8
0
10
54.212803125
20
10.62800625
30
0
0
VERTEX
8
0
10
54.308928125
20
10.713165625
30
0
0
VERTEX
8
0
10
54.410018750000006
20
10.792365625
30
0
0
VERTEX
8
0
10
54.51570625
20
10.865315625000001
30
0
0
VERTEX
8
0
10
54.625606250000004
20
10.931753125
30
0
0
VERTEX
8
0
10
54.73931875
20
10.991434375
30
0
0
VERTEX
8
0
10
54.856425
20
11.044140625
30
0
0
VERTEX
8
0
10
54.976503125
20
11.089678125
30
0
0
VERTEX
8
0
10
55.099109375000005
20
11.127884375
30
0
0
VERTEX
8
0
10
55.223800000000004
20
11.15861875
30
0
0
VERTEX
8
0
10
55.350115625
20
11.181765625
30
0
0
VERTEX
8
0
10
55.477603125
20
11.197246875000001
30
0
0
VERTEX
8
0
10
55.605790625000004
20
11.205
30
0
0
VERTEX
8
0
10
55.734209375000006
20
11.205
30
0
0
VERTEX
8
0
10
55.862396875
20
11.197246875000001
30
0
0
VERTEX
8
0
10
55.989884375
20
11.181765625
30
0
0
VERTEX
8
0
10
56.1162
20
11.15861875
30
0
0
VERTEX
8
0
10
56.240890625000006
20
11.127884375
30
0
0
VERTEX
8
0
10
56.363496875
20
11.089678125
30
0
0
VERTEX
8
0
10
56.483575
20
11.044140625
30
0
0
VERTEX
8
0
10
56.60068125
20
10.991434375
30
0
0
VERTEX
8
0
10
56.71439375
20
10.931753125
30
0
0
VERTEX
8
0
10
56.82429375
20
10.865315625000001
30
0
0
VERTEX
8
0
10
56.929981250000004
20
10.792365625
30
0
0
VERTEX
8
0
10
57.031071875
20
10.713165625
30
0
0
VERTEX
8
0
10
57.127196875
20
10.62800625
30
0
0
VERTEX
8
0
10
57.21800625
20
10.537196875000001
30
0
0
VERTEX
8
0
10
57.303165625000005
20
10.441071875
30
0
0
VERTEX
8
0
10
57.382365625000006
20
10.339981250000001
30
0
0
VERTEX
8
0
10
57.455315625000004
20
10.23429375
30
0
0
VERTEX
8
0
10
57.521753125000004
20
10.124393750000001
30
0
0
VERTEX
8
0
10
57.581434375
20
10.010681250000001
30
0
0
VERTEX
8
0
10
57.634140625
20
9.893575
30
0
0
VERTEX
8
0
10
57.679678125
20
9.773496875000001
30
0
0
VERTEX
8
0
10
57.717884375000004
20
9.650890625
30
0
0
VERTEX
8
0
10
57.748618750000006
20
9.526200000000001
30
0
0
VERTEX
8
0
10
57.771765625
20
9.399884375000001
30
0
0
VERTEX
8
0
10
57.787246875
20
9.272396875
30
0
0
VERTEX
8
0
10
57.795
20
9.144209375
30
0
0
VERTEX
8
0
10
57.795
20
9.015790625000001
30
0
0
SEQEND
0
POLYLINE
66
1
8
1_copper
10
0.0
20
0.0
30
0.0
70
1
0
VERTEX
8
0
10
27.305
20
69.85000000000001
30
0
0
VERTEX
8
0
10
26.035
20
69.85000000000001
30
0
0
VERTEX
8
0
10
26.035
20
67.31
30
0
0
VERTEX
8
0
10
27.305
20
67.31
30
0
0
SEQEND
0
POLYLINE
66
1
8
1_copper
10
0.0
20
0.0
30
0.0
70
1
0
VERTEX
8
0
10
37.465
20
69.85000000000001
30
0
0
VERTEX
8
0
10
36.195
20
69.85000000000001
30
0
0
VERTEX
8
0
10
36.195
20
67.31
30
0
0
VERTEX
8
0
10
37.465
20
67.31
30
0
0
SEQEND
0
POLYLINE
66
1
8
1_copper
10
0.0
20
0.0
30
0.0
70
1
0
VERTEX
8
0
10
33.267746875
20
63.260534375000006
30
0
0
VERTEX
8
0
10
33.255390625000004
20
63.298559375
30
0
0
VERTEX
8
0
10
33.237240625
20
63.33418125
30
0
0
VERTEX
8
0
10
33.213740625
20
63.366525
30
0
0
VERTEX
8
0
10
31.9786
20
64.60166562500001
30
0
0
VERTEX
8
0
10
31.9786
20
67.31
30
0
0
VERTEX
8
0
10
32.385
20
67.31
30
0
0
VERTEX
8
0
10
32.385
20
69.85000000000001
30
0
0
VERTEX
8
0
10
31.115000000000002
20
69.85000000000001
30
0
0
VERTEX
8
0
10
31.115000000000002
20
67.31
30
0
0
VERTEX
8
0
10
31.4706
20
67.31
30
0
0
VERTEX
8
0
10
31.4706
20
64.476465625
30
0
0
VERTEX
8
0
10
31.476853125
20
64.436978125
30
0
0
VERTEX
8
0
10
31.489209375
20
64.398953125
30
0
0
VERTEX
8
0
10
31.507359375
20
64.36333125
30
0
0
VERTEX
8
0
10
31.530859375000002
20
64.3309875
30
0
0
VERTEX
8
0
10
32.766
20
63.09584687500001
30
0
0
VERTEX
8
0
10
32.766
20
55.626000000000005
30
0
0
VERTEX
8
0
10
32.0675
20
55.626000000000005
30
0
0
VERTEX
8
0
10
32.0675
20
54.356
30
0
0
VERTEX
8
0
10
33.972500000000004
20
54.356
30
0
0
VERTEX
8
0
10
33.972500000000004
20
55.626000000000005
30
0
0
VERTEX
8
0
10
33.274
20
55.626000000000005
30
0
0
VERTEX
8
0
10
33.274
20
63.221046875000006
30
0
0
SEQEND
0
POLYLINE
66
1
8
1_copper
10
0.0
20
0.0
30
0.0
70
1
0
VERTEX
8
0
10
36.000403125
20
51.453609375
30
0
0
VERTEX
8
0
10
36.036025
20
51.471759375000005
30
0
0
VERTEX
8
0
10
36.068368750000005
20
51.495259375
30
0
0
VERTEX
8
0
10
36.096640625
20
51.523531250000005
30
0
0
VERTEX
8
0
10
36.120140625000005
20
51.555875
30
0
0
VERTEX
8
0
10
36.138290625
20
51.591496875000004
30
0
0
VERTEX
8
0
10
36.150646875
20
51.629521875
30
0
0
VERTEX
8
0
10
36.1569
20
51.669009375
30
0
0
VERTEX
8
0
10
36.1569
20
60.637090625000006
30
0
0
VERTEX
8
0
10
36.150646875
20
60.676578125000006
30
0
0
VERTEX
8
0
10
36.138290625
20
60.714603125000004
30
0
0
VERTEX
8
0
10
36.120140625000005
20
60.750225
30
0
0
VERTEX
8
0
10
36.096640625
20
60.78256875
30
0
0
VERTEX
8
0
10
34.544000000000004
20
62.335209375000005
30
0
0
VERTEX
8
0
10
34.544000000000004
20
67.31
30
0
0
VERTEX
8
0
10
34.925000000000004
20
67.31
30
0
0
VERTEX
8
0
10
34.925000000000004
20
69.85000000000001
30
0
0
VERTEX
8
0
10
33.655
20
69.85000000000001
30
0
0
VERTEX
8
0
10
33.655
20
67.31
30
0
0
VERTEX
8
0
10
34.036
20
67.31
30
0
0
VERTEX
8
0
10
34.036
20
62.210009375000006
30
0
0
VERTEX
8
0
10
34.042253125
20
62.170521875000006
30
0
0
VERTEX
8
0
10
34.054609375
20
62.132496875
30
0
0
VERTEX
8
0
10
34.072759375000004
20
62.096875000000004
30
0
0
VERTEX
8
0
10
34.096259375
20
62.06453125
30
0
0
VERTEX
8
0
10
35.648900000000005
20
60.511890625
30
0
0
VERTEX
8
0
10
35.648900000000005
20
51.943000000000005
30
0
0
VERTEX
8
0
10
33.972500000000004
20
51.943000000000005
30
0
0
VERTEX
8
0
10
33.972500000000004
20
52.324000000000005
30
0
0
VERTEX
8
0
10
32.0675
20
52.324000000000005
30
0
0
VERTEX
8
0
10
32.0675
20
51.943000000000005
30
0
0
VERTEX
8
0
10
31.349009375
20
51.943000000000005
30
0
0
VERTEX
8
0
10
31.309521875
20
51.936746875000004
30
0
0
VERTEX
8
0
10
31.271496875
20
51.924390625
30
0
0
VERTEX
8
0
10
31.235875
20
51.906240625
30
0
0
VERTEX
8
0
10
31.20353125
20
51.882740625000004
30
0
0
VERTEX
8
0
10
29.651259375000002
20
50.33046875
30
0
0
VERTEX
8
0
10
29.627759375
20
50.298125
30
0
0
VERTEX
8
0
10
29.609609375
20
50.262503125
30
0
0
VERTEX
8
0
10
29.597253125
20
50.224478125000005
30
0
0
VERTEX
8
0
10
29.591
20
50.184990625000005
30
0
0
VERTEX
8
0
10
29.591
20
41.572509375
30
0
0
VERTEX
8
0
10
29.597253125
20
41.533021875
30
0
0
VERTEX
8
0
10
29.609609375
20
41.494996875000005
30
0
0
VERTEX
8
0
10
29.627759375
20
41.459375
30
0
0
VERTEX
8
0
10
29.651259375000002
20
41.42703125
30
0
0
VERTEX
8
0
10
31.90203125
20
39.176259375
30
0
0
VERTEX
8
0
10
31.934375000000003
20
39.152759375
30
0
0
VERTEX
8
0
10
31.969996875000003
20
39.134609375000004
30
0
0
VERTEX
8
0
10
32.008021875000004
20
39.122253125
30
0
0
VERTEX
8
0
10
32.027184375000004
20
39.11921875
30
0
0
VERTEX
8
0
10
32.038475
20
39.107928125
30
0
0
VERTEX
8
0
10
32.06263125
20
39.0917875
30
0
0
VERTEX
8
0
10
32.089475
20
39.08066875
30
0
0
VERTEX
8
0
10
32.117971875
20
39.075
30
0
0
VERTEX
8
0
10
33.802028125
20
39.075
30
0
0
VERTEX
8
0
10
33.830525
20
39.08066875
30
0
0
VERTEX
8
0
10
33.85736875
20
39.0917875
30
0
0
VERTEX
8
0
10
33.881525
20
39.107928125
30
0
0
VERTEX
8
0
10
33.902071875000004
20
39.128475
30
0
0
VERTEX
8
0
10
33.9182125
20
39.15263125
30
0
0
VERTEX
8
0
10
33.929331250000004
20
39.179475000000004
30
0
0
VERTEX
8
0
10
33.935
20
39.207971875
30
0
0
VERTEX
8
0
10
33.935
20
39.532028125000004
30
0
0
VERTEX
8
0
10
33.929331250000004
20
39.560525
30
0
0
VERTEX
8
0
10
33.9182125
20
39.58736875
30
0
0
VERTEX
8
0
10
33.902071875000004
20
39.611525
30
0
0
VERTEX
8
0
10
33.881525
20
39.632071875
30
0
0
VERTEX
8
0
10
33.85736875
20
39.6482125
30
0
0
VERTEX
8
0
10
33.830525
20
39.65933125
30
0
0
VERTEX
8
0
10
33.802028125
20
39.665
30
0
0
VERTEX
8
0
10
32.131709375
20
39.665
30
0
0
VERTEX
8
0
10
30.099
20
41.697709375
30
0
0
VERTEX
8
0
10
30.099
20
50.059790625000005
30
0
0
VERTEX
8
0
10
31.474209375
20
51.435
30
0
0
VERTEX
8
0
10
32.0675
20
51.435
30
0
0
VERTEX
8
0
10
32.0675
20
51.054
30
0
0
VERTEX
8
0
10
33.972500000000004
20
51.054
30
0
0
VERTEX
8
0
10
33.972500000000004
20
51.435
30
0
0
VERTEX
8
0
10
35.922890625
20
51.435
30
0
0
VERTEX
8
0
10
35.962378125
20
51.441253125
30
0
0
SEQEND
0
POLYLINE
66
1
8
1_copper
10
0.0
20
0.0
30
0.0
70
1
0
VERTEX
8
0
10
43.435
20
41.275
30
0
0
VERTEX
8
0
10
40.005
20
41.275
30
0
0
VERTEX
8
0
10
40.005
20
40.894000000000005
30
0
0
VERTEX
8
0
10
33.889596875
20
40.894000000000005
30
0
0
VERTEX
8
0
10
33.881525
20
40.902071875000004
30
0
0
VERTEX
8
0
10
33.85736875
20
40.9182125
30
0
0
VERTEX
8
0
10
33.830525
20
40.929331250000004
30
0
0
VERTEX
8
0
10
33.802028125
20
40.935
30
0
0
VERTEX
8
0
10
32.117971875
20
40.935
30
0
0
VERTEX
8
0
10
32.089475
20
40.929331250000004
30
0
0
VERTEX
8
0
10
32.06263125
20
40.9182125
30
0
0
VERTEX
8
0
10
32.038475
20
40.902071875000004
30
0
0
VERTEX
8
0
10
32.017928125000005
20
40.881525
30
0
0
VERTEX
8
0
10
32.0017875
20
40.85736875
30
0
0
VERTEX
8
0
10
31.99066875
20
40.830525
30
0
0
VERTEX
8
0
10
31.985000000000003
20
40.802028125
30
0
0
VERTEX
8
0
10
31.985000000000003
20
40.477971875
30
0
0
VERTEX
8
0
10
31.99066875
20
40.449475
30
0
0
VERTEX
8
0
10
32.0017875
20
40.42263125
30
0
0
VERTEX
8
0
10
32.017928125000005
20
40.398475000000005
30
0
0
VERTEX
8
0
10
32.038475
20
40.377928125000004
30
0
0
VERTEX
8
0
10
32.06263125
20
40.361787500000005
30
0
0
VERTEX
8
0
10
32.089475
20
40.350668750000004
30
0
0
VERTEX
8
0
10
32.117971875
20
40.345
30
0
0
VERTEX
8
0
10
33.802028125
20
40.345
30
0
0
VERTEX
8
0
10
33.830525
20
40.350668750000004
30
0
0
VERTEX
8
0
10
33.85736875
20
40.361787500000005
30
0
0
VERTEX
8
0
10
33.881525
20
40.377928125000004
30
0
0
VERTEX
8
0
10
33.889596875
20
40.386
30
0
0
VERTEX
8
0
10
40.005
20
40.386
30
0
0
VERTEX
8
0
10
40.005
20
40.005
30
0
0
VERTEX
8
0
10
43.435
20
40.005
30
0
0
SEQEND
0
POLYLINE
66
1
8
1_copper
10
0.0
20
0.0
30
0.0
70
1
0
VERTEX
8
0
10
34.070003125
20
41.674609375
30
0
0
VERTEX
8
0
10
34.105625
20
41.692759375
30
0
0
VERTEX
8
0
10
34.13796875
20
41.716259375
30
0
0
VERTEX
8
0
10
37.976240625
20
45.554531250000004
30
0
0
VERTEX
8
0
10
37.999740625
20
45.586875
30
0
0
VERTEX
8
0
10
38.017890625
20
45.622496875
30
0
0
VERTEX
8
0
10
38.030246875
20
45.660521875
30
0
0
VERTEX
8
0
10
38.036500000000004
20
45.700009375
30
0
0
VERTEX
8
0
10
38.036500000000004
20
47.519790625
30
0
0
VERTEX
8
0
10
39.792709375
20
49.276
30
0
0
VERTEX
8
0
10
40.005
20
49.276
30
0
0
VERTEX
8
0
10
40.005
20
48.895
30
0
0
VERTEX
8
0
10
43.435
20
48.895
30
0
0
VERTEX
8
0
10
43.435
20
50.165
30
0
0
VERTEX
8
0
10
40.005
20
50.165
30
0
0
VERTEX
8
0
10
40.005
20
49.784
30
0
0
VERTEX
8
0
10
39.667509375
20
49.784
30
0
0
VERTEX
8
0
10
39.628021875
20
49.777746875000005
30
0
0
VERTEX
8
0
10
39.589996875000004
20
49.765390625
30
0
0
VERTEX
8
0
10
39.554375
20
49.747240625
30
0
0
VERTEX
8
0
10
39.522031250000005
20
49.723740625000005
30
0
0
VERTEX
8
0
10
37.588759375
20
47.79046875
30
0
0
VERTEX
8
0
10
37.565259375000004
20
47.758125
30
0
0
VERTEX
8
0
10
37.547109375000005
20
47.722503125
30
0
0
VERTEX
8
0
10
37.534753125
20
47.684478125000005
30
0
0
VERTEX
8
0
10
37.5285
20
47.644990625000005
30
0
0
VERTEX
8
0
10
37.5285
20
45.825209375
30
0
0
VERTEX
8
0
10
33.87783125
20
42.174540625
30
0
0
VERTEX
8
0
10
33.85736875
20
42.1882125
30
0
0
VERTEX
8
0
10
33.830525
20
42.19933125
30
0
0
VERTEX
8
0
10
33.802028125
20
42.205000000000005
30
0
0
VERTEX
8
0
10
32.117971875
20
42.205000000000005
30
0
0
VERTEX
8
0
10
32.089475
20
42.19933125
30
0
0
VERTEX
8
0
10
32.06263125
20
42.1882125
30
0
0
VERTEX
8
0
10
32.038475
20
42.172071875
30
0
0
VERTEX
8
0
10
32.017928125000005
20
42.151525
30
0
0
VERTEX
8
0
10
32.0017875
20
42.12736875
30
0
0
VERTEX
8
0
10
31.99066875
20
42.100525000000005
30
0
0
VERTEX
8
0
10
31.985000000000003
20
42.072028125
30
0
0
VERTEX
8
0
10
31.985000000000003
20
41.747971875000005
30
0
0
VERTEX
8
0
10
31.99066875
20
41.719475
30
0
0
VERTEX
8
0
10
32.0017875
20
41.692631250000005
30
0
0
VERTEX
8
0
10
32.017928125000005
20
41.668475
30
0
0
VERTEX
8
0
10
32.038475
20
41.647928125
30
0
0
VERTEX
8
0
10
32.06263125
20
41.6317875
30
0
0
VERTEX
8
0
10
32.089475
20
41.62066875
30
0
0
VERTEX
8
0
10
32.117971875
20
41.615
30
0
0
VERTEX
8
0
10
33.802028125
20
41.615
30
0
0
VERTEX
8
0
10
33.830525
20
41.62066875
30
0
0
VERTEX
8
0
10
33.85736875
20
41.6317875
30
0
0
VERTEX
8
0
10
33.881525
20
41.647928125
30
0
0
VERTEX
8
0
10
33.889596875
20
41.656
30
0
0
VERTEX
8
0
10
33.992490625
20
41.656
30
0
0
VERTEX
8
0
10
34.031978125
20
41.662253125
30
0
0
SEQEND
0
POLYLINE
66
1
8
1_copper
10
0.0
20
0.0
30
0.0
70
1
0
VERTEX
8
0
10
34.617846875000005
20
48.342109375
30
0
0
VERTEX
8
0
10
34.65346875
20
48.360259375000005
30
0
0
VERTEX
8
0
10
34.685812500000004
20
48.383759375000004
30
0
0
VERTEX
8
0
10
37.976240625
20
51.6741875
30
0
0
VERTEX
8
0
10
37.999740625
20
51.706531250000005
30
0
0
VERTEX
8
0
10
38.017890625
20
51.742153125
30
0
0
VERTEX
8
0
10
38.030246875
20
51.780178125
30
0
0
VERTEX
8
0
10
38.036500000000004
20
51.819665625
30
0
0
VERTEX
8
0
10
38.036500000000004
20
58.166000000000004
30
0
0
VERTEX
8
0
10
40.005
20
58.166000000000004
30
0
0
VERTEX
8
0
10
40.005
20
57.785000000000004
30
0
0
VERTEX
8
0
10
43.435
20
57.785000000000004
30
0
0
VERTEX
8
0
10
43.435
20
59.055
30
0
0
VERTEX
8
0
10
40.005
20
59.055
30
0
0
VERTEX
8
0
10
40.005
20
58.674
30
0
0
VERTEX
8
0
10
37.762509375
20
58.674
30
0
0
VERTEX
8
0
10
37.723021875
20
58.667746875000006
30
0
0
VERTEX
8
0
10
37.684996875
20
58.655390625
30
0
0
VERTEX
8
0
10
37.649375
20
58.637240625000004
30
0
0
VERTEX
8
0
10
37.617031250000004
20
58.613740625000005
30
0
0
VERTEX
8
0
10
37.588759375
20
58.585468750000004
30
0
0
VERTEX
8
0
10
37.565259375000004
20
58.553125
30
0
0
VERTEX
8
0
10
37.547109375000005
20
58.517503125000005
30
0
0
VERTEX
8
0
10
37.534753125
20
58.479478125
30
0
0
VERTEX
8
0
10
37.5285
20
58.439990625
30
0
0
VERTEX
8
0
10
37.5285
20
51.944865625000006
30
0
0
VERTEX
8
0
10
34.415134375
20
48.831500000000005
30
0
0
VERTEX
8
0
10
31.095009375
20
48.831500000000005
30
0
0
VERTEX
8
0
10
31.055521875
20
48.825246875000005
30
0
0
VERTEX
8
0
10
31.017496875000003
20
48.812890625
30
0
0
VERTEX
8
0
10
30.981875000000002
20
48.794740625
30
0
0
VERTEX
8
0
10
30.94953125
20
48.771240625000004
30
0
0
VERTEX
8
0
10
30.921259375
20
48.74296875
30
0
0
VERTEX
8
0
10
30.897759375000003
20
48.710625
30
0
0
VERTEX
8
0
10
30.879609375
20
48.675003125
30
0
0
VERTEX
8
0
10
30.867253125
20
48.636978125
30
0
0
VERTEX
8
0
10
30.861
20
48.597490625
30
0
0
VERTEX
8
0
10
30.861
20
44.112509375
30
0
0
VERTEX
8
0
10
30.867253125
20
44.073021875
30
0
0
VERTEX
8
0
10
30.879609375
20
44.034996875000004
30
0
0
VERTEX
8
0
10
30.897759375000003
20
43.999375
30
0
0
VERTEX
8
0
10
30.921259375
20
43.967031250000005
30
0
0
VERTEX
8
0
10
31.90203125
20
42.986259375
30
0
0
VERTEX
8
0
10
31.934375000000003
20
42.962759375000005
30
0
0
VERTEX
8
0
10
31.969996875000003
20
42.944609375
30
0
0
VERTEX
8
0
10
32.008021875000004
20
42.932253125
30
0
0
VERTEX
8
0
10
32.027184375000004
20
42.929218750000004
30
0
0
VERTEX
8
0
10
32.038475
20
42.917928125
30
0
0
VERTEX
8
0
10
32.06263125
20
42.901787500000005
30
0
0
VERTEX
8
0
10
32.089475
20
42.89066875
30
0
0
VERTEX
8
0
10
32.117971875
20
42.885000000000005
30
0
0
VERTEX
8
0
10
33.802028125
20
42.885000000000005
30
0
0
VERTEX
8
0
10
33.830525
20
42.89066875
30
0
0
VERTEX
8
0
10
33.85736875
20
42.901787500000005
30
0
0
VERTEX
8
0
10
33.881525
20
42.917928125
30
0
0
VERTEX
8
0
10
33.902071875000004
20
42.938475000000004
30
0
0
VERTEX
8
0
10
33.9182125
20
42.96263125
30
0
0
VERTEX
8
0
10
33.929331250000004
20
42.989475
30
0
0
VERTEX
8
0
10
33.935
20
43.017971875
30
0
0
VERTEX
8
0
10
33.935
20
43.342028125
30
0
0
VERTEX
8
0
10
33.929331250000004
20
43.370525
30
0
0
VERTEX
8
0
10
33.9182125
20
43.397368750000005
30
0
0
VERTEX
8
0
10
33.902071875000004
20
43.421525
30
0
0
VERTEX
8
0
10
33.881525
20
43.442071875
30
0
0
VERTEX
8
0
10
33.85736875
20
43.4582125
30
0
0
VERTEX
8
0
10
33.830525
20
43.46933125
30
0
0
VERTEX
8
0
10
33.802028125
20
43.475
30
0
0
VERTEX
8
0
10
32.131709375
20
43.475
30
0
0
VERTEX
8
0
10
31.369
20
44.237709375
30
0
0
VERTEX
8
0
10
31.369
20
48.3235
30
0
0
VERTEX
8
0
10
34.540334375
20
48.3235
30
0
0
VERTEX
8
0
10
34.579821875
20
48.329753125
30
0
0
SEQEND
0
POLYLINE
66
1
8
1_copper
10
0.0
20
0.0
30
0.0
70
1
0
VERTEX
8
0
10
17.145
20
57.785000000000004
30
0
0
VERTEX
8
0
10
13.715
20
57.785000000000004
30
0
0
VERTEX
8
0
10
13.715
20
56.515
30
0
0
VERTEX
8
0
10
17.145
20
56.515
30
0
0
VERTEX
8
0
10
17.145
20
56.896
30
0
0
VERTEX
8
0
10
19.113500000000002
20
56.896
30
0
0
VERTEX
8
0
10
19.113500000000002
20
50.145009375
30
0
0
VERTEX
8
0
10
19.119753125000003
20
50.105521875
30
0
0
VERTEX
8
0
10
19.132109375000002
20
50.067496875
30
0
0
VERTEX
8
0
10
19.150259375
20
50.031875
30
0
0
VERTEX
8
0
10
19.173759375
20
49.999531250000004
30
0
0
VERTEX
8
0
10
26.18703125
20
42.986259375
30
0
0
VERTEX
8
0
10
26.219375000000003
20
42.962759375000005
30
0
0
VERTEX
8
0
10
26.254996875
20
42.944609375
30
0
0
VERTEX
8
0
10
26.293021875
20
42.932253125
30
0
0
VERTEX
8
0
10
26.332509375
20
42.926
30
0
0
VERTEX
8
0
10
27.070403125000002
20
42.926
30
0
0
VERTEX
8
0
10
27.078475
20
42.917928125
30
0
0
VERTEX
8
0
10
27.10263125
20
42.901787500000005
30
0
0
VERTEX
8
0
10
27.129475000000003
20
42.89066875
30
0
0
VERTEX
8
0
10
27.157971875
20
42.885000000000005
30
0
0
VERTEX
8
0
10
28.842028125000002
20
42.885000000000005
30
0
0
VERTEX
8
0
10
28.870525
20
42.89066875
30
0
0
VERTEX
8
0
10
28.897368750000002
20
42.901787500000005
30
0
0
VERTEX
8
0
10
28.921525000000003
20
42.917928125
30
0
0
VERTEX
8
0
10
28.942071875
20
42.938475000000004
30
0
0
VERTEX
8
0
10
28.958212500000002
20
42.96263125
30
0
0
VERTEX
8
0
10
28.96933125
20
42.989475
30
0
0
VERTEX
8
0
10
28.975
20
43.017971875
30
0
0
VERTEX
8
0
10
28.975
20
43.342028125
30
0
0
VERTEX
8
0
10
28.96933125
20
43.370525
30
0
0
VERTEX
8
0
10
28.958212500000002
20
43.397368750000005
30
0
0
VERTEX
8
0
10
28.942071875
20
43.421525
30
0
0
VERTEX
8
0
10
28.921525000000003
20
43.442071875
30
0
0
VERTEX
8
0
10
28.897368750000002
20
43.4582125
30
0
0
VERTEX
8
0
10
28.870525
20
43.46933125
30
0
0
VERTEX
8
0
10
28.842028125000002
20
43.475
30
0
0
VERTEX
8
0
10
27.157971875
20
43.475
30
0
0
VERTEX
8
0
10
27.129475000000003
20
43.46933125
30
0
0
VERTEX
8
0
10
27.10263125
20
43.4582125
30
0
0
VERTEX
8
0
10
27.078475
20
43.442071875
30
0
0
VERTEX
8
0
10
27.070403125000002
20
43.434000000000005
30
0
0
VERTEX
8
0
10
26.457709375
20
43.434000000000005
30
0
0
VERTEX
8
0
10
19.6215
20
50.270209375
30
0
0
VERTEX
8
0
10
19.6215
20
57.169990625000004
30
0
0
VERTEX
8
0
10
19.615246875
20
57.209478125000004
30
0
0
VERTEX
8
0
10
19.602890625
20
57.247503125
30
0
0
VERTEX
8
0
10
19.584740625000002
20
57.283125000000005
30
0
0
VERTEX
8
0
10
19.561240625
20
57.31546875
30
0
0
VERTEX
8
0
10
19.532968750000002
20
57.343740625
30
0
0
VERTEX
8
0
10
19.500625
20
57.367240625
30
0
0
VERTEX
8
0
10
19.465003125000003
20
57.385390625
30
0
0
VERTEX
8
0
10
19.426978125
20
57.397746875
30
0
0
VERTEX
8
0
10
19.387490625
20
57.404
30
0
0
VERTEX
8
0
10
17.145
20
57.404
30
0
0
SEQEND
0
POLYLINE
66
1
8
1_copper
10
0.0
20
0.0
30
0.0
70
1
0
VERTEX
8
0
10
17.145
20
48.895
30
0
0
VERTEX
8
0
10
13.715
20
48.895
30
0
0
VERTEX
8
0
10
13.715
20
47.625
30
0
0
VERTEX
8
0
10
17.145
20
47.625
30
0
0
VERTEX
8
0
10
17.145
20
48.006
30
0
0
VERTEX
8
0
10
17.674790625
20
48.006
30
0
0
VERTEX
8
0
10
23.96453125
20
41.716259375
30
0
0
VERTEX
8
0
10
23.996875000000003
20
41.692759375
30
0
0
VERTEX
8
0
10
24.032496875
20
41.674609375
30
0
0
VERTEX
8
0
10
24.070521875
20
41.662253125
30
0
0
VERTEX
8
0
10
24.110009375
20
41.656
30
0
0
VERTEX
8
0
10
27.070403125000002
20
41.656
30
0
0
VERTEX
8
0
10
27.078475
20
41.647928125
30
0
0
VERTEX
8
0
10
27.10263125
20
41.6317875
30
0
0
VERTEX
8
0
10
27.129475000000003
20
41.62066875
30
0
0
VERTEX
8
0
10
27.157971875
20
41.615
30
0
0
VERTEX
8
0
10
28.842028125000002
20
41.615
30
0
0
VERTEX
8
0
10
28.870525
20
41.62066875
30
0
0
VERTEX
8
0
10
28.897368750000002
20
41.6317875
30
0
0
VERTEX
8
0
10
28.921525000000003
20
41.647928125
30
0
0
VERTEX
8
0
10
28.942071875
20
41.668475
30
0
0
VERTEX
8
0
10
28.958212500000002
20
41.692631250000005
30
0
0
VERTEX
8
0
10
28.96933125
20
41.719475
30
0
0
VERTEX
8
0
10
28.975
20
41.747971875000005
30
0
0
VERTEX
8
0
10
28.975
20
42.072028125
30
0
0
VERTEX
8
0
10
28.96933125
20
42.100525000000005
30
0
0
VERTEX
8
0
10
28.958212500000002
20
42.12736875
30
0
0
VERTEX
8
0
10
28.942071875
20
42.151525
30
0
0
VERTEX
8
0
10
28.921525000000003
20
42.172071875
30
0
0
VERTEX
8
0
10
28.897368750000002
20
42.1882125
30
0
0
VERTEX
8
0
10
28.870525
20
42.19933125
30
0
0
VERTEX
8
0
10
28.842028125000002
20
42.205000000000005
30
0
0
VERTEX
8
0
10
27.157971875
20
42.205000000000005
30
0
0
VERTEX
8
0
10
27.129475000000003
20
42.19933125
30
0
0
VERTEX
8
0
10
27.10263125
20
42.1882125
30
0
0
VERTEX
8
0
10
27.078475
20
42.172071875
30
0
0
VERTEX
8
0
10
27.070403125000002
20
42.164
30
0
0
VERTEX
8
0
10
24.235209375
20
42.164
30
0
0
VERTEX
8
0
10
17.94546875
20
48.453740625
30
0
0
VERTEX
8
0
10
17.913125
20
48.477240625
30
0
0
VERTEX
8
0
10
17.877503125
20
48.495390625
30
0
0
VERTEX
8
0
10
17.839478125
20
48.507746875
30
0
0
VERTEX
8
0
10
17.799990625
20
48.514
30
0
0
VERTEX
8
0
10
17.145
20
48.514
30
0
0
SEQEND
0
POLYLINE
66
1
8
1_copper
10
0.0
20
0.0
30
0.0
70
1
0
VERTEX
8
0
10
23.425659375000002
20
39.134609375000004
30
0
0
VERTEX
8
0
10
23.461281250000003
20
39.152759375
30
0
0
VERTEX
8
0
10
23.493625
20
39.176259375
30
0
0
VERTEX
8
0
10
24.703365625
20
40.386
30
0
0
VERTEX
8
0
10
27.070403125000002
20
40.386
30
0
0
VERTEX
8
0
10
27.078475
20
40.377928125000004
30
0
0
VERTEX
8
0
10
27.10263125
20
40.361787500000005
30
0
0
VERTEX
8
0
10
27.129475000000003
20
40.350668750000004
30
0
0
VERTEX
8
0
10
27.157971875
20
40.345
30
0
0
VERTEX
8
0
10
28.842028125000002
20
40.345
30
0
0
VERTEX
8
0
10
28.870525
20
40.350668750000004
30
0
0
VERTEX
8
0
10
28.897368750000002
20
40.361787500000005
30
0
0
VERTEX
8
0
10
28.921525000000003
20
40.377928125000004
30
0
0
VERTEX
8
0
10
28.942071875
20
40.398475000000005
30
0
0
VERTEX
8
0
10
28.958212500000002
20
40.42263125
30
0
0
VERTEX
8
0
10
28.96933125
20
40.449475
30
0
0
VERTEX
8
0
10
28.975
20
40.477971875
30
0
0
VERTEX
8
0
10
28.975
20
40.802028125
30
0
0
VERTEX
8
0
10
28.96933125
20
40.830525
30
0
0
VERTEX
8
0
10
28.958212500000002
20
40.85736875
30
0
0
VERTEX
8
0
10
28.942071875
20
40.881525
30
0
0
VERTEX
8
0
10
28.921525000000003
20
40.902071875000004
30
0
0
VERTEX
8
0
10
28.897368750000002
20
40.9182125
30
0
0
VERTEX
8
0
10
28.870525
20
40.929331250000004
30
0
0
VERTEX
8
0
10
28.842028125000002
20
40.935
30
0
0
VERTEX
8
0
10
27.157971875
20
40.935
30
0
0
VERTEX
8
0
10
27.129475000000003
20
40.929331250000004
30
0
0
VERTEX
8
0
10
27.10263125
20
40.9182125
30
0
0
VERTEX
8
0
10
27.078475
20
40.902071875000004
30
0
0
VERTEX
8
0
10
27.070403125000002
20
40.894000000000005
30
0
0
VERTEX
8
0
10
24.578165625
20
40.894000000000005
30
0
0
VERTEX
8
0
10
24.538678125
20
40.887746875000005
30
0
0
VERTEX
8
0
10
24.500653125
20
40.875390625
30
0
0
VERTEX
8
0
10
24.465031250000003
20
40.857240625
30
0
0
VERTEX
8
0
10
24.4326875
20
40.833740625000004
30
0
0
VERTEX
8
0
10
23.222946875
20
39.624
30
0
0
VERTEX
8
0
10
17.145
20
39.624
30
0
0
VERTEX
8
0
10
17.145
20
40.005
30
0
0
VERTEX
8
0
10
13.715
20
40.005
30
0
0
VERTEX
8
0
10
13.715
20
38.735
30
0
0
VERTEX
8
0
10
17.145
20
38.735
30
0
0
VERTEX
8
0
10
17.145
20
39.116
30
0
0
VERTEX
8
0
10
23.348146875
20
39.116
30
0
0
VERTEX
8
0
10
23.387634375
20
39.122253125
30
0
0
SEQEND
0
POLYLINE
66
1
8
1_copper
10
0.0
20
0.0
30
0.0
70
1
0
VERTEX
8
0
10
17.242503125000002
20
30.244609375000003
30
0
0
VERTEX
8
0
10
17.278125
20
30.262759375
30
0
0
VERTEX
8
0
10
17.310468750000002
20
30.286259375
30
0
0
VERTEX
8
0
10
26.140209375
20
39.116
30
0
0
VERTEX
8
0
10
27.070403125000002
20
39.116
30
0
0
VERTEX
8
0
10
27.078475
20
39.107928125
30
0
0
VERTEX
8
0
10
27.10263125
20
39.0917875
30
0
0
VERTEX
8
0
10
27.129475000000003
20
39.08066875
30
0
0
VERTEX
8
0
10
27.157971875
20
39.075
30
0
0
VERTEX
8
0
10
28.842028125000002
20
39.075
30
0
0
VERTEX
8
0
10
28.870525
20
39.08066875
30
0
0
VERTEX
8
0
10
28.897368750000002
20
39.0917875
30
0
0
VERTEX
8
0
10
28.921525000000003
20
39.107928125
30
0
0
VERTEX
8
0
10
28.942071875
20
39.128475
30
0
0
VERTEX
8
0
10
28.958212500000002
20
39.15263125
30
0
0
VERTEX
8
0
10
28.96933125
20
39.179475000000004
30
0
0
VERTEX
8
0
10
28.975
20
39.207971875
30
0
0
VERTEX
8
0
10
28.975
20
39.532028125000004
30
0
0
VERTEX
8
0
10
28.96933125
20
39.560525
30
0
0
VERTEX
8
0
10
28.958212500000002
20
39.58736875
30
0
0
VERTEX
8
0
10
28.942071875
20
39.611525
30
0
0
VERTEX
8
0
10
28.921525000000003
20
39.632071875
30
0
0
VERTEX
8
0
10
28.897368750000002
20
39.6482125
30
0
0
VERTEX
8
0
10
28.870525
20
39.65933125
30
0
0
VERTEX
8
0
10
28.842028125000002
20
39.665
30
0
0
VERTEX
8
0
10
27.157971875
20
39.665
30
0
0
VERTEX
8
0
10
27.129475000000003
20
39.65933125
30
0
0
VERTEX
8
0
10
27.10263125
20
39.6482125
30
0
0
VERTEX
8
0
10
27.078475
20
39.632071875
30
0
0
VERTEX
8
0
10
27.070403125000002
20
39.624
30
0
0
VERTEX
8
0
10
26.015009375
20
39.624
30
0
0
VERTEX
8
0
10
25.975521875000002
20
39.617746875
30
0
0
VERTEX
8
0
10
25.937496875
20
39.605390625000005
30
0
0
VERTEX
8
0
10
25.901875
20
39.587240625
30
0
0
VERTEX
8
0
10
25.86953125
20
39.563740625
30
0
0
VERTEX
8
0
10
17.145
20
30.839209375000003
30
0
0
VERTEX
8
0
10
17.145
20
31.115000000000002
30
0
0
VERTEX
8
0
10
13.715
20
31.115000000000002
30
0
0
VERTEX
8
0
10
13.715
20
29.845000000000002
30
0
0
VERTEX
8
0
10
17.145
20
29.845000000000002
30
0
0
VERTEX
8
0
10
17.145
20
30.226000000000003
30
0
0
VERTEX
8
0
10
17.164990625
20
30.226000000000003
30
0
0
VERTEX
8
0
10
17.204478125
20
30.232253125
30
0
0
SEQEND
0
POLYLINE
66
1
8
1_copper
10
0.0
20
0.0
30
0.0
70
1
0
VERTEX
8
0
10
35.807746875
20
38.159478125
30
0
0
VERTEX
8
0
10
35.795390625
20
38.197503125000004
30
0
0
VERTEX
8
0
10
35.777240625000005
20
38.233125
30
0
0
VERTEX
8
0
10
35.753740625
20
38.265468750000004
30
0
0
VERTEX
8
0
10
35.725468750000005
20
38.293740625000005
30
0
0
VERTEX
8
0
10
35.693125
20
38.317240625000004
30
0
0
VERTEX
8
0
10
35.657503125000005
20
38.335390625
30
0
0
VERTEX
8
0
10
35.619478125
20
38.347746875
30
0
0
VERTEX
8
0
10
35.579990625
20
38.354
30
0
0
VERTEX
8
0
10
33.889596875
20
38.354
30
0
0
VERTEX
8
0
10
33.881525
20
38.362071875000005
30
0
0
VERTEX
8
0
10
33.85736875
20
38.378212500000004
30
0
0
VERTEX
8
0
10
33.830525
20
38.389331250000005
30
0
0
VERTEX
8
0
10
33.802028125
20
38.395
30
0
0
VERTEX
8
0
10
32.117971875
20
38.395
30
0
0
VERTEX
8
0
10
32.089475
20
38.389331250000005
30
0
0
VERTEX
8
0
10
32.06263125
20
38.378212500000004
30
0
0
VERTEX
8
0
10
32.038475
20
38.362071875000005
30
0
0
VERTEX
8
0
10
32.017928125000005
20
38.341525000000004
30
0
0
VERTEX
8
0
10
32.0017875
20
38.31736875
30
0
0
VERTEX
8
0
10
31.99066875
20
38.290525
30
0
0
VERTEX
8
0
10
31.985000000000003
20
38.262028125
30
0
0
VERTEX
8
0
10
31.985000000000003
20
37.937971875
30
0
0
VERTEX
8
0
10
31.99066875
20
37.909475
30
0
0
VERTEX
8
0
10
32.0017875
20
37.88263125
30
0
0
VERTEX
8
0
10
32.017928125000005
20
37.858475
30
0
0
VERTEX
8
0
10
32.038475
20
37.837928125000005
30
0
0
VERTEX
8
0
10
32.06263125
20
37.8217875
30
0
0
VERTEX
8
0
10
32.089475
20
37.810668750000005
30
0
0
VERTEX
8
0
10
32.117971875
20
37.805
30
0
0
VERTEX
8
0
10
33.802028125
20
37.805
30
0
0
VERTEX
8
0
10
33.830525
20
37.810668750000005
30
0
0
VERTEX
8
0
10
33.85736875
20
37.8217875
30
0
0
VERTEX
8
0
10
33.881525
20
37.837928125000005
30
0
0
VERTEX
8
0
10
33.889596875
20
37.846000000000004
30
0
0
VERTEX
8
0
10
35.306000000000004
20
37.846000000000004
30
0
0
VERTEX
8
0
10
35.306000000000004
20
31.730009375
30
0
0
VERTEX
8
0
10
35.312253125000005
20
31.690521875
30
0
0
VERTEX
8
0
10
35.324609375
20
31.652496875
30
0
0
VERTEX
8
0
10
35.342759375
20
31.616875
30
0
0
VERTEX
8
0
10
35.366259375
20
31.58453125
30
0
0
VERTEX
8
0
10
35.39453125
20
31.556259375
30
0
0
VERTEX
8
0
10
35.426875
20
31.532759375
30
0
0
VERTEX
8
0
10
35.462496875
20
31.514609375000003
30
0
0
VERTEX
8
0
10
35.500521875000004
20
31.502253125000003
30
0
0
VERTEX
8
0
10
35.540009375000004
20
31.496000000000002
30
0
0
VERTEX
8
0
10
40.005
20
31.496000000000002
30
0
0
VERTEX
8
0
10
40.005
20
31.115000000000002
30
0
0
VERTEX
8
0
10
43.435
20
31.115000000000002
30
0
0
VERTEX
8
0
10
43.435
20
32.385
30
0
0
VERTEX
8
0
10
40.005
20
32.385
30
0
0
VERTEX
8
0
10
40.005
20
32.004000000000005
30
0
0
VERTEX
8
0
10
35.814
20
32.004000000000005
30
0
0
VERTEX
8
0
10
35.814
20
38.119990625
30
0
0
SEQEND
0
POLYLINE
66
1
8
1_copper
10
0.0
20
0.0
30
0.0
70
1
0
VERTEX
8
0
10
40.005
20
22.225
30
0
0
VERTEX
8
0
10
43.435
20
22.225
30
0
0
VERTEX
8
0
10
43.435
20
23.495
30
0
0
VERTEX
8
0
10
40.005
20
23.495
30
0
0
VERTEX
8
0
10
40.005
20
23.114
30
0
0
VERTEX
8
0
10
33.274
20
23.114
30
0
0
VERTEX
8
0
10
33.274
20
36.535000000000004
30
0
0
VERTEX
8
0
10
33.802028125
20
36.535000000000004
30
0
0
VERTEX
8
0
10
33.830525
20
36.54066875
30
0
0
VERTEX
8
0
10
33.85736875
20
36.5517875
30
0
0
VERTEX
8
0
10
33.881525
20
36.567928125
30
0
0
VERTEX
8
0
10
33.902071875000004
20
36.588475
30
0
0
VERTEX
8
0
10
33.9182125
20
36.61263125
30
0
0
VERTEX
8
0
10
33.929331250000004
20
36.639475000000004
30
0
0
VERTEX
8
0
10
33.935
20
36.667971875
30
0
0
VERTEX
8
0
10
33.935
20
36.992028125000004
30
0
0
VERTEX
8
0
10
33.929331250000004
20
37.020525
30
0
0
VERTEX
8
0
10
33.9182125
20
37.047368750000004
30
0
0
VERTEX
8
0
10
33.902071875000004
20
37.071525
30
0
0
VERTEX
8
0
10
33.881525
20
37.092071875
30
0
0
VERTEX
8
0
10
33.85736875
20
37.1082125
30
0
0
VERTEX
8
0
10
33.830525
20
37.11933125
30
0
0
VERTEX
8
0
10
33.802028125
20
37.125
30
0
0
VERTEX
8
0
10
32.117971875
20
37.125
30
0
0
VERTEX
8
0
10
32.089475
20
37.11933125
30
0
0
VERTEX
8
0
10
32.06263125
20
37.1082125
30
0
0
VERTEX
8
0
10
32.038475
20
37.092071875
30
0
0
VERTEX
8
0
10
32.017928125000005
20
37.071525
30
0
0
VERTEX
8
0
10
32.0017875
20
37.047368750000004
30
0
0
VERTEX
8
0
10
31.99066875
20
37.020525
30
0
0
VERTEX
8
0
10
31.985000000000003
20
36.992028125000004
30
0
0
VERTEX
8
0
10
31.985000000000003
20
36.667971875
30
0
0
VERTEX
8
0
10
31.99066875
20
36.639475000000004
30
0
0
VERTEX
8
0
10
32.0017875
20
36.61263125
30
0
0
VERTEX
8
0
10
32.017928125000005
20
36.588475
30
0
0
VERTEX
8
0
10
32.038475
20
36.567928125
30
0
0
VERTEX
8
0
10
32.06263125
20
36.5517875
30
0
0
VERTEX
8
0
10
32.089475
20
36.54066875
30
0
0
VERTEX
8
0
10
32.117971875
20
36.535000000000004
30
0
0
VERTEX
8
0
10
32.766
20
36.535000000000004
30
0
0
VERTEX
8
0
10
32.766
20
22.840009375
30
0
0
VERTEX
8
0
10
32.772253125
20
22.800521875
30
0
0
VERTEX
8
0
10
32.784609375
20
22.762496875
30
0
0
VERTEX
8
0
10
32.802759375
20
22.726875
30
0
0
VERTEX
8
0
10
32.826259375
20
22.69453125
30
0
0
VERTEX
8
0
10
32.85453125
20
22.666259375000003
30
0
0
VERTEX
8
0
10
32.886875
20
22.642759375
30
0
0
VERTEX
8
0
10
32.922496875
20
22.624609375000002
30
0
0
VERTEX
8
0
10
32.960521875000005
20
22.612253125000002
30
0
0
VERTEX
8
0
10
33.000009375000005
20
22.606
30
0
0
VERTEX
8
0
10
40.005
20
22.606
30
0
0
SEQEND
0
POLYLINE
66
1
8
1_copper
10
0.0
20
0.0
30
0.0
70
1
0
VERTEX
8
0
10
47.405003125
20
17.544609375
30
0
0
VERTEX
8
0
10
47.440625000000004
20
17.562759375000002
30
0
0
VERTEX
8
0
10
47.47296875
20
17.586259375
30
0
0
VERTEX
8
0
10
47.501240625
20
17.614531250000002
30
0
0
VERTEX
8
0
10
47.524740625
20
17.646875
30
0
0
VERTEX
8
0
10
47.542890625000005
20
17.682496875000002
30
0
0
VERTEX
8
0
10
47.555246875
20
17.720521875
30
0
0
VERTEX
8
0
10
47.5615
20
17.760009375
30
0
0
VERTEX
8
0
10
47.5615
20
53.359990625
30
0
0
VERTEX
8
0
10
47.555246875
20
53.399478125
30
0
0
VERTEX
8
0
10
47.542890625000005
20
53.437503125
30
0
0
VERTEX
8
0
10
47.524740625
20
53.473125
30
0
0
VERTEX
8
0
10
47.501240625
20
53.505468750000006
30
0
0
VERTEX
8
0
10
47.47296875
20
53.533740625
30
0
0
VERTEX
8
0
10
47.440625000000004
20
53.557240625000006
30
0
0
VERTEX
8
0
10
47.405003125
20
53.575390625000004
30
0
0
VERTEX
8
0
10
47.366978125
20
53.587746875
30
0
0
VERTEX
8
0
10
47.327490625
20
53.594
30
0
0
VERTEX
8
0
10
43.435
20
53.594
30
0
0
VERTEX
8
0
10
43.435
20
53.975
30
0
0
VERTEX
8
0
10
40.005
20
53.975
30
0
0
VERTEX
8
0
10
40.005
20
52.705000000000005
30
0
0
VERTEX
8
0
10
43.435
20
52.705000000000005
30
0
0
VERTEX
8
0
10
43.435
20
53.086000000000006
30
0
0
VERTEX
8
0
10
47.0535
20
53.086000000000006
30
0
0
VERTEX
8
0
10
47.0535
20
44.704
30
0
0
VERTEX
8
0
10
43.435
20
44.704
30
0
0
VERTEX
8
0
10
43.435
20
45.085
30
0
0
VERTEX
8
0
10
40.005
20
45.085
30
0
0
VERTEX
8
0
10
40.005
20
43.815000000000005
30
0
0
VERTEX
8
0
10
43.435
20
43.815000000000005
30
0
0
VERTEX
8
0
10
43.435
20
44.196000000000005
30
0
0
VERTEX
8
0
10
47.0535
20
44.196000000000005
30
0
0
VERTEX
8
0
10
47.0535
20
35.814
30
0
0
VERTEX
8
0
10
43.435
20
35.814
30
0
0
VERTEX
8
0
10
43.435
20
36.195
30
0
0
VERTEX
8
0
10
40.005
20
36.195
30
0
0
VERTEX
8
0
10
40.005
20
34.925000000000004
30
0
0
VERTEX
8
0
10
43.435
20
34.925000000000004
30
0
0
VERTEX
8
0
10
43.435
20
35.306000000000004
30
0
0
VERTEX
8
0
10
47.0535
20
35.306000000000004
30
0
0
VERTEX
8
0
10
47.0535
20
26.924000000000003
30
0
0
VERTEX
8
0
10
43.435
20
26.924000000000003
30
0
0
VERTEX
8
0
10
43.435
20
27.305
30
0
0
VERTEX
8
0
10
40.005
20
27.305
30
0
0
VERTEX
8
0
10
40.005
20
26.035
30
0
0
VERTEX
8
0
10
43.435
20
26.035
30
0
0
VERTEX
8
0
10
43.435
20
26.416
30
0
0
VERTEX
8
0
10
47.0535
20
26.416
30
0
0
VERTEX
8
0
10
47.0535
20
18.034000000000002
30
0
0
VERTEX
8
0
10
43.435
20
18.034000000000002
30
0
0
VERTEX
8
0
10
43.435
20
18.415
30
0
0
VERTEX
8
0
10
40.005
20
18.415
30
0
0
VERTEX
8
0
10
40.005
20
17.145
30
0
0
VERTEX
8
0
10
40.598290625000004
20
17.145
30
0
0
VERTEX
8
0
10
31.009790625
20
7.556500000000001
30
0
0
VERTEX
8
0
10
10.0965
20
7.556500000000001
30
0
0
VERTEX
8
0
10
10.0965
20
17.526
30
0
0
VERTEX
8
0
10
13.715
20
17.526
30
0
0
VERTEX
8
0
10
13.715
20
17.145
30
0
0
VERTEX
8
0
10
17.145
20
17.145
30
0
0
VERTEX
8
0
10
17.145
20
18.415
30
0
0
VERTEX
8
0
10
13.715
20
18.415
30
0
0
VERTEX
8
0
10
13.715
20
18.034000000000002
30
0
0
VERTEX
8
0
10
10.0965
20
18.034000000000002
30
0
0
VERTEX
8
0
10
10.0965
20
26.416
30
0
0
VERTEX
8
0
10
13.715
20
26.416
30
0
0
VERTEX
8
0
10
13.715
20
26.035
30
0
0
VERTEX
8
0
10
17.145
20
26.035
30
0
0
VERTEX
8
0
10
17.145
20
27.305
30
0
0
VERTEX
8
0
10
13.715
20
27.305
30
0
0
VERTEX
8
0
10
13.715
20
26.924000000000003
30
0
0
VERTEX
8
0
10
10.0965
20
26.924000000000003
30
0
0
VERTEX
8
0
10
10.0965
20
35.306000000000004
30
0
0
VERTEX
8
0
10
13.715
20
35.306000000000004
30
0
0
VERTEX
8
0
10
13.715
20
34.925000000000004
30
0
0
VERTEX
8
0
10
17.145
20
34.925000000000004
30
0
0
VERTEX
8
0
10
17.145
20
36.195
30
0
0
VERTEX
8
0
10
13.715
20
36.195
30
0
0
VERTEX
8
0
10
13.715
20
35.814
30
0
0
VERTEX
8
0
10
10.0965
20
35.814
30
0
0
VERTEX
8
0
10
10.0965
20
44.196000000000005
30
0
0
VERTEX
8
0
10
13.715
20
44.196000000000005
30
0
0
VERTEX
8
0
10
13.715
20
43.815000000000005
30
0
0
VERTEX
8
0
10
17.145
20
43.815000000000005
30
0
0
VERTEX
8
0
10
17.145
20
45.085
30
0
0
VERTEX
8
0
10
13.715
20
45.085
30
0
0
VERTEX
8
0
10
13.715
20
44.704
30
0
0
VERTEX
8
0
10
10.0965
20
44.704
30
0
0
VERTEX
8
0
10
10.0965
20
53.086000000000006
30
0
0
VERTEX
8
0
10
13.715
20
53.086000000000006
30
0
0
VERTEX
8
0
10
13.715
20
52.705000000000005
30
0
0
VERTEX
8
0
10
17.145
20
52.705000000000005
30
0
0
VERTEX
8
0
10
17.145
20
53.975
30
0
0
VERTEX
8
0
10
13.715
20
53.975
30
0
0
VERTEX
8
0
10
13.715
20
53.594
30
0
0
VERTEX
8
0
10
10.0965
20
53.594
30
0
0
VERTEX
8
0
10
10.0965
20
61.976000000000006
30
0
0
VERTEX
8
0
10
13.715
20
61.976000000000006
30
0
0
VERTEX
8
0
10
13.715
20
61.595000000000006
30
0
0
VERTEX
8
0
10
17.145
20
61.595000000000006
30
0
0
VERTEX
8
0
10
17.145
20
61.976000000000006
30
0
0
VERTEX
8
0
10
28.956000000000003
20
61.976000000000006
30
0
0
VERTEX
8
0
10
28.956000000000003
20
52.0065
30
0
0
VERTEX
8
0
10
27.622500000000002
20
52.0065
30
0
0
VERTEX
8
0
10
27.622500000000002
20
52.324000000000005
30
0
0
VERTEX
8
0
10
25.7175
20
52.324000000000005
30
0
0
VERTEX
8
0
10
25.7175
20
51.054
30
0
0
VERTEX
8
0
10
26.416
20
51.054
30
0
0
VERTEX
8
0
10
26.416
20
44.430009375000004
30
0
0
VERTEX
8
0
10
26.422253125
20
44.390521875000005
30
0
0
VERTEX
8
0
10
26.434609375
20
44.352496875
30
0
0
VERTEX
8
0
10
26.452759375000003
20
44.316875
30
0
0
VERTEX
8
0
10
26.476259375
20
44.28453125
30
0
0
VERTEX
8
0
10
26.504531250000003
20
44.256259375
30
0
0
VERTEX
8
0
10
26.536875000000002
20
44.232759375
30
0
0
VERTEX
8
0
10
26.572496875000002
20
44.214609375
30
0
0
VERTEX
8
0
10
26.610521875
20
44.202253125
30
0
0
VERTEX
8
0
10
26.650009375
20
44.196000000000005
30
0
0
VERTEX
8
0
10
27.070403125000002
20
44.196000000000005
30
0
0
VERTEX
8
0
10
27.078475
20
44.187928125
30
0
0
VERTEX
8
0
10
27.10263125
20
44.1717875
30
0
0
VERTEX
8
0
10
27.129475000000003
20
44.16066875
30
0
0
VERTEX
8
0
10
27.157971875
20
44.155
30
0
0
VERTEX
8
0
10
28.842028125000002
20
44.155
30
0
0
VERTEX
8
0
10
28.870525
20
44.16066875
30
0
0
VERTEX
8
0
10
28.897368750000002
20
44.1717875
30
0
0
VERTEX
8
0
10
28.921525000000003
20
44.187928125
30
0
0
VERTEX
8
0
10
28.942071875
20
44.208475
30
0
0
VERTEX
8
0
10
28.958212500000002
20
44.232631250000004
30
0
0
VERTEX
8
0
10
28.96933125
20
44.259475
30
0
0
VERTEX
8
0
10
28.975
20
44.287971875000004
30
0
0
VERTEX
8
0
10
28.975
20
44.612028125
30
0
0
VERTEX
8
0
10
28.96933125
20
44.640525000000004
30
0
0
VERTEX
8
0
10
28.958212500000002
20
44.66736875
30
0
0
VERTEX
8
0
10
28.942071875
20
44.691525
30
0
0
VERTEX
8
0
10
28.921525000000003
20
44.712071875
30
0
0
VERTEX
8
0
10
28.897368750000002
20
44.728212500000005
30
0
0
VERTEX
8
0
10
28.870525
20
44.73933125
30
0
0
VERTEX
8
0
10
28.842028125000002
20
44.745000000000005
30
0
0
VERTEX
8
0
10
27.157971875
20
44.745000000000005
30
0
0
VERTEX
8
0
10
27.129475000000003
20
44.73933125
30
0
0
VERTEX
8
0
10
27.10263125
20
44.728212500000005
30
0
0
VERTEX
8
0
10
27.078475
20
44.712071875
30
0
0
VERTEX
8
0
10
27.070403125000002
20
44.704
30
0
0
VERTEX
8
0
10
26.924000000000003
20
44.704
30
0
0
VERTEX
8
0
10
26.924000000000003
20
51.054
30
0
0
VERTEX
8
0
10
27.622500000000002
20
51.054
30
0
0
VERTEX
8
0
10
27.622500000000002
20
51.4985
30
0
0
VERTEX
8
0
10
29.229990625000003
20
51.4985
30
0
0
VERTEX
8
0
10
29.269478125000003
20
51.504753125
30
0
0
VERTEX
8
0
10
29.307503125
20
51.517109375000004
30
0
0
VERTEX
8
0
10
29.343125
20
51.535259375
30
0
0
VERTEX
8
0
10
29.375468750000003
20
51.558759375
30
0
0
VERTEX
8
0
10
29.403740625
20
51.58703125
30
0
0
VERTEX
8
0
10
29.427240625000003
20
51.619375000000005
30
0
0
VERTEX
8
0
10
29.445390625
20
51.654996875
30
0
0
VERTEX
8
0
10
29.457746875
20
51.693021875
30
0
0
VERTEX
8
0
10
29.464000000000002
20
51.732509375
30
0
0
VERTEX
8
0
10
29.464000000000002
20
67.31
30
0
0
VERTEX
8
0
10
29.845000000000002
20
67.31
30
0
0
VERTEX
8
0
10
29.845000000000002
20
69.85000000000001
30
0
0
VERTEX
8
0
10
28.575000000000003
20
69.85000000000001
30
0
0
VERTEX
8
0
10
28.575000000000003
20
67.31
30
0
0
VERTEX
8
0
10
28.956000000000003
20
67.31
30
0
0
VERTEX
8
0
10
28.956000000000003
20
62.484
30
0
0
VERTEX
8
0
10
17.145
20
62.484
30
0
0
VERTEX
8
0
10
17.145
20
62.865
30
0
0
VERTEX
8
0
10
13.715
20
62.865
30
0
0
VERTEX
8
0
10
13.715
20
62.484
30
0
0
VERTEX
8
0
10
9.822509375000001
20
62.484
30
0
0
VERTEX
8
0
10
9.783021875000001
20
62.477746875
30
0
0
VERTEX
8
0
10
9.744996875
20
62.465390625000005
30
0
0
VERTEX
8
0
10
9.709375
20
62.447240625000006
30
0
0
VERTEX
8
0
10
9.67703125
20
62.423740625
30
0
0
VERTEX
8
0
10
9.648759375000001
20
62.395468750000006
30
0
0
VERTEX
8
0
10
9.625259375
20
62.363125000000004
30
0
0
VERTEX
8
0
10
9.607109375
20
62.327503125
30
0
0
VERTEX
8
0
10
9.594753125
20
62.289478125
30
0
0
VERTEX
8
0
10
9.5885
20
62.249990625
30
0
0
VERTEX
8
0
10
9.5885
20
7.282509375
30
0
0
VERTEX
8
0
10
9.594753125
20
7.243021875
30
0
0
VERTEX
8
0
10
9.607109375
20
7.204996875
30
0
0
VERTEX
8
0
10
9.625259375
20
7.1693750000000005
30
0
0
VERTEX
8
0
10
9.648759375000001
20
7.137031250000001
30
0
0
VERTEX
8
0
10
9.67703125
20
7.108759375
30
0
0
VERTEX
8
0
10
9.709375
20
7.085259375000001
30
0
0
VERTEX
8
0
10
9.744996875
20
7.067109375
30
0
0
VERTEX
8
0
10
9.783021875000001
20
7.054753125
30
0
0
VERTEX
8
0
10
9.822509375000001
20
7.048500000000001
30
0
0
VERTEX
8
0
10
31.134990625
20
7.048500000000001
30
0
0
VERTEX
8
0
10
31.174478125
20
7.054753125
30
0
0
VERTEX
8
0
10
31.212503125
20
7.067109375
30
0
0
VERTEX
8
0
10
31.248125
20
7.085259375000001
30
0
0
VERTEX
8
0
10
31.28046875
20
7.108759375
30
0
0
VERTEX
8
0
10
41.316709375
20
17.145
30
0
0
VERTEX
8
0
10
43.435
20
17.145
30
0
0
VERTEX
8
0
10
43.435
20
17.526
30
0
0
VERTEX
8
0
10
47.327490625
20
17.526
30
0
0
VERTEX
8
0
10
47.366978125
20
17.532253125
30
0
0
SEQEND
0
POLYLINE
66
1
8
1_copper
10
0.0
20
0.0
30
0.0
70
1
0
VERTEX
8
0
10
39.3065
20
28.956000000000003
30
0
0
VERTEX
8
0
10
42.925000000000004
20
28.956000000000003
30
0
0
VERTEX
8
0
10
42.925000000000004
20
28.575000000000003
30
0
0
VERTEX
8
0
10
46.355000000000004
20
28.575000000000003
30
0
0
VERTEX
8
0
10
46.355000000000004
20
29.845000000000002
30
0
0
VERTEX
8
0
10
44.386500000000005
20
29.845000000000002
30
0
0
VERTEX
8
0
10
44.386500000000005
20
33.992490625
30
0
0
VERTEX
8
0
10
44.380246875000005
20
34.031978125
30
0
0
VERTEX
8
0
10
44.367890625
20
34.070003125
30
0
0
VERTEX
8
0
10
44.349740625
20
34.105625
30
0
0
VERTEX
8
0
10
44.326240625000004
20
34.13796875
30
0
0
VERTEX
8
0
10
44.29796875
20
34.166240625
30
0
0
VERTEX
8
0
10
44.265625
20
34.189740625
30
0
0
VERTEX
8
0
10
44.230003125
20
34.207890625000005
30
0
0
VERTEX
8
0
10
44.191978125000006
20
34.220246875
30
0
0
VERTEX
8
0
10
44.152490625
20
34.2265
30
0
0
VERTEX
8
0
10
39.3065
20
34.2265
30
0
0
VERTEX
8
0
10
39.3065
20
37.846000000000004
30
0
0
VERTEX
8
0
10
42.925000000000004
20
37.846000000000004
30
0
0
VERTEX
8
0
10
42.925000000000004
20
37.465
30
0
0
VERTEX
8
0
10
46.355000000000004
20
37.465
30
0
0
VERTEX
8
0
10
46.355000000000004
20
38.735
30
0
0
VERTEX
8
0
10
45.6194
20
38.735
30
0
0
VERTEX
8
0
10
45.6194
20
42.882490625
30
0
0
VERTEX
8
0
10
45.613146875000005
20
42.921978125
30
0
0
VERTEX
8
0
10
45.600790625
20
42.960003125
30
0
0
VERTEX
8
0
10
45.582640625
20
42.995625000000004
30
0
0
VERTEX
8
0
10
45.559140625000005
20
43.02796875
30
0
0
VERTEX
8
0
10
45.53086875
20
43.056240625
30
0
0
VERTEX
8
0
10
45.498525
20
43.079740625
30
0
0
VERTEX
8
0
10
45.462903125000004
20
43.097890625000005
30
0
0
VERTEX
8
0
10
45.424878125
20
43.110246875
30
0
0
VERTEX
8
0
10
45.385390625
20
43.1165
30
0
0
VERTEX
8
0
10
39.3065
20
43.1165
30
0
0
VERTEX
8
0
10
39.3065
20
46.736000000000004
30
0
0
VERTEX
8
0
10
42.925000000000004
20
46.736000000000004
30
0
0
VERTEX
8
0
10
42.925000000000004
20
46.355000000000004
30
0
0
VERTEX
8
0
10
46.355000000000004
20
46.355000000000004
30
0
0
VERTEX
8
0
10
46.355000000000004
20
47.625
30
0
0
VERTEX
8
0
10
44.386500000000005
20
47.625
30
0
0
VERTEX
8
0
10
44.386500000000005
20
51.137490625000005
30
0
0
VERTEX
8
0
10
44.380246875000005
20
51.176978125000005
30
0
0
VERTEX
8
0
10
44.367890625
20
51.215003125
30
0
0
VERTEX
8
0
10
44.349740625
20
51.250625
30
0
0
VERTEX
8
0
10
44.326240625000004
20
51.28296875
30
0
0
VERTEX
8
0
10
44.29796875
20
51.311240625
30
0
0
VERTEX
8
0
10
44.265625
20
51.334740625
30
0
0
VERTEX
8
0
10
44.230003125
20
51.352890625
30
0
0
VERTEX
8
0
10
44.191978125000006
20
51.365246875000004
30
0
0
VERTEX
8
0
10
44.152490625
20
51.371500000000005
30
0
0
VERTEX
8
0
10
39.3065
20
51.371500000000005
30
0
0
VERTEX
8
0
10
39.3065
20
55.626000000000005
30
0
0
VERTEX
8
0
10
42.925000000000004
20
55.626000000000005
30
0
0
VERTEX
8
0
10
42.925000000000004
20
55.245000000000005
30
0
0
VERTEX
8
0
10
46.355000000000004
20
55.245000000000005
30
0
0
VERTEX
8
0
10
46.355000000000004
20
55.626000000000005
30
0
0
VERTEX
8
0
10
47.962490625
20
55.626000000000005
30
0
0
VERTEX
8
0
10
48.001978125
20
55.632253125000005
30
0
0
VERTEX
8
0
10
48.040003125000005
20
55.644609375
30
0
0
VERTEX
8
0
10
48.075625
20
55.662759375
30
0
0
VERTEX
8
0
10
48.107968750000005
20
55.686259375000006
30
0
0
VERTEX
8
0
10
48.136240625
20
55.71453125
30
0
0
VERTEX
8
0
10
48.159740625000005
20
55.746875
30
0
0
VERTEX
8
0
10
48.177890625
20
55.782496875
30
0
0
VERTEX
8
0
10
48.190246875
20
55.820521875000004
30
0
0
VERTEX
8
0
10
48.1965
20
55.860009375000004
30
0
0
VERTEX
8
0
10
48.1965
20
62.884990625
30
0
0
VERTEX
8
0
10
48.190246875
20
62.924478125
30
0
0
VERTEX
8
0
10
48.177890625
20
62.962503125000005
30
0
0
VERTEX
8
0
10
48.159740625000005
20
62.998125
30
0
0
VERTEX
8
0
10
48.136240625
20
63.030468750000004
30
0
0
VERTEX
8
0
10
37.63046875
20
73.536240625
30
0
0
VERTEX
8
0
10
37.598125
20
73.559740625
30
0
0
VERTEX
8
0
10
37.562503125
20
73.57789062500001
30
0
0
VERTEX
8
0
10
37.524478125
20
73.590246875
30
0
0
VERTEX
8
0
10
37.484990625
20
73.5965
30
0
0
VERTEX
8
0
10
24.110009375
20
73.5965
30
0
0
VERTEX
8
0
10
24.070521875
20
73.590246875
30
0
0
VERTEX
8
0
10
24.032496875
20
73.57789062500001
30
0
0
VERTEX
8
0
10
23.996875000000003
20
73.559740625
30
0
0
VERTEX
8
0
10
23.96453125
20
73.536240625
30
0
0
VERTEX
8
0
10
23.936259375000002
20
73.50796875
30
0
0
VERTEX
8
0
10
23.912759375
20
73.47562500000001
30
0
0
VERTEX
8
0
10
23.894609375
20
73.440003125
30
0
0
VERTEX
8
0
10
23.882253125000002
20
73.401978125
30
0
0
VERTEX
8
0
10
23.876
20
73.362490625
30
0
0
VERTEX
8
0
10
23.876
20
69.85000000000001
30
0
0
VERTEX
8
0
10
23.495
20
69.85000000000001
30
0
0
VERTEX
8
0
10
23.495
20
67.31
30
0
0
VERTEX
8
0
10
24.765
20
67.31
30
0
0
VERTEX
8
0
10
24.765
20
69.85000000000001
30
0
0
VERTEX
8
0
10
24.384
20
69.85000000000001
30
0
0
VERTEX
8
0
10
24.384
20
73.08850000000001
30
0
0
VERTEX
8
0
10
37.359790625
20
73.08850000000001
30
0
0
VERTEX
8
0
10
47.688500000000005
20
62.759790625
30
0
0
VERTEX
8
0
10
47.688500000000005
20
56.134
30
0
0
VERTEX
8
0
10
46.355000000000004
20
56.134
30
0
0
VERTEX
8
0
10
46.355000000000004
20
56.515
30
0
0
VERTEX
8
0
10
42.925000000000004
20
56.515
30
0
0
VERTEX
8
0
10
42.925000000000004
20
56.134
30
0
0
VERTEX
8
0
10
39.032509375000004
20
56.134
30
0
0
VERTEX
8
0
10
38.993021875000004
20
56.127746875
30
0
0
VERTEX
8
0
10
38.954996875
20
56.115390625
30
0
0
VERTEX
8
0
10
38.919375
20
56.097240625000005
30
0
0
VERTEX
8
0
10
38.88703125
20
56.073740625
30
0
0
VERTEX
8
0
10
38.858759375000005
20
56.045468750000005
30
0
0
VERTEX
8
0
10
38.835259375
20
56.013125
30
0
0
VERTEX
8
0
10
38.817109375
20
55.977503125000005
30
0
0
VERTEX
8
0
10
38.804753125000005
20
55.939478125
30
0
0
VERTEX
8
0
10
38.798500000000004
20
55.899990625
30
0
0
VERTEX
8
0
10
38.798500000000004
20
50.587709375
30
0
0
VERTEX
8
0
10
32.955790625
20
44.745000000000005
30
0
0
VERTEX
8
0
10
32.117971875
20
44.745000000000005
30
0
0
VERTEX
8
0
10
32.089475
20
44.73933125
30
0
0
VERTEX
8
0
10
32.06263125
20
44.728212500000005
30
0
0
VERTEX
8
0
10
32.038475
20
44.712071875
30
0
0
VERTEX
8
0
10
32.017928125000005
20
44.691525
30
0
0
VERTEX
8
0
10
32.0017875
20
44.66736875
30
0
0
VERTEX
8
0
10
31.99066875
20
44.640525000000004
30
0
0
VERTEX
8
0
10
31.985000000000003
20
44.612028125
30
0
0
VERTEX
8
0
10
31.985000000000003
20
44.287971875000004
30
0
0
VERTEX
8
0
10
31.99066875
20
44.259475
30
0
0
VERTEX
8
0
10
32.0017875
20
44.232631250000004
30
0
0
VERTEX
8
0
10
32.017928125000005
20
44.208475
30
0
0
VERTEX
8
0
10
32.038475
20
44.187928125
30
0
0
VERTEX
8
0
10
32.06263125
20
44.1717875
30
0
0
VERTEX
8
0
10
32.089475
20
44.16066875
30
0
0
VERTEX
8
0
10
32.117971875
20
44.155
30
0
0
VERTEX
8
0
10
33.802028125
20
44.155
30
0
0
VERTEX
8
0
10
33.830525
20
44.16066875
30
0
0
VERTEX
8
0
10
33.85736875
20
44.1717875
30
0
0
VERTEX
8
0
10
33.881525
20
44.187928125
30
0
0
VERTEX
8
0
10
33.902071875000004
20
44.208475
30
0
0
VERTEX
8
0
10
33.9182125
20
44.232631250000004
30
0
0
VERTEX
8
0
10
33.929331250000004
20
44.259475
30
0
0
VERTEX
8
0
10
33.935
20
44.287971875000004
30
0
0
VERTEX
8
0
10
33.935
20
44.612028125
30
0
0
VERTEX
8
0
10
33.929331250000004
20
44.640525000000004
30
0
0
VERTEX
8
0
10
33.9182125
20
44.66736875
30
0
0
VERTEX
8
0
10
33.902071875000004
20
44.691525
30
0
0
VERTEX
8
0
10
33.881525
20
44.712071875
30
0
0
VERTEX
8
0
10
33.85736875
20
44.728212500000005
30
0
0
VERTEX
8
0
10
33.830525
20
44.73933125
30
0
0
VERTEX
8
0
10
33.802028125
20
44.745000000000005
30
0
0
VERTEX
8
0
10
33.674209375000004
20
44.745000000000005
30
0
0
VERTEX
8
0
10
39.246240625
20
50.31703125
30
0
0
VERTEX
8
0
10
39.269740625000004
20
50.349375
30
0
0
VERTEX
8
0
10
39.287890625
20
50.384996875000006
30
0
0
VERTEX
8
0
10
39.300246875
20
50.423021875
30
0
0
VERTEX
8
0
10
39.3065
20
50.462509375
30
0
0
VERTEX
8
0
10
39.3065
20
50.8635
30
0
0
VERTEX
8
0
10
43.8785
20
50.8635
30
0
0
VERTEX
8
0
10
43.8785
20
47.625
30
0
0
VERTEX
8
0
10
42.925000000000004
20
47.625
30
0
0
VERTEX
8
0
10
42.925000000000004
20
47.244
30
0
0
VERTEX
8
0
10
39.032509375000004
20
47.244
30
0
0
VERTEX
8
0
10
38.993021875000004
20
47.237746875
30
0
0
VERTEX
8
0
10
38.954996875
20
47.225390625
30
0
0
VERTEX
8
0
10
38.919375
20
47.207240625000004
30
0
0
VERTEX
8
0
10
38.88703125
20
47.183740625000006
30
0
0
VERTEX
8
0
10
38.858759375000005
20
47.155468750000004
30
0
0
VERTEX
8
0
10
38.835259375
20
47.123125
30
0
0
VERTEX
8
0
10
38.817109375
20
47.087503125000005
30
0
0
VERTEX
8
0
10
38.804753125000005
20
47.049478125
30
0
0
VERTEX
8
0
10
38.798500000000004
20
47.009990625
30
0
0
VERTEX
8
0
10
38.798500000000004
20
42.842509375
30
0
0
VERTEX
8
0
10
38.804753125000005
20
42.803021875
30
0
0
VERTEX
8
0
10
38.817109375
20
42.764996875
30
0
0
VERTEX
8
0
10
38.835259375
20
42.729375000000005
30
0
0
VERTEX
8
0
10
38.858759375000005
20
42.69703125
30
0
0
VERTEX
8
0
10
38.88703125
20
42.668759375
30
0
0
VERTEX
8
0
10
38.919375
20
42.645259375
30
0
0
VERTEX
8
0
10
38.954996875
20
42.627109375
30
0
0
VERTEX
8
0
10
38.993021875000004
20
42.614753125
30
0
0
VERTEX
8
0
10
39.032509375000004
20
42.6085
30
0
0
VERTEX
8
0
10
45.1114
20
42.6085
30
0
0
VERTEX
8
0
10
45.1114
20
38.735
30
0
0
VERTEX
8
0
10
42.925000000000004
20
38.735
30
0
0
VERTEX
8
0
10
42.925000000000004
20
38.354
30
0
0
VERTEX
8
0
10
39.032509375000004
20
38.354
30
0
0
VERTEX
8
0
10
38.993021875000004
20
38.347746875
30
0
0
VERTEX
8
0
10
38.954996875
20
38.335390625
30
0
0
VERTEX
8
0
10
38.919375
20
38.317240625000004
30
0
0
VERTEX
8
0
10
38.88703125
20
38.293740625000005
30
0
0
VERTEX
8
0
10
38.858759375000005
20
38.265468750000004
30
0
0
VERTEX
8
0
10
38.835259375
20
38.233125
30
0
0
VERTEX
8
0
10
38.817109375
20
38.197503125000004
30
0
0
VERTEX
8
0
10
38.804753125000005
20
38.159478125
30
0
0
VERTEX
8
0
10
38.798500000000004
20
38.119990625
30
0
0
VERTEX
8
0
10
38.798500000000004
20
33.952509375
30
0
0
VERTEX
8
0
10
38.804753125000005
20
33.913021875
30
0
0
VERTEX
8
0
10
38.817109375
20
33.874996875
30
0
0
VERTEX
8
0
10
38.835259375
20
33.839375000000004
30
0
0
VERTEX
8
0
10
38.858759375000005
20
33.80703125
30
0
0
VERTEX
8
0
10
38.88703125
20
33.778759375
30
0
0
VERTEX
8
0
10
38.919375
20
33.755259375
30
0
0
VERTEX
8
0
10
38.954996875
20
33.737109375
30
0
0
VERTEX
8
0
10
38.993021875000004
20
33.724753125
30
0
0
VERTEX
8
0
10
39.032509375000004
20
33.7185
30
0
0
VERTEX
8
0
10
43.8785
20
33.7185
30
0
0
VERTEX
8
0
10
43.8785
20
29.845000000000002
30
0
0
VERTEX
8
0
10
42.925000000000004
20
29.845000000000002
30
0
0
VERTEX
8
0
10
42.925000000000004
20
29.464000000000002
30
0
0
VERTEX
8
0
10
39.032509375000004
20
29.464000000000002
30
0
0
VERTEX
8
0
10
38.993021875000004
20
29.457746875
30
0
0
VERTEX
8
0
10
38.954996875
20
29.445390625
30
0
0
VERTEX
8
0
10
38.919375
20
29.427240625000003
30
0
0
VERTEX
8
0
10
38.88703125
20
29.403740625
30
0
0
VERTEX
8
0
10
38.858759375000005
20
29.375468750000003
30
0
0
VERTEX
8
0
10
38.835259375
20
29.343125
30
0
0
VERTEX
8
0
10
38.817109375
20
29.307503125
30
0
0
VERTEX
8
0
10
38.804753125000005
20
29.269478125000003
30
0
0
VERTEX
8
0
10
38.798500000000004
20
29.229990625000003
30
0
0
VERTEX
8
0
10
38.798500000000004
20
25.062509375
30
0
0
VERTEX
8
0
10
38.804753125000005
20
25.023021875
30
0
0
VERTEX
8
0
10
38.817109375
20
24.984996875
30
0
0
VERTEX
8
0
10
38.835259375
20
24.949375
30
0
0
VERTEX
8
0
10
38.858759375000005
20
24.91703125
30
0
0
VERTEX
8
0
10
38.88703125
20
24.888759375000003
30
0
0
VERTEX
8
0
10
38.919375
20
24.865259375
30
0
0
VERTEX
8
0
10
38.954996875
20
24.847109375000002
30
0
0
VERTEX
8
0
10
38.993021875000004
20
24.834753125000002
30
0
0
VERTEX
8
0
10
39.032509375000004
20
24.828500000000002
30
0
0
VERTEX
8
0
10
44.196000000000005
20
24.828500000000002
30
0
0
VERTEX
8
0
10
44.196000000000005
20
20.955000000000002
30
0
0
VERTEX
8
0
10
42.925000000000004
20
20.955000000000002
30
0
0
VERTEX
8
0
10
42.925000000000004
20
20.574
30
0
0
VERTEX
8
0
10
39.667509375
20
20.574
30
0
0
VERTEX
8
0
10
39.628021875
20
20.567746875
30
0
0
VERTEX
8
0
10
39.589996875000004
20
20.555390625
30
0
0
VERTEX
8
0
10
39.554375
20
20.537240625000003
30
0
0
VERTEX
8
0
10
39.522031250000005
20
20.513740625
30
0
0
VERTEX
8
0
10
29.104790625
20
10.0965
30
0
0
VERTEX
8
0
10
12.0015
20
10.0965
30
0
0
VERTEX
8
0
10
12.0015
20
14.372290625000002
30
0
0
VERTEX
8
0
10
12.234209375
20
14.605
30
0
0
VERTEX
8
0
10
14.225000000000001
20
14.605
30
0
0
VERTEX
8
0
10
14.225000000000001
20
14.986
30
0
0
VERTEX
8
0
10
18.117490625000002
20
14.986
30
0
0
VERTEX
8
0
10
18.156978125000002
20
14.992253125000001
30
0
0
VERTEX
8
0
10
18.195003125
20
15.004609375000001
30
0
0
VERTEX
8
0
10
18.230625
20
15.022759375000001
30
0
0
VERTEX
8
0
10
18.262968750000002
20
15.046259375
30
0
0
VERTEX
8
0
10
18.291240625
20
15.074531250000001
30
0
0
VERTEX
8
0
10
18.314740625000002
20
15.106875
30
0
0
VERTEX
8
0
10
18.332890625
20
15.142496875
30
0
0
VERTEX
8
0
10
18.345246875
20
15.180521875
30
0
0
VERTEX
8
0
10
18.3515
20
15.220009375
30
0
0
VERTEX
8
0
10
18.3515
20
20.022490625
30
0
0
VERTEX
8
0
10
18.345246875
20
20.061978125
30
0
0
VERTEX
8
0
10
18.332890625
20
20.100003125
30
0
0
VERTEX
8
0
10
18.314740625000002
20
20.135625
30
0
0
VERTEX
8
0
10
18.291240625
20
20.16796875
30
0
0
VERTEX
8
0
10
18.262968750000002
20
20.196240625
30
0
0
VERTEX
8
0
10
18.230625
20
20.219740625
30
0
0
VERTEX
8
0
10
18.195003125
20
20.237890625000002
30
0
0
VERTEX
8
0
10
18.156978125000002
20
20.250246875000002
30
0
0
VERTEX
8
0
10
18.117490625000002
20
20.256500000000003
30
0
0
VERTEX
8
0
10
12.954
20
20.256500000000003
30
0
0
VERTEX
8
0
10
12.954
20
23.495
30
0
0
VERTEX
8
0
10
14.225000000000001
20
23.495
30
0
0
VERTEX
8
0
10
14.225000000000001
20
23.876
30
0
0
VERTEX
8
0
10
18.117490625000002
20
23.876
30
0
0
VERTEX
8
0
10
18.156978125000002
20
23.882253125000002
30
0
0
VERTEX
8
0
10
18.195003125
20
23.894609375
30
0
0
VERTEX
8
0
10
18.230625
20
23.912759375
30
0
0
VERTEX
8
0
10
18.262968750000002
20
23.936259375000002
30
0
0
VERTEX
8
0
10
18.291240625
20
23.96453125
30
0
0
VERTEX
8
0
10
18.314740625000002
20
23.996875000000003
30
0
0
VERTEX
8
0
10
18.332890625
20
24.032496875
30
0
0
VERTEX
8
0
10
18.345246875
20
24.070521875
30
0
0
VERTEX
8
0
10
18.3515
20
24.110009375
30
0
0
VERTEX
8
0
10
18.3515
20
28.277490625000002
30
0
0
VERTEX
8
0
10
18.345246875
20
28.316978125000002
30
0
0
VERTEX
8
0
10
18.332890625
20
28.355003125
30
0
0
VERTEX
8
0
10
18.314740625000002
20
28.390625
30
0
0
VERTEX
8
0
10
18.291240625
20
28.422968750000003
30
0
0
VERTEX
8
0
10
18.262968750000002
20
28.451240625
30
0
0
VERTEX
8
0
10
18.230625
20
28.474740625000003
30
0
0
VERTEX
8
0
10
18.195003125
20
28.492890625
30
0
0
VERTEX
8
0
10
18.156978125000002
20
28.505246875
30
0
0
VERTEX
8
0
10
18.117490625000002
20
28.5115
30
0
0
VERTEX
8
0
10
12.954
20
28.5115
30
0
0
VERTEX
8
0
10
12.954
20
32.385
30
0
0
VERTEX
8
0
10
14.225000000000001
20
32.385
30
0
0
VERTEX
8
0
10
14.225000000000001
20
32.766
30
0
0
VERTEX
8
0
10
18.117490625000002
20
32.766
30
0
0
VERTEX
8
0
10
18.156978125000002
20
32.772253125
30
0
0
VERTEX
8
0
10
18.195003125
20
32.784609375
30
0
0
VERTEX
8
0
10
18.230625
20
32.802759375
30
0
0
VERTEX
8
0
10
18.262968750000002
20
32.826259375
30
0
0
VERTEX
8
0
10
18.291240625
20
32.85453125
30
0
0
VERTEX
8
0
10
18.314740625000002
20
32.886875
30
0
0
VERTEX
8
0
10
18.332890625
20
32.922496875
30
0
0
VERTEX
8
0
10
18.345246875
20
32.960521875000005
30
0
0
VERTEX
8
0
10
18.3515
20
33.000009375000005
30
0
0
VERTEX
8
0
10
18.3515
20
37.167490625
30
0
0
VERTEX
8
0
10
18.345246875
20
37.206978125
30
0
0
VERTEX
8
0
10
18.332890625
20
37.245003125000004
30
0
0
VERTEX
8
0
10
18.314740625000002
20
37.280625
30
0
0
VERTEX
8
0
10
18.291240625
20
37.31296875
30
0
0
VERTEX
8
0
10
18.262968750000002
20
37.341240625000005
30
0
0
VERTEX
8
0
10
18.230625
20
37.364740625
30
0
0
VERTEX
8
0
10
18.195003125
20
37.382890625
30
0
0
VERTEX
8
0
10
18.156978125000002
20
37.395246875000005
30
0
0
VERTEX
8
0
10
18.117490625000002
20
37.4015
30
0
0
VERTEX
8
0
10
12.954
20
37.4015
30
0
0
VERTEX
8
0
10
12.954
20
41.275
30
0
0
VERTEX
8
0
10
14.225000000000001
20
41.275
30
0
0
VERTEX
8
0
10
14.225000000000001
20
41.656
30
0
0
VERTEX
8
0
10
18.117490625000002
20
41.656
30
0
0
VERTEX
8
0
10
18.156978125000002
20
41.662253125
30
0
0
VERTEX
8
0
10
18.195003125
20
41.674609375
30
0
0
VERTEX
8
0
10
18.230625
20
41.692759375
30
0
0
VERTEX
8
0
10
18.262968750000002
20
41.716259375
30
0
0
VERTEX
8
0
10
18.291240625
20
41.74453125
30
0
0
VERTEX
8
0
10
18.314740625000002
20
41.776875000000004
30
0
0
VERTEX
8
0
10
18.332890625
20
41.812496875
30
0
0
VERTEX
8
0
10
18.345246875
20
41.850521875000005
30
0
0
VERTEX
8
0
10
18.3515
20
41.890009375000005
30
0
0
VERTEX
8
0
10
18.3515
20
46.057490625
30
0
0
VERTEX
8
0
10
18.345246875
20
46.096978125
30
0
0
VERTEX
8
0
10
18.332890625
20
46.135003125000004
30
0
0
VERTEX
8
0
10
18.314740625000002
20
46.170625
30
0
0
VERTEX
8
0
10
18.291240625
20
46.202968750000004
30
0
0
VERTEX
8
0
10
18.262968750000002
20
46.231240625000005
30
0
0
VERTEX
8
0
10
18.230625
20
46.254740625000004
30
0
0
VERTEX
8
0
10
18.195003125
20
46.272890625
30
0
0
VERTEX
8
0
10
18.156978125000002
20
46.285246875000006
30
0
0
VERTEX
8
0
10
18.117490625000002
20
46.2915
30
0
0
VERTEX
8
0
10
12.954
20
46.2915
30
0
0
VERTEX
8
0
10
12.954
20
50.165
30
0
0
VERTEX
8
0
10
14.225000000000001
20
50.165
30
0
0
VERTEX
8
0
10
14.225000000000001
20
50.546
30
0
0
VERTEX
8
0
10
18.117490625000002
20
50.546
30
0
0
VERTEX
8
0
10
18.156978125000002
20
50.552253125
30
0
0
VERTEX
8
0
10
18.195003125
20
50.564609375
30
0
0
VERTEX
8
0
10
18.230625
20
50.582759375
30
0
0
VERTEX
8
0
10
18.262968750000002
20
50.606259375
30
0
0
VERTEX
8
0
10
18.291240625
20
50.63453125
30
0
0
VERTEX
8
0
10
18.314740625000002
20
50.666875000000005
30
0
0
VERTEX
8
0
10
18.332890625
20
50.702496875
30
0
0
VERTEX
8
0
10
18.345246875
20
50.740521875
30
0
0
VERTEX
8
0
10
18.3515
20
50.780009375000006
30
0
0
VERTEX
8
0
10
18.3515
20
54.947490625
30
0
0
VERTEX
8
0
10
18.345246875
20
54.986978125
30
0
0
VERTEX
8
0
10
18.332890625
20
55.025003125000005
30
0
0
VERTEX
8
0
10
18.314740625000002
20
55.060625
30
0
0
VERTEX
8
0
10
18.291240625
20
55.092968750000004
30
0
0
VERTEX
8
0
10
18.262968750000002
20
55.121240625000006
30
0
0
VERTEX
8
0
10
18.230625
20
55.144740625000004
30
0
0
VERTEX
8
0
10
18.195003125
20
55.162890625
30
0
0
VERTEX
8
0
10
18.156978125000002
20
55.175246875
30
0
0
VERTEX
8
0
10
18.117490625000002
20
55.1815
30
0
0
VERTEX
8
0
10
13.271500000000001
20
55.1815
30
0
0
VERTEX
8
0
10
13.271500000000001
20
59.055
30
0
0
VERTEX
8
0
10
14.225000000000001
20
59.055
30
0
0
VERTEX
8
0
10
14.225000000000001
20
59.436
30
0
0
VERTEX
8
0
10
22.119790625
20
59.436
30
0
0
VERTEX
8
0
10
25.929790625000003
20
55.626000000000005
30
0
0
VERTEX
8
0
10
25.7175
20
55.626000000000005
30
0
0
VERTEX
8
0
10
25.7175
20
54.356
30
0
0
VERTEX
8
0
10
27.622500000000002
20
54.356
30
0
0
VERTEX
8
0
10
27.622500000000002
20
55.626000000000005
30
0
0
VERTEX
8
0
10
26.648209375
20
55.626000000000005
30
0
0
VERTEX
8
0
10
22.39046875
20
59.883740625
30
0
0
VERTEX
8
0
10
22.358125
20
59.907240625
30
0
0
VERTEX
8
0
10
22.322503125
20
59.925390625000006
30
0
0
VERTEX
8
0
10
22.284478125
20
59.937746875
30
0
0
VERTEX
8
0
10
22.244990625
20
59.944
30
0
0
VERTEX
8
0
10
14.225000000000001
20
59.944
30
0
0
VERTEX
8
0
10
14.225000000000001
20
60.325
30
0
0
VERTEX
8
0
10
10.795
20
60.325
30
0
0
VERTEX
8
0
10
10.795
20
59.055
30
0
0
VERTEX
8
0
10
12.7635
20
59.055
30
0
0
VERTEX
8
0
10
12.7635
20
54.907509375000004
30
0
0
VERTEX
8
0
10
12.769753125000001
20
54.868021875000004
30
0
0
VERTEX
8
0
10
12.782109375000001
20
54.829996875
30
0
0
VERTEX
8
0
10
12.800259375000001
20
54.794375
30
0
0
VERTEX
8
0
10
12.823759375
20
54.76203125
30
0
0
VERTEX
8
0
10
12.852031250000001
20
54.733759375000005
30
0
0
VERTEX
8
0
10
12.884375
20
54.710259375
30
0
0
VERTEX
8
0
10
12.919996875
20
54.692109375
30
0
0
VERTEX
8
0
10
12.958021875
20
54.679753125000005
30
0
0
VERTEX
8
0
10
12.997509375
20
54.673500000000004
30
0
0
VERTEX
8
0
10
17.843500000000002
20
54.673500000000004
30
0
0
VERTEX
8
0
10
17.843500000000002
20
51.054
30
0
0
VERTEX
8
0
10
14.225000000000001
20
51.054
30
0
0
VERTEX
8
0
10
14.225000000000001
20
51.435
30
0
0
VERTEX
8
0
10
10.795
20
51.435
30
0
0
VERTEX
8
0
10
10.795
20
50.165
30
0
0
VERTEX
8
0
10
12.446
20
50.165
30
0
0
VERTEX
8
0
10
12.446
20
46.017509375
30
0
0
VERTEX
8
0
10
12.452253125
20
45.978021875
30
0
0
VERTEX
8
0
10
12.464609375
20
45.939996875000006
30
0
0
VERTEX
8
0
10
12.482759375
20
45.904375
30
0
0
VERTEX
8
0
10
12.506259375
20
45.87203125
30
0
0
VERTEX
8
0
10
12.53453125
20
45.843759375000005
30
0
0
VERTEX
8
0
10
12.566875000000001
20
45.820259375
30
0
0
VERTEX
8
0
10
12.602496875
20
45.802109375
30
0
0
VERTEX
8
0
10
12.640521875000001
20
45.789753125000004
30
0
0
VERTEX
8
0
10
12.680009375000001
20
45.783500000000004
30
0
0
VERTEX
8
0
10
17.843500000000002
20
45.783500000000004
30
0
0
VERTEX
8
0
10
17.843500000000002
20
42.164
30
0
0
VERTEX
8
0
10
14.225000000000001
20
42.164
30
0
0
VERTEX
8
0
10
14.225000000000001
20
42.545
30
0
0
VERTEX
8
0
10
10.795
20
42.545
30
0
0
VERTEX
8
0
10
10.795
20
41.275
30
0
0
VERTEX
8
0
10
12.446
20
41.275
30
0
0
VERTEX
8
0
10
12.446
20
37.127509375
30
0
0
VERTEX
8
0
10
12.452253125
20
37.088021875
30
0
0
VERTEX
8
0
10
12.464609375
20
37.049996875000005
30
0
0
VERTEX
8
0
10
12.482759375
20
37.014375
30
0
0
VERTEX
8
0
10
12.506259375
20
36.98203125
30
0
0
VERTEX
8
0
10
12.53453125
20
36.953759375000004
30
0
0
VERTEX
8
0
10
12.566875000000001
20
36.930259375
30
0
0
VERTEX
8
0
10
12.602496875
20
36.912109375
30
0
0
VERTEX
8
0
10
12.640521875000001
20
36.899753125000004
30
0
0
VERTEX
8
0
10
12.680009375000001
20
36.8935
30
0
0
VERTEX
8
0
10
17.843500000000002
20
36.8935
30
0
0
VERTEX
8
0
10
17.843500000000002
20
33.274
30
0
0
VERTEX
8
0
10
14.225000000000001
20
33.274
30
0
0
VERTEX
8
0
10
14.225000000000001
20
33.655
30
0
0
VERTEX
8
0
10
10.795
20
33.655
30
0
0
VERTEX
8
0
10
10.795
20
32.385
30
0
0
VERTEX
8
0
10
12.446
20
32.385
30
0
0
VERTEX
8
0
10
12.446
20
28.237509375000002
30
0
0
VERTEX
8
0
10
12.452253125
20
28.198021875000002
30
0
0
VERTEX
8
0
10
12.464609375
20
28.159996875
30
0
0
VERTEX
8
0
10
12.482759375
20
28.124375
30
0
0
VERTEX
8
0
10
12.506259375
20
28.09203125
30
0
0
VERTEX
8
0
10
12.53453125
20
28.063759375
30
0
0
VERTEX
8
0
10
12.566875000000001
20
28.040259375
30
0
0
VERTEX
8
0
10
12.602496875
20
28.022109375000003
30
0
0
VERTEX
8
0
10
12.640521875000001
20
28.009753125
30
0
0
VERTEX
8
0
10
12.680009375000001
20
28.003500000000003
30
0
0
VERTEX
8
0
10
17.843500000000002
20
28.003500000000003
30
0
0
VERTEX
8
0
10
17.843500000000002
20
24.384
30
0
0
VERTEX
8
0
10
14.225000000000001
20
24.384
30
0
0
VERTEX
8
0
10
14.225000000000001
20
24.765
30
0
0
VERTEX
8
0
10
10.795
20
24.765
30
0
0
VERTEX
8
0
10
10.795
20
23.495
30
0
0
VERTEX
8
0
10
12.446
20
23.495
30
0
0
VERTEX
8
0
10
12.446
20
19.982509375
30
0
0
VERTEX
8
0
10
12.452253125
20
19.943021875
30
0
0
VERTEX
8
0
10
12.464609375
20
19.904996875000002
30
0
0
VERTEX
8
0
10
12.482759375
20
19.869375
30
0
0
VERTEX
8
0
10
12.506259375
20
19.837031250000003
30
0
0
VERTEX
8
0
10
12.53453125
20
19.808759375
30
0
0
VERTEX
8
0
10
12.566875000000001
20
19.785259375000003
30
0
0
VERTEX
8
0
10
12.602496875
20
19.767109375
30
0
0
VERTEX
8
0
10
12.640521875000001
20
19.754753125
30
0
0
VERTEX
8
0
10
12.680009375000001
20
19.7485
30
0
0
VERTEX
8
0
10
17.843500000000002
20
19.7485
30
0
0
VERTEX
8
0
10
17.843500000000002
20
15.494000000000002
30
0
0
VERTEX
8
0
10
14.225000000000001
20
15.494000000000002
30
0
0
VERTEX
8
0
10
14.225000000000001
20
15.875
30
0
0
VERTEX
8
0
10
10.795
20
15.875
30
0
0
VERTEX
8
0
10
10.795
20
14.605
30
0
0
VERTEX
8
0
10
11.52739375
20
14.605
30
0
0
VERTEX
8
0
10
11.512109375000001
20
14.575003125
30
0
0
VERTEX
8
0
10
11.499753125
20
14.536978125000001
30
0
0
VERTEX
8
0
10
11.493500000000001
20
14.497490625000001
30
0
0
VERTEX
8
0
10
11.493500000000001
20
9.822509375000001
30
0
0
VERTEX
8
0
10
11.499753125
20
9.783021875000001
30
0
0
VERTEX
8
0
10
11.512109375000001
20
9.744996875
30
0
0
VERTEX
8
0
10
11.530259375
20
9.709375
30
0
0
VERTEX
8
0
10
11.553759375
20
9.67703125
30
0
0
VERTEX
8
0
10
11.58203125
20
9.648759375000001
30
0
0
VERTEX
8
0
10
11.614375
20
9.625259375
30
0
0
VERTEX
8
0
10
11.649996875000001
20
9.607109375
30
0
0
VERTEX
8
0
10
11.688021875
20
9.594753125
30
0
0
VERTEX
8
0
10
11.727509375
20
9.5885
30
0
0
VERTEX
8
0
10
29.229990625000003
20
9.5885
30
0
0
VERTEX
8
0
10
29.269478125000003
20
9.594753125
30
0
0
VERTEX
8
0
10
29.307503125
20
9.607109375
30
0
0
VERTEX
8
0
10
29.343125
20
9.625259375
30
0
0
VERTEX
8
0
10
29.375468750000003
20
9.648759375000001
30
0
0
VERTEX
8
0
10
39.792709375
20
20.066000000000003
30
0
0
VERTEX
8
0
10
42.925000000000004
20
20.066000000000003
30
0
0
VERTEX
8
0
10
42.925000000000004
20
19.685000000000002
30
0
0
VERTEX
8
0
10
46.355000000000004
20
19.685000000000002
30
0
0
VERTEX
8
0
10
46.355000000000004
20
20.955000000000002
30
0
0
VERTEX
8
0
10
44.704
20
20.955000000000002
30
0
0
VERTEX
8
0
10
44.704
20
25.102490625
30
0
0
VERTEX
8
0
10
44.697746875
20
25.141978125
30
0
0
VERTEX
8
0
10
44.685390625000004
20
25.180003125000002
30
0
0
VERTEX
8
0
10
44.667240625000005
20
25.215625000000003
30
0
0
VERTEX
8
0
10
44.643740625
20
25.247968750000002
30
0
0
VERTEX
8
0
10
44.615468750000005
20
25.276240625
30
0
0
VERTEX
8
0
10
44.583125
20
25.299740625000002
30
0
0
VERTEX
8
0
10
44.547503125
20
25.317890625
30
0
0
VERTEX
8
0
10
44.509478125
20
25.330246875
30
0
0
VERTEX
8
0
10
44.469990625
20
25.3365
30
0
0
VERTEX
8
0
10
39.3065
20
25.3365
30
0
0
SEQEND
0
POLYLINE
66
1
8
1_copper
10
0.0
20
0.0
30
0.0
70
1
0
VERTEX
8
0
10
17.145
20
12.446
30
0
0
VERTEX
8
0
10
22.355221875
20
12.446
30
0
0
VERTEX
8
0
10
22.371759375
20
12.44555
30
0
0
VERTEX
8
0
10
22.375203125000002
20
12.446
30
0
0
VERTEX
8
0
10
22.378675
20
12.446
30
0
0
VERTEX
8
0
10
22.395015625000003
20
12.4485875
30
0
0
VERTEX
8
0
10
22.411403125
20
12.450728125000001
30
0
0
VERTEX
8
0
10
22.414728125
20
12.451709375
30
0
0
VERTEX
8
0
10
22.4181625
20
12.452253125
30
0
0
VERTEX
8
0
10
22.4338875
20
12.4573625
30
0
0
VERTEX
8
0
10
22.44975
20
12.462043750000001
30
0
0
VERTEX
8
0
10
22.45289375
20
12.463537500000001
30
0
0
VERTEX
8
0
10
22.456187500000002
20
12.464609375
30
0
0
VERTEX
8
0
10
22.4708875
20
12.472100000000001
30
0
0
VERTEX
8
0
10
22.485853125000002
20
12.479218750000001
30
0
0
VERTEX
8
0
10
22.488721875
20
12.4811875
30
0
0
VERTEX
8
0
10
22.491809375000003
20
12.482759375
30
0
0
VERTEX
8
0
10
22.5051625
20
12.4924625
30
0
0
VERTEX
8
0
10
22.518825
20
12.50183125
30
0
0
VERTEX
8
0
10
22.52135
20
12.504221875
30
0
0
VERTEX
8
0
10
22.524153125
20
12.506259375
30
0
0
VERTEX
8
0
10
22.535815625
20
12.517921875
30
0
0
VERTEX
8
0
10
22.547853125
20
12.529321875
30
0
0
VERTEX
8
0
10
22.549975
20
12.532081250000001
30
0
0
VERTEX
8
0
10
22.552425
20
12.53453125
30
0
0
VERTEX
8
0
10
22.562121875000003
20
12.547875000000001
30
0
0
VERTEX
8
0
10
22.572225
20
12.561015625000001
30
0
0
VERTEX
8
0
10
22.5738875
20
12.564071875
30
0
0
VERTEX
8
0
10
22.575925
20
12.566875000000001
30
0
0
VERTEX
8
0
10
22.583428125
20
12.581603125
30
0
0
VERTEX
8
0
10
22.5913375
20
12.596134375
30
0
0
VERTEX
8
0
10
22.5925
20
12.599403125
30
0
0
VERTEX
8
0
10
22.594075
20
12.602496875
30
0
0
VERTEX
8
0
10
22.599190625000002
20
12.618237500000001
30
0
0
VERTEX
8
0
10
28.23381875
20
28.47866875
30
0
0
VERTEX
8
0
10
28.235390625
20
28.48175625
30
0
0
VERTEX
8
0
10
28.240496875
20
28.497465625
30
0
0
VERTEX
8
0
10
28.2460375
20
28.513065625000003
30
0
0
VERTEX
8
0
10
28.246675
20
28.516478125000003
30
0
0
VERTEX
8
0
10
28.247746875
20
28.51978125
30
0
0
VERTEX
8
0
10
28.250334375
20
28.536121875000003
30
0
0
VERTEX
8
0
10
28.2533625
20
28.552368750000003
30
0
0
VERTEX
8
0
10
28.253456250000003
20
28.555840625000002
30
0
0
VERTEX
8
0
10
28.254
20
28.55926875
30
0
0
VERTEX
8
0
10
28.254
20
28.575796875
30
0
0
VERTEX
8
0
10
28.254450000000002
20
28.592334375
30
0
0
VERTEX
8
0
10
28.254
20
28.595778125000002
30
0
0
VERTEX
8
0
10
28.254
20
36.535000000000004
30
0
0
VERTEX
8
0
10
28.842028125000002
20
36.535000000000004
30
0
0
VERTEX
8
0
10
28.870525
20
36.54066875
30
0
0
VERTEX
8
0
10
28.897368750000002
20
36.5517875
30
0
0
VERTEX
8
0
10
28.921525000000003
20
36.567928125
30
0
0
VERTEX
8
0
10
28.942071875
20
36.588475
30
0
0
VERTEX
8
0
10
28.958212500000002
20
36.61263125
30
0
0
VERTEX
8
0
10
28.96933125
20
36.639475000000004
30
0
0
VERTEX
8
0
10
28.975
20
36.667971875
30
0
0
VERTEX
8
0
10
28.975
20
36.992028125000004
30
0
0
VERTEX
8
0
10
28.96933125
20
37.020525
30
0
0
VERTEX
8
0
10
28.958212500000002
20
37.047368750000004
30
0
0
VERTEX
8
0
10
28.942071875
20
37.071525
30
0
0
VERTEX
8
0
10
28.921525000000003
20
37.092071875
30
0
0
VERTEX
8
0
10
28.897368750000002
20
37.1082125
30
0
0
VERTEX
8
0
10
28.870525
20
37.11933125
30
0
0
VERTEX
8
0
10
28.842028125000002
20
37.125
30
0
0
VERTEX
8
0
10
27.157971875
20
37.125
30
0
0
VERTEX
8
0
10
27.129475000000003
20
37.11933125
30
0
0
VERTEX
8
0
10
27.10263125
20
37.1082125
30
0
0
VERTEX
8
0
10
27.078475
20
37.092071875
30
0
0
VERTEX
8
0
10
27.057928125
20
37.071525
30
0
0
VERTEX
8
0
10
27.0417875
20
37.047368750000004
30
0
0
VERTEX
8
0
10
27.03066875
20
37.020525
30
0
0
VERTEX
8
0
10
27.025000000000002
20
36.992028125000004
30
0
0
VERTEX
8
0
10
27.025000000000002
20
36.667971875
30
0
0
VERTEX
8
0
10
27.03066875
20
36.639475000000004
30
0
0
VERTEX
8
0
10
27.0417875
20
36.61263125
30
0
0
VERTEX
8
0
10
27.057928125
20
36.588475
30
0
0
VERTEX
8
0
10
27.078475
20
36.567928125
30
0
0
VERTEX
8
0
10
27.10263125
20
36.5517875
30
0
0
VERTEX
8
0
10
27.129475000000003
20
36.54066875
30
0
0
VERTEX
8
0
10
27.157971875
20
36.535000000000004
30
0
0
VERTEX
8
0
10
27.746000000000002
20
36.535000000000004
30
0
0
VERTEX
8
0
10
27.746000000000002
20
28.623037500000002
30
0
0
VERTEX
8
0
10
22.179368750000002
20
12.954
30
0
0
VERTEX
8
0
10
17.145
20
12.954
30
0
0
VERTEX
8
0
10
17.145
20
13.335
30
0
0
VERTEX
8
0
10
13.715
20
13.335
30
0
0
VERTEX
8
0
10
13.715
20
12.065000000000001
30
0
0
VERTEX
8
0
10
17.145
20
12.065000000000001
30
0
0
SEQEND
0
POLYLINE
66
1
8
1_copper
10
0.0
20
0.0
30
0.0
70
1
0
VERTEX
8
0
10
19.465003125000003
20
21.354609375000003
30
0
0
VERTEX
8
0
10
19.500625
20
21.372759375
30
0
0
VERTEX
8
0
10
19.532968750000002
20
21.396259375
30
0
0
VERTEX
8
0
10
19.561240625
20
21.42453125
30
0
0
VERTEX
8
0
10
19.584740625000002
20
21.456875
30
0
0
VERTEX
8
0
10
19.602890625
20
21.492496875
30
0
0
VERTEX
8
0
10
19.615246875
20
21.530521875
30
0
0
VERTEX
8
0
10
19.6215
20
21.570009375
30
0
0
VERTEX
8
0
10
19.6215
20
30.859134375
30
0
0
VERTEX
8
0
10
26.608365625
20
37.846000000000004
30
0
0
VERTEX
8
0
10
27.070403125000002
20
37.846000000000004
30
0
0
VERTEX
8
0
10
27.078475
20
37.837928125000005
30
0
0
VERTEX
8
0
10
27.10263125
20
37.8217875
30
0
0
VERTEX
8
0
10
27.129475000000003
20
37.810668750000005
30
0
0
VERTEX
8
0
10
27.157971875
20
37.805
30
0
0
VERTEX
8
0
10
28.842028125000002
20
37.805
30
0
0
VERTEX
8
0
10
28.870525
20
37.810668750000005
30
0
0
VERTEX
8
0
10
28.897368750000002
20
37.8217875
30
0
0
VERTEX
8
0
10
28.921525000000003
20
37.837928125000005
30
0
0
VERTEX
8
0
10
28.942071875
20
37.858475
30
0
0
VERTEX
8
0
10
28.958212500000002
20
37.88263125
30
0
0
VERTEX
8
0
10
28.96933125
20
37.909475
30
0
0
VERTEX
8
0
10
28.975
20
37.937971875
30
0
0
VERTEX
8
0
10
28.975
20
38.262028125
30
0
0
VERTEX
8
0
10
28.96933125
20
38.290525
30
0
0
VERTEX
8
0
10
28.958212500000002
20
38.31736875
30
0
0
VERTEX
8
0
10
28.942071875
20
38.341525000000004
30
0
0
VERTEX
8
0
10
28.921525000000003
20
38.362071875000005
30
0
0
VERTEX
8
0
10
28.897368750000002
20
38.378212500000004
30
0
0
VERTEX
8
0
10
28.870525
20
38.389331250000005
30
0
0
VERTEX
8
0
10
28.842028125000002
20
38.395
30
0
0
VERTEX
8
0
10
27.157971875
20
38.395
30
0
0
VERTEX
8
0
10
27.129475000000003
20
38.389331250000005
30
0
0
VERTEX
8
0
10
27.10263125
20
38.378212500000004
30
0
0
VERTEX
8
0
10
27.078475
20
38.362071875000005
30
0
0
VERTEX
8
0
10
27.070403125000002
20
38.354
30
0
0
VERTEX
8
0
10
26.483165625
20
38.354
30
0
0
VERTEX
8
0
10
26.443678125
20
38.347746875
30
0
0
VERTEX
8
0
10
26.405653125
20
38.335390625
30
0
0
VERTEX
8
0
10
26.37003125
20
38.317240625000004
30
0
0
VERTEX
8
0
10
26.3376875
20
38.293740625000005
30
0
0
VERTEX
8
0
10
19.173759375
20
31.1298125
30
0
0
VERTEX
8
0
10
19.150259375
20
31.09746875
30
0
0
VERTEX
8
0
10
19.132109375000002
20
31.061846875
30
0
0
VERTEX
8
0
10
19.119753125000003
20
31.023821875000003
30
0
0
VERTEX
8
0
10
19.113500000000002
20
30.984334375000003
30
0
0
VERTEX
8
0
10
19.113500000000002
20
21.844
30
0
0
VERTEX
8
0
10
17.145
20
21.844
30
0
0
VERTEX
8
0
10
17.145
20
22.225
30
0
0
VERTEX
8
0
10
13.715
20
22.225
30
0
0
VERTEX
8
0
10
13.715
20
20.955000000000002
30
0
0
VERTEX
8
0
10
17.145
20
20.955000000000002
30
0
0
VERTEX
8
0
10
17.145
20
21.336000000000002
30
0
0
VERTEX
8
0
10
19.387490625
20
21.336000000000002
30
0
0
VERTEX
8
0
10
19.426978125
20
21.342253125000003
30
0
0
SEQEND
0
CIRCLE
8
drills_NPTH
10
4
20
71.87
30
0
40
2.125
0
CIRCLE
8
drills_NPTH
10
55.67
20
71.87
30
0
40
2.125
0
CIRCLE
8
drills_NPTH
10
4
20
9.08
30
0
40
2.125
0
CIRCLE
8
drills_NPTH
10
55.67
20
9.08
30
0
40
2.125
0
ENDSEC
0
EOF