0
SECTION
2
HEADER
9
$ANGDIR
70
1
9
$AUNITS
70
0
9
$PROJECTNAME
1
basic electronics v6
9
$TDCREATE
40
2460281.65702820
9
$INSUNITS
70
4
0
ENDSEC
0
SECTION
2
ENTITIES
0
POLYLINE
66
1
8
outline
10
0.0
20
0.0
30
0.0
70
1
0
VERTEX
8
0
10
-5.08
20
0
30
0
0
VERTEX
8
0
10
40.620000000000005
20
0
30
0
0
VERTEX
8
0
10
40.620000000000005
20
35.230000000000004
30
0
0
VERTEX
8
0
10
-5.08
20
35.230000000000004
30
0
0
VERTEX
8
0
10
-5.08
20
0
30
0
0
SEQEND
0
POLYLINE
66
1
8
1_copper
10
0.0
20
0.0
30
0.0
70
1
0
VERTEX
8
0
10
14.605
20
30.48
30
0
0
VERTEX
8
0
10
13.335
20
30.48
30
0
0
VERTEX
8
0
10
13.335
20
27.94
30
0
0
VERTEX
8
0
10
14.605
20
27.94
30
0
0
SEQEND
0
POLYLINE
66
1
8
1_copper
10
0.0
20
0.0
30
0.0
70
1
0
VERTEX
8
0
10
24.765
20
30.48
30
0
0
VERTEX
8
0
10
23.495
20
30.48
30
0
0
VERTEX
8
0
10
23.495
20
27.94
30
0
0
VERTEX
8
0
10
24.765
20
27.94
30
0
0
SEQEND
0
POLYLINE
66
1
8
1_copper
10
0.0
20
0.0
30
0.0
70
1
0
VERTEX
8
0
10
37.465
20
17.018
30
0
0
VERTEX
8
0
10
35.179
20
17.018
30
0
0
VERTEX
8
0
10
35.179
20
15.494000000000002
30
0
0
VERTEX
8
0
10
37.465
20
15.494000000000002
30
0
0
SEQEND
0
POLYLINE
66
1
8
1_copper
10
0.0
20
0.0
30
0.0
70
1
0
VERTEX
8
0
10
37.465
20
12.446
30
0
0
VERTEX
8
0
10
35.179
20
12.446
30
0
0
VERTEX
8
0
10
35.179
20
10.922
30
0
0
VERTEX
8
0
10
37.465
20
10.922
30
0
0
SEQEND
0
POLYLINE
66
1
8
1_copper
10
0.0
20
0.0
30
0.0
70
1
0
VERTEX
8
0
10
17.623503125
20
24.148609375
30
0
0
VERTEX
8
0
10
17.659125
20
24.166759375
30
0
0
VERTEX
8
0
10
17.691468750000002
20
24.190259375
30
0
0
VERTEX
8
0
10
19.243740625
20
25.742531250000003
30
0
0
VERTEX
8
0
10
19.267240625
20
25.774875
30
0
0
VERTEX
8
0
10
19.285390625
20
25.810496875000002
30
0
0
VERTEX
8
0
10
19.297746875
20
25.848521875000003
30
0
0
VERTEX
8
0
10
19.304000000000002
20
25.888009375000003
30
0
0
VERTEX
8
0
10
19.304000000000002
20
27.94
30
0
0
VERTEX
8
0
10
19.685000000000002
20
27.94
30
0
0
VERTEX
8
0
10
19.685000000000002
20
30.48
30
0
0
VERTEX
8
0
10
18.415
20
30.48
30
0
0
VERTEX
8
0
10
18.415
20
27.94
30
0
0
VERTEX
8
0
10
18.796
20
27.94
30
0
0
VERTEX
8
0
10
18.796
20
26.013209375000002
30
0
0
VERTEX
8
0
10
17.420790625000002
20
24.638
30
0
0
VERTEX
8
0
10
16.791634375
20
24.638
30
0
0
VERTEX
8
0
10
16.752146875
20
24.631746875
30
0
0
VERTEX
8
0
10
16.714121875
20
24.619390625
30
0
0
VERTEX
8
0
10
16.6785
20
24.601240625000003
30
0
0
VERTEX
8
0
10
16.64615625
20
24.577740625
30
0
0
VERTEX
8
0
10
15.944415625000001
20
23.876
30
0
0
VERTEX
8
0
10
14.716125
20
23.876
30
0
0
VERTEX
8
0
10
14.716125
20
22.606
30
0
0
VERTEX
8
0
10
16.621125
20
22.606
30
0
0
VERTEX
8
0
10
16.621125
20
23.834290625
30
0
0
VERTEX
8
0
10
16.916834375
20
24.130000000000003
30
0
0
VERTEX
8
0
10
17.545990625
20
24.130000000000003
30
0
0
VERTEX
8
0
10
17.585478125
20
24.136253125
30
0
0
SEQEND
0
POLYLINE
66
1
8
1_copper
10
0.0
20
0.0
30
0.0
70
1
0
VERTEX
8
0
10
22.957503125000002
20
8.019609375
30
0
0
VERTEX
8
0
10
22.993125000000003
20
8.037759375
30
0
0
VERTEX
8
0
10
23.02546875
20
8.061259375
30
0
0
VERTEX
8
0
10
23.371240625000002
20
8.407031250000001
30
0
0
VERTEX
8
0
10
23.394740625
20
8.439375
30
0
0
VERTEX
8
0
10
23.412890625000003
20
8.474996875
30
0
0
VERTEX
8
0
10
23.425246875000003
20
8.513021875
30
0
0
VERTEX
8
0
10
23.4315
20
8.552509375
30
0
0
VERTEX
8
0
10
23.4315
20
18.434990625
30
0
0
VERTEX
8
0
10
23.425246875000003
20
18.474478125
30
0
0
VERTEX
8
0
10
23.412890625000003
20
18.512503125000002
30
0
0
VERTEX
8
0
10
23.394740625
20
18.548125000000002
30
0
0
VERTEX
8
0
10
23.371240625000002
20
18.58046875
30
0
0
VERTEX
8
0
10
23.34296875
20
18.608740625
30
0
0
VERTEX
8
0
10
23.310625
20
18.632240625
30
0
0
VERTEX
8
0
10
23.275003125
20
18.650390625
30
0
0
VERTEX
8
0
10
23.236978125
20
18.662746875
30
0
0
VERTEX
8
0
10
23.197490625
20
18.669
30
0
0
VERTEX
8
0
10
17.250209375
20
18.669
30
0
0
VERTEX
8
0
10
16.7800625
20
19.139146875
30
0
0
VERTEX
8
0
10
16.801875000000003
20
19.150259375
30
0
0
VERTEX
8
0
10
16.83421875
20
19.173759375
30
0
0
VERTEX
8
0
10
18.837709375
20
21.17725
30
0
0
VERTEX
8
0
10
21.768740625
20
21.17725
30
0
0
VERTEX
8
0
10
21.808228125
20
21.183503125
30
0
0
VERTEX
8
0
10
21.846253125
20
21.195859375
30
0
0
VERTEX
8
0
10
21.881875
20
21.214009375
30
0
0
VERTEX
8
0
10
21.91421875
20
21.237509375000002
30
0
0
VERTEX
8
0
10
21.942490625
20
21.26578125
30
0
0
VERTEX
8
0
10
21.965990625
20
21.298125000000002
30
0
0
VERTEX
8
0
10
21.984140625000002
20
21.333746875000003
30
0
0
VERTEX
8
0
10
21.996496875000002
20
21.371771875
30
0
0
VERTEX
8
0
10
22.002750000000002
20
21.411259375
30
0
0
VERTEX
8
0
10
22.002750000000002
20
23.991240625
30
0
0
VERTEX
8
0
10
21.996496875000002
20
24.030728125
30
0
0
VERTEX
8
0
10
21.984140625000002
20
24.068753125
30
0
0
VERTEX
8
0
10
21.965990625
20
24.104375
30
0
0
VERTEX
8
0
10
21.942490625
20
24.13671875
30
0
0
VERTEX
8
0
10
21.844
20
24.235209375
30
0
0
VERTEX
8
0
10
21.844
20
27.94
30
0
0
VERTEX
8
0
10
22.225
20
27.94
30
0
0
VERTEX
8
0
10
22.225
20
30.48
30
0
0
VERTEX
8
0
10
20.955000000000002
20
30.48
30
0
0
VERTEX
8
0
10
20.955000000000002
20
27.94
30
0
0
VERTEX
8
0
10
21.336000000000002
20
27.94
30
0
0
VERTEX
8
0
10
21.336000000000002
20
24.110009375
30
0
0
VERTEX
8
0
10
21.342253125000003
20
24.070521875
30
0
0
VERTEX
8
0
10
21.354609375000003
20
24.032496875
30
0
0
VERTEX
8
0
10
21.372759375
20
23.996875000000003
30
0
0
VERTEX
8
0
10
21.396259375
20
23.96453125
30
0
0
VERTEX
8
0
10
21.49475
20
23.866040625
30
0
0
VERTEX
8
0
10
21.49475
20
21.68525
30
0
0
VERTEX
8
0
10
18.712509375
20
21.68525
30
0
0
VERTEX
8
0
10
18.673021875
20
21.678996875
30
0
0
VERTEX
8
0
10
18.634996875000002
20
21.666640625
30
0
0
VERTEX
8
0
10
18.599375000000002
20
21.648490625
30
0
0
VERTEX
8
0
10
18.56703125
20
21.624990625000002
30
0
0
VERTEX
8
0
10
16.621125
20
19.679084375000002
30
0
0
VERTEX
8
0
10
16.621125
20
20.574
30
0
0
VERTEX
8
0
10
14.716125
20
20.574
30
0
0
VERTEX
8
0
10
14.716125
20
19.304000000000002
30
0
0
VERTEX
8
0
10
15.896790625000001
20
19.304000000000002
30
0
0
VERTEX
8
0
10
16.97953125
20
18.221259375000002
30
0
0
VERTEX
8
0
10
17.011875
20
18.197759375
30
0
0
VERTEX
8
0
10
17.047496875
20
18.179609375000002
30
0
0
VERTEX
8
0
10
17.085521875
20
18.167253125000002
30
0
0
VERTEX
8
0
10
17.125009375
20
18.161
30
0
0
VERTEX
8
0
10
22.9235
20
18.161
30
0
0
VERTEX
8
0
10
22.9235
20
8.677709375000001
30
0
0
VERTEX
8
0
10
22.754790625000002
20
8.509
30
0
0
VERTEX
8
0
10
21.179859375
20
8.509
30
0
0
VERTEX
8
0
10
21.170015625
20
8.52605
30
0
0
VERTEX
8
0
10
21.15605
20
8.540015625
30
0
0
VERTEX
8
0
10
21.13895
20
8.5498875
30
0
0
VERTEX
8
0
10
21.119875
20
8.555
30
0
0
VERTEX
8
0
10
19.350125000000002
20
8.555
30
0
0
VERTEX
8
0
10
19.33105
20
8.5498875
30
0
0
VERTEX
8
0
10
19.313950000000002
20
8.540015625
30
0
0
VERTEX
8
0
10
19.299984375
20
8.52605
30
0
0
VERTEX
8
0
10
19.2901125
20
8.50895
30
0
0
VERTEX
8
0
10
19.285
20
8.489875
30
0
0
VERTEX
8
0
10
19.285
20
8.020125
30
0
0
VERTEX
8
0
10
19.2901125
20
8.001050000000001
30
0
0
VERTEX
8
0
10
19.299984375
20
7.98395
30
0
0
VERTEX
8
0
10
19.313950000000002
20
7.969984375
30
0
0
VERTEX
8
0
10
19.33105
20
7.9601125
30
0
0
VERTEX
8
0
10
19.350125000000002
20
7.955
30
0
0
VERTEX
8
0
10
21.119875
20
7.955
30
0
0
VERTEX
8
0
10
21.13895
20
7.9601125
30
0
0
VERTEX
8
0
10
21.15605
20
7.969984375
30
0
0
VERTEX
8
0
10
21.170015625
20
7.98395
30
0
0
VERTEX
8
0
10
21.179859375
20
8.001000000000001
30
0
0
VERTEX
8
0
10
22.879990625
20
8.001000000000001
30
0
0
VERTEX
8
0
10
22.919478125
20
8.007253125
30
0
0
SEQEND
0
POLYLINE
66
1
8
1_copper
10
0.0
20
0.0
30
0.0
70
1
0
VERTEX
8
0
10
5.121709375
20
19.685000000000002
30
0
0
VERTEX
8
0
10
5.715
20
19.685000000000002
30
0
0
VERTEX
8
0
10
5.715
20
20.955000000000002
30
0
0
VERTEX
8
0
10
4.064
20
20.955000000000002
30
0
0
VERTEX
8
0
10
4.064
20
25.146
30
0
0
VERTEX
8
0
10
16.529990625
20
25.146
30
0
0
VERTEX
8
0
10
16.569478125
20
25.152253125
30
0
0
VERTEX
8
0
10
16.607503125
20
25.164609375
30
0
0
VERTEX
8
0
10
16.643125
20
25.182759375
30
0
0
VERTEX
8
0
10
16.67546875
20
25.206259375000002
30
0
0
VERTEX
8
0
10
16.703740625000002
20
25.23453125
30
0
0
VERTEX
8
0
10
16.727240625
20
25.266875000000002
30
0
0
VERTEX
8
0
10
16.745390625000002
20
25.302496875000003
30
0
0
VERTEX
8
0
10
16.757746875000002
20
25.340521875
30
0
0
VERTEX
8
0
10
16.764
20
25.380009375
30
0
0
VERTEX
8
0
10
16.764
20
27.94
30
0
0
VERTEX
8
0
10
17.145
20
27.94
30
0
0
VERTEX
8
0
10
17.145
20
30.48
30
0
0
VERTEX
8
0
10
16.764
20
30.48
30
0
0
VERTEX
8
0
10
16.764
20
32.289750000000005
30
0
0
VERTEX
8
0
10
38.1635
20
32.289750000000005
30
0
0
VERTEX
8
0
10
38.1635
20
21.955125000000002
30
0
0
VERTEX
8
0
10
30.903334375
20
16.51
30
0
0
VERTEX
8
0
10
30.861
20
16.51
30
0
0
VERTEX
8
0
10
30.861
20
17.018
30
0
0
VERTEX
8
0
10
28.575000000000003
20
17.018
30
0
0
VERTEX
8
0
10
28.575000000000003
20
15.494000000000002
30
0
0
VERTEX
8
0
10
30.861
20
15.494000000000002
30
0
0
VERTEX
8
0
10
30.861
20
16.002000000000002
30
0
0
VERTEX
8
0
10
30.969943750000002
20
16.002000000000002
30
0
0
VERTEX
8
0
10
30.971868750000002
20
16.001725
30
0
0
VERTEX
8
0
10
30.990003125
20
16.002000000000002
30
0
0
VERTEX
8
0
10
31.007990625
20
16.002000000000002
30
0
0
VERTEX
8
0
10
31.009896875000003
20
16.002303125
30
0
0
VERTEX
8
0
10
31.01184375
20
16.00233125
30
0
0
VERTEX
8
0
10
31.029700000000002
20
16.0054375
30
0
0
VERTEX
8
0
10
31.047478125
20
16.008253125
30
0
0
VERTEX
8
0
10
31.04931875
20
16.008850000000002
30
0
0
VERTEX
8
0
10
31.051234375
20
16.009184375
30
0
0
VERTEX
8
0
10
31.068393750000002
20
16.015050000000002
30
0
0
VERTEX
8
0
10
31.085503125000002
20
16.020609375
30
0
0
VERTEX
8
0
10
31.087225
20
16.0214875
30
0
0
VERTEX
8
0
10
31.089065625
20
16.022115625
30
0
0
VERTEX
8
0
10
31.105065625
20
16.030578125
30
0
0
VERTEX
8
0
10
31.121125000000003
20
16.038759375
30
0
0
VERTEX
8
0
10
31.12269375
20
16.0399
30
0
0
VERTEX
8
0
10
31.124409375000003
20
16.04080625
30
0
0
VERTEX
8
0
10
31.138896875
20
16.051671875
30
0
0
VERTEX
8
0
10
31.153468750000002
20
16.062259375
30
0
0
VERTEX
8
0
10
31.154834375
20
16.063625000000002
30
0
0
VERTEX
8
0
10
38.56833125
20
21.62375
30
0
0
VERTEX
8
0
10
38.58296875
20
21.634384375
30
0
0
VERTEX
8
0
10
38.584340625
20
21.63575625
30
0
0
VERTEX
8
0
10
38.585890625000005
20
21.63691875
30
0
0
VERTEX
8
0
10
38.598490625000004
20
21.64990625
30
0
0
VERTEX
8
0
10
38.611240625
20
21.66265625
30
0
0
VERTEX
8
0
10
38.612375
20
21.66421875
30
0
0
VERTEX
8
0
10
38.61373125
20
21.665615625
30
0
0
VERTEX
8
0
10
38.62416875
20
21.68045
30
0
0
VERTEX
8
0
10
38.634740625
20
21.695
30
0
0
VERTEX
8
0
10
38.635615625
20
21.696718750000002
30
0
0
VERTEX
8
0
10
38.6367375
20
21.6983125
30
0
0
VERTEX
8
0
10
38.644712500000004
20
21.714575
30
0
0
VERTEX
8
0
10
38.652890625000005
20
21.730621875
30
0
0
VERTEX
8
0
10
38.653490625
20
21.732465625
30
0
0
VERTEX
8
0
10
38.65434375
20
21.73420625
30
0
0
VERTEX
8
0
10
38.659640625
20
21.751390625000003
30
0
0
VERTEX
8
0
10
38.665246875
20
21.768646875
30
0
0
VERTEX
8
0
10
38.665553125
20
21.770578125
30
0
0
VERTEX
8
0
10
38.66611875
20
21.772415625
30
0
0
VERTEX
8
0
10
38.668665625
20
21.790228125000002
30
0
0
VERTEX
8
0
10
38.6715
20
21.808134375
30
0
0
VERTEX
8
0
10
38.6715
20
21.810068750000003
30
0
0
VERTEX
8
0
10
38.671775000000004
20
21.811993750000003
30
0
0
VERTEX
8
0
10
38.6715
20
21.830128125
30
0
0
VERTEX
8
0
10
38.6715
20
32.563740625
30
0
0
VERTEX
8
0
10
38.665246875
20
32.603228125
30
0
0
VERTEX
8
0
10
38.652890625000005
20
32.641253125
30
0
0
VERTEX
8
0
10
38.634740625
20
32.676875
30
0
0
VERTEX
8
0
10
38.611240625
20
32.709218750000005
30
0
0
VERTEX
8
0
10
38.58296875
20
32.737490625
30
0
0
VERTEX
8
0
10
38.550625000000004
20
32.760990625
30
0
0
VERTEX
8
0
10
38.515003125
20
32.779140625000004
30
0
0
VERTEX
8
0
10
38.476978125
20
32.791496875
30
0
0
VERTEX
8
0
10
38.437490625
20
32.79775
30
0
0
VERTEX
8
0
10
16.490009375
20
32.79775
30
0
0
VERTEX
8
0
10
16.450521875
20
32.791496875
30
0
0
VERTEX
8
0
10
16.412496875000002
20
32.779140625000004
30
0
0
VERTEX
8
0
10
16.376875000000002
20
32.760990625
30
0
0
VERTEX
8
0
10
16.34453125
20
32.737490625
30
0
0
VERTEX
8
0
10
16.316259375
20
32.709218750000005
30
0
0
VERTEX
8
0
10
16.292759375
20
32.676875
30
0
0
VERTEX
8
0
10
16.274609375
20
32.641253125
30
0
0
VERTEX
8
0
10
16.262253125
20
32.603228125
30
0
0
VERTEX
8
0
10
16.256
20
32.563740625
30
0
0
VERTEX
8
0
10
16.256
20
30.48
30
0
0
VERTEX
8
0
10
15.875
20
30.48
30
0
0
VERTEX
8
0
10
15.875
20
27.94
30
0
0
VERTEX
8
0
10
16.256
20
27.94
30
0
0
VERTEX
8
0
10
16.256
20
25.654
30
0
0
VERTEX
8
0
10
3.7900093750000003
20
25.654
30
0
0
VERTEX
8
0
10
3.750521875
20
25.647746875000003
30
0
0
VERTEX
8
0
10
3.7124968750000003
20
25.635390625000003
30
0
0
VERTEX
8
0
10
3.6768750000000003
20
25.617240625
30
0
0
VERTEX
8
0
10
3.64453125
20
25.593740625000002
30
0
0
VERTEX
8
0
10
3.6162593750000003
20
25.56546875
30
0
0
VERTEX
8
0
10
3.592759375
20
25.533125000000002
30
0
0
VERTEX
8
0
10
3.574609375
20
25.497503125
30
0
0
VERTEX
8
0
10
3.5622531250000002
20
25.459478125
30
0
0
VERTEX
8
0
10
3.556
20
25.419990625
30
0
0
VERTEX
8
0
10
3.556
20
20.955000000000002
30
0
0
VERTEX
8
0
10
2.285
20
20.955000000000002
30
0
0
VERTEX
8
0
10
2.285
20
19.685000000000002
30
0
0
VERTEX
8
0
10
4.403290625
20
19.685000000000002
30
0
0
VERTEX
8
0
10
8.88328125
20
15.205009375000001
30
0
0
VERTEX
8
0
10
8.915625
20
15.181509375000001
30
0
0
VERTEX
8
0
10
8.951246875
20
15.163359375
30
0
0
VERTEX
8
0
10
8.989271875
20
15.151003125
30
0
0
VERTEX
8
0
10
9.028759375
20
15.14475
30
0
0
VERTEX
8
0
10
15.071000000000002
20
15.14475
30
0
0
VERTEX
8
0
10
15.071000000000002
20
11.095
30
0
0
VERTEX
8
0
10
14.440125
20
11.095
30
0
0
VERTEX
8
0
10
14.421050000000001
20
11.0898875
30
0
0
VERTEX
8
0
10
14.40395
20
11.080015625
30
0
0
VERTEX
8
0
10
14.389984375000001
20
11.06605
30
0
0
VERTEX
8
0
10
14.380112500000001
20
11.048950000000001
30
0
0
VERTEX
8
0
10
14.375
20
11.029875
30
0
0
VERTEX
8
0
10
14.375
20
10.560125000000001
30
0
0
VERTEX
8
0
10
14.380112500000001
20
10.54105
30
0
0
VERTEX
8
0
10
14.389984375000001
20
10.523950000000001
30
0
0
VERTEX
8
0
10
14.40395
20
10.509984375
30
0
0
VERTEX
8
0
10
14.421050000000001
20
10.5001125
30
0
0
VERTEX
8
0
10
14.440125
20
10.495000000000001
30
0
0
VERTEX
8
0
10
16.209875
20
10.495000000000001
30
0
0
VERTEX
8
0
10
16.22895
20
10.5001125
30
0
0
VERTEX
8
0
10
16.24605
20
10.509984375
30
0
0
VERTEX
8
0
10
16.260015625
20
10.523950000000001
30
0
0
VERTEX
8
0
10
16.2698875
20
10.54105
30
0
0
VERTEX
8
0
10
16.275000000000002
20
10.560125000000001
30
0
0
VERTEX
8
0
10
16.275000000000002
20
11.029875
30
0
0
VERTEX
8
0
10
16.2698875
20
11.048950000000001
30
0
0
VERTEX
8
0
10
16.260015625
20
11.06605
30
0
0
VERTEX
8
0
10
16.24605
20
11.080015625
30
0
0
VERTEX
8
0
10
16.22895
20
11.0898875
30
0
0
VERTEX
8
0
10
16.209875
20
11.095
30
0
0
VERTEX
8
0
10
15.579
20
11.095
30
0
0
VERTEX
8
0
10
15.579
20
14.287500000000001
30
0
0
VERTEX
8
0
10
16.764
20
14.287500000000001
30
0
0
VERTEX
8
0
10
16.764
20
16.1925
30
0
0
VERTEX
8
0
10
15.494000000000002
20
16.1925
30
0
0
VERTEX
8
0
10
15.494000000000002
20
15.652750000000001
30
0
0
VERTEX
8
0
10
9.153959375000001
20
15.652750000000001
30
0
0
SEQEND
0
POLYLINE
66
1
8
1_copper
10
0.0
20
0.0
30
0.0
70
1
0
VERTEX
8
0
10
33.902746875
20
13.394478125000001
30
0
0
VERTEX
8
0
10
33.890390625
20
13.432503125
30
0
0
VERTEX
8
0
10
33.872240625
20
13.468125
30
0
0
VERTEX
8
0
10
33.848740625000005
20
13.500468750000001
30
0
0
VERTEX
8
0
10
33.82046875
20
13.528740625000001
30
0
0
VERTEX
8
0
10
33.788125
20
13.552240625000001
30
0
0
VERTEX
8
0
10
33.752503125000004
20
13.570390625
30
0
0
VERTEX
8
0
10
33.714478125
20
13.582746875
30
0
0
VERTEX
8
0
10
33.674990625
20
13.589
30
0
0
VERTEX
8
0
10
28.03525
20
13.589
30
0
0
VERTEX
8
0
10
28.03525
20
17.357290625
30
0
0
VERTEX
8
0
10
34.0641
20
23.386140625
30
0
0
VERTEX
8
0
10
34.0641
20
23.368000000000002
30
0
0
VERTEX
8
0
10
35.0259
20
23.368000000000002
30
0
0
VERTEX
8
0
10
35.0259
20
25.079800000000002
30
0
0
VERTEX
8
0
10
34.0641
20
25.079800000000002
30
0
0
VERTEX
8
0
10
34.0641
20
24.104559375
30
0
0
VERTEX
8
0
10
27.587509375
20
17.62796875
30
0
0
VERTEX
8
0
10
27.564009375
20
17.595625000000002
30
0
0
VERTEX
8
0
10
27.545859375000003
20
17.560003125
30
0
0
VERTEX
8
0
10
27.533503125000003
20
17.521978125
30
0
0
VERTEX
8
0
10
27.527250000000002
20
17.482490625
30
0
0
VERTEX
8
0
10
27.527250000000002
20
13.315009375
30
0
0
VERTEX
8
0
10
27.533503125000003
20
13.275521875
30
0
0
VERTEX
8
0
10
27.545859375000003
20
13.237496875000001
30
0
0
VERTEX
8
0
10
27.564009375
20
13.201875000000001
30
0
0
VERTEX
8
0
10
27.587509375
20
13.16953125
30
0
0
VERTEX
8
0
10
27.61578125
20
13.141259375
30
0
0
VERTEX
8
0
10
27.648125
20
13.117759375
30
0
0
VERTEX
8
0
10
27.683746875
20
13.099609375
30
0
0
VERTEX
8
0
10
27.721771875
20
13.087253125
30
0
0
VERTEX
8
0
10
27.761259375
20
13.081000000000001
30
0
0
VERTEX
8
0
10
33.401
20
13.081000000000001
30
0
0
VERTEX
8
0
10
33.401
20
2.31775
30
0
0
VERTEX
8
0
10
29.0989125
20
2.31775
30
0
0
VERTEX
8
0
10
29.0989125
20
4.13723125
30
0
0
VERTEX
8
0
10
29.473246875
20
4.134615625
30
0
0
VERTEX
8
0
10
29.486543750000003
20
6.039565625000001
30
0
0
VERTEX
8
0
10
28.216578125
20
6.048434375
30
0
0
VERTEX
8
0
10
28.208265625000003
20
4.85775
30
0
0
VERTEX
8
0
10
18.669
20
4.85775
30
0
0
VERTEX
8
0
10
18.669
20
10.541
30
0
0
VERTEX
8
0
10
19.290140625
20
10.541
30
0
0
VERTEX
8
0
10
19.299984375
20
10.523950000000001
30
0
0
VERTEX
8
0
10
19.313950000000002
20
10.509984375
30
0
0
VERTEX
8
0
10
19.33105
20
10.5001125
30
0
0
VERTEX
8
0
10
19.350125000000002
20
10.495000000000001
30
0
0
VERTEX
8
0
10
21.119875
20
10.495000000000001
30
0
0
VERTEX
8
0
10
21.13895
20
10.5001125
30
0
0
VERTEX
8
0
10
21.15605
20
10.509984375
30
0
0
VERTEX
8
0
10
21.170015625
20
10.523950000000001
30
0
0
VERTEX
8
0
10
21.1798875
20
10.54105
30
0
0
VERTEX
8
0
10
21.185000000000002
20
10.560125000000001
30
0
0
VERTEX
8
0
10
21.185000000000002
20
11.029875
30
0
0
VERTEX
8
0
10
21.1798875
20
11.048950000000001
30
0
0
VERTEX
8
0
10
21.170015625
20
11.06605
30
0
0
VERTEX
8
0
10
21.15605
20
11.080015625
30
0
0
VERTEX
8
0
10
21.13895
20
11.0898875
30
0
0
VERTEX
8
0
10
21.119875
20
11.095
30
0
0
VERTEX
8
0
10
20.489
20
11.095
30
0
0
VERTEX
8
0
10
20.489
20
15.259990625
30
0
0
VERTEX
8
0
10
20.482746875
20
15.299478125
30
0
0
VERTEX
8
0
10
20.470390625
20
15.337503125000001
30
0
0
VERTEX
8
0
10
20.452240625
20
15.373125
30
0
0
VERTEX
8
0
10
20.428740625
20
15.40546875
30
0
0
VERTEX
8
0
10
20.40046875
20
15.433740625
30
0
0
VERTEX
8
0
10
20.368125000000003
20
15.457240625
30
0
0
VERTEX
8
0
10
20.332503125000002
20
15.475390625000001
30
0
0
VERTEX
8
0
10
20.294478125
20
15.487746875000001
30
0
0
VERTEX
8
0
10
20.254990625
20
15.494000000000002
30
0
0
VERTEX
8
0
10
20.066000000000003
20
15.494000000000002
30
0
0
VERTEX
8
0
10
20.066000000000003
20
16.1925
30
0
0
VERTEX
8
0
10
18.796
20
16.1925
30
0
0
VERTEX
8
0
10
18.796
20
14.287500000000001
30
0
0
VERTEX
8
0
10
19.981
20
14.287500000000001
30
0
0
VERTEX
8
0
10
19.981
20
11.095
30
0
0
VERTEX
8
0
10
19.350125000000002
20
11.095
30
0
0
VERTEX
8
0
10
19.33105
20
11.0898875
30
0
0
VERTEX
8
0
10
19.313950000000002
20
11.080015625
30
0
0
VERTEX
8
0
10
19.299984375
20
11.06605
30
0
0
VERTEX
8
0
10
19.290140625
20
11.049000000000001
30
0
0
VERTEX
8
0
10
18.395009375
20
11.049000000000001
30
0
0
VERTEX
8
0
10
18.355521875
20
11.042746875
30
0
0
VERTEX
8
0
10
18.317496875
20
11.030390625
30
0
0
VERTEX
8
0
10
18.281875
20
11.012240625
30
0
0
VERTEX
8
0
10
18.24953125
20
10.988740625
30
0
0
VERTEX
8
0
10
18.221259375000002
20
10.96046875
30
0
0
VERTEX
8
0
10
18.197759375
20
10.928125
30
0
0
VERTEX
8
0
10
18.179609375000002
20
10.892503125000001
30
0
0
VERTEX
8
0
10
18.167253125000002
20
10.854478125
30
0
0
VERTEX
8
0
10
18.161
20
10.814990625
30
0
0
VERTEX
8
0
10
18.161
20
4.85775
30
0
0
VERTEX
8
0
10
4.2540000000000004
20
4.85775
30
0
0
VERTEX
8
0
10
4.2540000000000004
20
9.525
30
0
0
VERTEX
8
0
10
5.715
20
9.525
30
0
0
VERTEX
8
0
10
5.715
20
10.795
30
0
0
VERTEX
8
0
10
2.285
20
10.795
30
0
0
VERTEX
8
0
10
2.285
20
10.414
30
0
0
VERTEX
8
0
10
-2.44475
20
10.414
30
0
0
VERTEX
8
0
10
-2.44475
20
29.11475
30
0
0
VERTEX
8
0
10
10.795
20
29.11475
30
0
0
VERTEX
8
0
10
10.795
20
27.94
30
0
0
VERTEX
8
0
10
12.065000000000001
20
27.94
30
0
0
VERTEX
8
0
10
12.065000000000001
20
30.48
30
0
0
VERTEX
8
0
10
10.795
20
30.48
30
0
0
VERTEX
8
0
10
10.795
20
29.62275
30
0
0
VERTEX
8
0
10
-2.718740625
20
29.62275
30
0
0
VERTEX
8
0
10
-2.758228125
20
29.616496875000003
30
0
0
VERTEX
8
0
10
-2.7962531250000002
20
29.604140625000003
30
0
0
VERTEX
8
0
10
-2.831875
20
29.585990625
30
0
0
VERTEX
8
0
10
-2.86421875
20
29.562490625000002
30
0
0
VERTEX
8
0
10
-2.892490625
20
29.53421875
30
0
0
VERTEX
8
0
10
-2.915990625
20
29.501875000000002
30
0
0
VERTEX
8
0
10
-2.934140625
20
29.466253125
30
0
0
VERTEX
8
0
10
-2.9464968750000002
20
29.428228125
30
0
0
VERTEX
8
0
10
-2.95275
20
29.388740625
30
0
0
VERTEX
8
0
10
-2.95275
20
10.140009375
30
0
0
VERTEX
8
0
10
-2.9464968750000002
20
10.100521875
30
0
0
VERTEX
8
0
10
-2.934140625
20
10.062496875
30
0
0
VERTEX
8
0
10
-2.915990625
20
10.026875
30
0
0
VERTEX
8
0
10
-2.892490625
20
9.99453125
30
0
0
VERTEX
8
0
10
-2.86421875
20
9.966259375
30
0
0
VERTEX
8
0
10
-2.831875
20
9.942759375
30
0
0
VERTEX
8
0
10
-2.7962531250000002
20
9.924609375000001
30
0
0
VERTEX
8
0
10
-2.758228125
20
9.912253125000001
30
0
0
VERTEX
8
0
10
-2.718740625
20
9.906
30
0
0
VERTEX
8
0
10
2.285
20
9.906
30
0
0
VERTEX
8
0
10
2.285
20
9.525
30
0
0
VERTEX
8
0
10
3.746
20
9.525
30
0
0
VERTEX
8
0
10
3.746
20
4.5837593750000005
30
0
0
VERTEX
8
0
10
3.752253125
20
4.544271875000001
30
0
0
VERTEX
8
0
10
3.764609375
20
4.506246875
30
0
0
VERTEX
8
0
10
3.7827593750000004
20
4.470625
30
0
0
VERTEX
8
0
10
3.8062593750000002
20
4.43828125
30
0
0
VERTEX
8
0
10
3.8345312500000004
20
4.4100093750000005
30
0
0
VERTEX
8
0
10
3.8668750000000003
20
4.386509375
30
0
0
VERTEX
8
0
10
3.902496875
20
4.368359375
30
0
0
VERTEX
8
0
10
3.9405218750000004
20
4.356003125
30
0
0
VERTEX
8
0
10
3.9800093750000003
20
4.34975
30
0
0
VERTEX
8
0
10
28.204721875
20
4.34975
30
0
0
VERTEX
8
0
10
28.20328125
20
4.143484375
30
0
0
VERTEX
8
0
10
28.5909125
20
4.140778125000001
30
0
0
VERTEX
8
0
10
28.5909125
20
2.043759375
30
0
0
VERTEX
8
0
10
28.597165625000002
20
2.004271875
30
0
0
VERTEX
8
0
10
28.609521875000002
20
1.9662468750000002
30
0
0
VERTEX
8
0
10
28.627671875
20
1.930625
30
0
0
VERTEX
8
0
10
28.651171875000003
20
1.8982812500000001
30
0
0
VERTEX
8
0
10
28.67944375
20
1.8700093750000002
30
0
0
VERTEX
8
0
10
28.7117875
20
1.8465093750000001
30
0
0
VERTEX
8
0
10
28.747409375
20
1.828359375
30
0
0
VERTEX
8
0
10
28.785434375
20
1.8160031250000002
30
0
0
VERTEX
8
0
10
28.824921875
20
1.8097500000000002
30
0
0
VERTEX
8
0
10
33.674990625
20
1.8097500000000002
30
0
0
VERTEX
8
0
10
33.714478125
20
1.8160031250000002
30
0
0
VERTEX
8
0
10
33.752503125000004
20
1.828359375
30
0
0
VERTEX
8
0
10
33.788125
20
1.8465093750000001
30
0
0
VERTEX
8
0
10
33.82046875
20
1.8700093750000002
30
0
0
VERTEX
8
0
10
33.848740625000005
20
1.8982812500000001
30
0
0
VERTEX
8
0
10
33.872240625
20
1.930625
30
0
0
VERTEX
8
0
10
33.890390625
20
1.9662468750000002
30
0
0
VERTEX
8
0
10
33.902746875
20
2.004271875
30
0
0
VERTEX
8
0
10
33.909
20
2.043759375
30
0
0
VERTEX
8
0
10
33.909
20
13.354990625000001
30
0
0
SEQEND
0
POLYLINE
66
1
8
1_copper
10
0.0
20
0.0
30
0.0
70
1
0
VERTEX
8
0
10
22.163753125
20
9.289609375000001
30
0
0
VERTEX
8
0
10
22.199375
20
9.307759375
30
0
0
VERTEX
8
0
10
22.231718750000002
20
9.331259375
30
0
0
VERTEX
8
0
10
22.259990625
20
9.35953125
30
0
0
VERTEX
8
0
10
22.283490625000002
20
9.391875
30
0
0
VERTEX
8
0
10
22.301640625
20
9.427496875000001
30
0
0
VERTEX
8
0
10
22.313996875
20
9.465521875
30
0
0
VERTEX
8
0
10
22.32025
20
9.505009375
30
0
0
VERTEX
8
0
10
22.32025
20
17.323740625
30
0
0
VERTEX
8
0
10
22.313996875
20
17.363228125
30
0
0
VERTEX
8
0
10
22.301640625
20
17.401253125
30
0
0
VERTEX
8
0
10
22.283490625000002
20
17.436875
30
0
0
VERTEX
8
0
10
22.259990625
20
17.46921875
30
0
0
VERTEX
8
0
10
22.231718750000002
20
17.497490625
30
0
0
VERTEX
8
0
10
22.199375
20
17.520990625
30
0
0
VERTEX
8
0
10
22.163753125
20
17.539140625
30
0
0
VERTEX
8
0
10
22.125728125000002
20
17.551496875
30
0
0
VERTEX
8
0
10
22.086240625000002
20
17.557750000000002
30
0
0
VERTEX
8
0
10
15.662709375
20
17.557750000000002
30
0
0
VERTEX
8
0
10
14.06525
20
19.155209375000002
30
0
0
VERTEX
8
0
10
14.06525
20
21.49475
30
0
0
VERTEX
8
0
10
17.482490625
20
21.49475
30
0
0
VERTEX
8
0
10
17.521978125
20
21.501003125
30
0
0
VERTEX
8
0
10
17.560003125
20
21.513359375
30
0
0
VERTEX
8
0
10
17.595625000000002
20
21.531509375000002
30
0
0
VERTEX
8
0
10
17.62796875
20
21.555009375
30
0
0
VERTEX
8
0
10
18.95475
20
22.881790625
30
0
0
VERTEX
8
0
10
18.95475
20
22.606
30
0
0
VERTEX
8
0
10
20.859750000000002
20
22.606
30
0
0
VERTEX
8
0
10
20.859750000000002
20
23.876
30
0
0
VERTEX
8
0
10
18.95475
20
23.876
30
0
0
VERTEX
8
0
10
18.95475
20
23.4315
30
0
0
VERTEX
8
0
10
18.871259375
20
23.4315
30
0
0
VERTEX
8
0
10
18.831771875
20
23.425246875000003
30
0
0
VERTEX
8
0
10
18.793746875
20
23.412890625000003
30
0
0
VERTEX
8
0
10
18.758125
20
23.394740625
30
0
0
VERTEX
8
0
10
18.72578125
20
23.371240625000002
30
0
0
VERTEX
8
0
10
17.357290625
20
22.002750000000002
30
0
0
VERTEX
8
0
10
13.791259375000001
20
22.002750000000002
30
0
0
VERTEX
8
0
10
13.751771875000001
20
21.996496875000002
30
0
0
VERTEX
8
0
10
13.713746875
20
21.984140625000002
30
0
0
VERTEX
8
0
10
13.678125000000001
20
21.965990625
30
0
0
VERTEX
8
0
10
13.64578125
20
21.942490625
30
0
0
VERTEX
8
0
10
13.617509375000001
20
21.91421875
30
0
0
VERTEX
8
0
10
13.594009375
20
21.881875
30
0
0
VERTEX
8
0
10
13.575859375
20
21.846253125
30
0
0
VERTEX
8
0
10
13.563503125
20
21.808228125
30
0
0
VERTEX
8
0
10
13.55725
20
21.768740625
30
0
0
VERTEX
8
0
10
13.55725
20
19.030009375000002
30
0
0
VERTEX
8
0
10
13.563503125
20
18.990521875000002
30
0
0
VERTEX
8
0
10
13.575859375
20
18.952496875
30
0
0
VERTEX
8
0
10
13.594009375
20
18.916875
30
0
0
VERTEX
8
0
10
13.617509375000001
20
18.884531250000002
30
0
0
VERTEX
8
0
10
15.39203125
20
17.110009375
30
0
0
VERTEX
8
0
10
15.424375000000001
20
17.086509375000002
30
0
0
VERTEX
8
0
10
15.459996875
20
17.068359375
30
0
0
VERTEX
8
0
10
15.498021875000001
20
17.056003125
30
0
0
VERTEX
8
0
10
15.537509375
20
17.04975
30
0
0
VERTEX
8
0
10
21.812250000000002
20
17.04975
30
0
0
VERTEX
8
0
10
21.812250000000002
20
9.779
30
0
0
VERTEX
8
0
10
21.179859375
20
9.779
30
0
0
VERTEX
8
0
10
21.170015625
20
9.796050000000001
30
0
0
VERTEX
8
0
10
21.15605
20
9.810015625
30
0
0
VERTEX
8
0
10
21.13895
20
9.8198875
30
0
0
VERTEX
8
0
10
21.119875
20
9.825000000000001
30
0
0
VERTEX
8
0
10
19.350125000000002
20
9.825000000000001
30
0
0
VERTEX
8
0
10
19.33105
20
9.8198875
30
0
0
VERTEX
8
0
10
19.313950000000002
20
9.810015625
30
0
0
VERTEX
8
0
10
19.299984375
20
9.796050000000001
30
0
0
VERTEX
8
0
10
19.2901125
20
9.77895
30
0
0
VERTEX
8
0
10
19.285
20
9.759875000000001
30
0
0
VERTEX
8
0
10
19.285
20
9.290125
30
0
0
VERTEX
8
0
10
19.2901125
20
9.27105
30
0
0
VERTEX
8
0
10
19.299984375
20
9.25395
30
0
0
VERTEX
8
0
10
19.313950000000002
20
9.239984375
30
0
0
VERTEX
8
0
10
19.33105
20
9.2301125
30
0
0
VERTEX
8
0
10
19.350125000000002
20
9.225
30
0
0
VERTEX
8
0
10
21.119875
20
9.225
30
0
0
VERTEX
8
0
10
21.13895
20
9.2301125
30
0
0
VERTEX
8
0
10
21.15605
20
9.239984375
30
0
0
VERTEX
8
0
10
21.170015625
20
9.25395
30
0
0
VERTEX
8
0
10
21.179859375
20
9.271
30
0
0
VERTEX
8
0
10
22.086240625000002
20
9.271
30
0
0
VERTEX
8
0
10
22.125728125000002
20
9.277253125
30
0
0
SEQEND
0
POLYLINE
66
1
8
1_copper
10
0.0
20
0.0
30
0.0
70
1
0
VERTEX
8
0
10
32.39458125
20
7.60014375
30
0
0
VERTEX
8
0
10
32.382225
20
7.63816875
30
0
0
VERTEX
8
0
10
32.364075
20
7.6737906250000005
30
0
0
VERTEX
8
0
10
32.340575
20
7.706134375
30
0
0
VERTEX
8
0
10
29.251709375
20
10.795
30
0
0
VERTEX
8
0
10
29.378709375
20
10.922
30
0
0
VERTEX
8
0
10
30.861
20
10.922
30
0
0
VERTEX
8
0
10
30.861
20
12.446
30
0
0
VERTEX
8
0
10
28.575000000000003
20
12.446
30
0
0
VERTEX
8
0
10
28.575000000000003
20
10.922
30
0
0
VERTEX
8
0
10
28.660290625000002
20
10.922
30
0
0
VERTEX
8
0
10
24.977290625000002
20
7.239000000000001
30
0
0
VERTEX
8
0
10
21.179859375
20
7.239000000000001
30
0
0
VERTEX
8
0
10
21.170015625
20
7.25605
30
0
0
VERTEX
8
0
10
21.15605
20
7.270015625
30
0
0
VERTEX
8
0
10
21.13895
20
7.2798875
30
0
0
VERTEX
8
0
10
21.119875
20
7.285
30
0
0
VERTEX
8
0
10
19.350125000000002
20
7.285
30
0
0
VERTEX
8
0
10
19.33105
20
7.2798875
30
0
0
VERTEX
8
0
10
19.313950000000002
20
7.270015625
30
0
0
VERTEX
8
0
10
19.299984375
20
7.25605
30
0
0
VERTEX
8
0
10
19.2901125
20
7.23895
30
0
0
VERTEX
8
0
10
19.285
20
7.219875
30
0
0
VERTEX
8
0
10
19.285
20
6.750125000000001
30
0
0
VERTEX
8
0
10
19.2901125
20
6.731050000000001
30
0
0
VERTEX
8
0
10
19.299984375
20
6.7139500000000005
30
0
0
VERTEX
8
0
10
19.313950000000002
20
6.6999843750000005
30
0
0
VERTEX
8
0
10
19.33105
20
6.690112500000001
30
0
0
VERTEX
8
0
10
19.350125000000002
20
6.6850000000000005
30
0
0
VERTEX
8
0
10
21.119875
20
6.6850000000000005
30
0
0
VERTEX
8
0
10
21.13895
20
6.690112500000001
30
0
0
VERTEX
8
0
10
21.15605
20
6.6999843750000005
30
0
0
VERTEX
8
0
10
21.170015625
20
6.7139500000000005
30
0
0
VERTEX
8
0
10
21.179859375
20
6.731000000000001
30
0
0
VERTEX
8
0
10
25.102490625
20
6.731000000000001
30
0
0
VERTEX
8
0
10
25.141978125
20
6.7372531250000005
30
0
0
VERTEX
8
0
10
25.180003125000002
20
6.749609375
30
0
0
VERTEX
8
0
10
25.215625000000003
20
6.767759375000001
30
0
0
VERTEX
8
0
10
25.247968750000002
20
6.791259375
30
0
0
VERTEX
8
0
10
28.892500000000002
20
10.435790625000001
30
0
0
VERTEX
8
0
10
31.892834375000003
20
7.4354562500000005
30
0
0
VERTEX
8
0
10
31.892834375000003
20
6.022765625
30
0
0
VERTEX
8
0
10
31.518500000000003
20
6.025381250000001
30
0
0
VERTEX
8
0
10
31.505203125
20
4.12043125
30
0
0
VERTEX
8
0
10
32.77516875
20
4.1115625
30
0
0
VERTEX
8
0
10
32.788465625
20
6.0165125
30
0
0
VERTEX
8
0
10
32.400834375
20
6.01921875
30
0
0
VERTEX
8
0
10
32.400834375
20
7.56065625
30
0
0
SEQEND
0
POLYLINE
66
1
8
1_copper
10
0.0
20
0.0
30
0.0
70
1
0
VERTEX
8
0
10
27.402503125000003
20
19.767109375
30
0
0
VERTEX
8
0
10
27.438125000000003
20
19.785259375000003
30
0
0
VERTEX
8
0
10
27.470468750000002
20
19.808759375
30
0
0
VERTEX
8
0
10
31.029709375000003
20
23.368000000000002
30
0
0
VERTEX
8
0
10
31.975900000000003
20
23.368000000000002
30
0
0
VERTEX
8
0
10
31.975900000000003
20
25.079800000000002
30
0
0
VERTEX
8
0
10
31.014100000000003
20
25.079800000000002
30
0
0
VERTEX
8
0
10
31.014100000000003
20
24.070809375
30
0
0
VERTEX
8
0
10
27.199790625000002
20
20.256500000000003
30
0
0
VERTEX
8
0
10
20.859750000000002
20
20.256500000000003
30
0
0
VERTEX
8
0
10
20.859750000000002
20
20.574
30
0
0
VERTEX
8
0
10
18.95475
20
20.574
30
0
0
VERTEX
8
0
10
18.95475
20
19.304000000000002
30
0
0
VERTEX
8
0
10
20.859750000000002
20
19.304000000000002
30
0
0
VERTEX
8
0
10
20.859750000000002
20
19.7485
30
0
0
VERTEX
8
0
10
27.324990625
20
19.7485
30
0
0
VERTEX
8
0
10
27.364478125
20
19.754753125
30
0
0
SEQEND
0
POLYLINE
66
1
8
1_copper
10
0.0
20
0.0
30
0.0
70
1
0
VERTEX
8
0
10
2.795
20
18.415
30
0
0
VERTEX
8
0
10
-0.635
20
18.415
30
0
0
VERTEX
8
0
10
-0.635
20
17.145
30
0
0
VERTEX
8
0
10
2.795
20
17.145
30
0
0
VERTEX
8
0
10
2.795
20
17.526
30
0
0
VERTEX
8
0
10
4.816040625
20
17.526
30
0
0
VERTEX
8
0
10
13.01078125
20
9.331259375
30
0
0
VERTEX
8
0
10
13.043125
20
9.307759375
30
0
0
VERTEX
8
0
10
13.078746875
20
9.289609375000001
30
0
0
VERTEX
8
0
10
13.116771875000001
20
9.277253125
30
0
0
VERTEX
8
0
10
13.156259375000001
20
9.271
30
0
0
VERTEX
8
0
10
14.380140625000001
20
9.271
30
0
0
VERTEX
8
0
10
14.389984375000001
20
9.25395
30
0
0
VERTEX
8
0
10
14.40395
20
9.239984375
30
0
0
VERTEX
8
0
10
14.421050000000001
20
9.2301125
30
0
0
VERTEX
8
0
10
14.440125
20
9.225
30
0
0
VERTEX
8
0
10
16.209875
20
9.225
30
0
0
VERTEX
8
0
10
16.22895
20
9.2301125
30
0
0
VERTEX
8
0
10
16.24605
20
9.239984375
30
0
0
VERTEX
8
0
10
16.260015625
20
9.25395
30
0
0
VERTEX
8
0
10
16.2698875
20
9.27105
30
0
0
VERTEX
8
0
10
16.275000000000002
20
9.290125
30
0
0
VERTEX
8
0
10
16.275000000000002
20
9.759875000000001
30
0
0
VERTEX
8
0
10
16.2698875
20
9.77895
30
0
0
VERTEX
8
0
10
16.260015625
20
9.796050000000001
30
0
0
VERTEX
8
0
10
16.24605
20
9.810015625
30
0
0
VERTEX
8
0
10
16.22895
20
9.8198875
30
0
0
VERTEX
8
0
10
16.209875
20
9.825000000000001
30
0
0
VERTEX
8
0
10
14.440125
20
9.825000000000001
30
0
0
VERTEX
8
0
10
14.421050000000001
20
9.8198875
30
0
0
VERTEX
8
0
10
14.40395
20
9.810015625
30
0
0
VERTEX
8
0
10
14.389984375000001
20
9.796050000000001
30
0
0
VERTEX
8
0
10
14.380140625000001
20
9.779
30
0
0
VERTEX
8
0
10
13.281459375
20
9.779
30
0
0
VERTEX
8
0
10
5.08671875
20
17.973740625
30
0
0
VERTEX
8
0
10
5.054375
20
17.997240625
30
0
0
VERTEX
8
0
10
5.018753125
20
18.015390625000002
30
0
0
VERTEX
8
0
10
4.980728125000001
20
18.027746875000002
30
0
0
VERTEX
8
0
10
4.941240625
20
18.034000000000002
30
0
0
VERTEX
8
0
10
2.795
20
18.034000000000002
30
0
0
SEQEND
0
POLYLINE
66
1
8
1_copper
10
0.0
20
0.0
30
0.0
70
1
0
VERTEX
8
0
10
14.389984375000001
20
7.98395
30
0
0
VERTEX
8
0
10
14.40395
20
7.969984375
30
0
0
VERTEX
8
0
10
14.421050000000001
20
7.9601125
30
0
0
VERTEX
8
0
10
14.440125
20
7.955
30
0
0
VERTEX
8
0
10
16.209875
20
7.955
30
0
0
VERTEX
8
0
10
16.22895
20
7.9601125
30
0
0
VERTEX
8
0
10
16.24605
20
7.969984375
30
0
0
VERTEX
8
0
10
16.260015625
20
7.98395
30
0
0
VERTEX
8
0
10
16.2698875
20
8.001050000000001
30
0
0
VERTEX
8
0
10
16.275000000000002
20
8.020125
30
0
0
VERTEX
8
0
10
16.275000000000002
20
8.489875
30
0
0
VERTEX
8
0
10
16.2698875
20
8.50895
30
0
0
VERTEX
8
0
10
16.260015625
20
8.52605
30
0
0
VERTEX
8
0
10
16.24605
20
8.540015625
30
0
0
VERTEX
8
0
10
16.22895
20
8.5498875
30
0
0
VERTEX
8
0
10
16.209875
20
8.555
30
0
0
VERTEX
8
0
10
14.440125
20
8.555
30
0
0
VERTEX
8
0
10
14.421050000000001
20
8.5498875
30
0
0
VERTEX
8
0
10
14.40395
20
8.540015625
30
0
0
VERTEX
8
0
10
14.389984375000001
20
8.52605
30
0
0
VERTEX
8
0
10
14.380140625000001
20
8.509
30
0
0
VERTEX
8
0
10
11.217709375
20
8.509
30
0
0
VERTEX
8
0
10
5.121709375
20
14.605
30
0
0
VERTEX
8
0
10
5.715
20
14.605
30
0
0
VERTEX
8
0
10
5.715
20
15.875
30
0
0
VERTEX
8
0
10
2.285
20
15.875
30
0
0
VERTEX
8
0
10
2.285
20
14.605
30
0
0
VERTEX
8
0
10
4.403290625
20
14.605
30
0
0
VERTEX
8
0
10
10.94703125
20
8.061259375
30
0
0
VERTEX
8
0
10
10.979375000000001
20
8.037759375
30
0
0
VERTEX
8
0
10
11.014996875000001
20
8.019609375
30
0
0
VERTEX
8
0
10
11.053021875
20
8.007253125
30
0
0
VERTEX
8
0
10
11.092509375
20
8.001000000000001
30
0
0
VERTEX
8
0
10
14.380140625000001
20
8.001000000000001
30
0
0
SEQEND
0
POLYLINE
66
1
8
1_copper
10
0.0
20
0.0
30
0.0
70
1
0
VERTEX
8
0
10
2.795
20
13.335
30
0
0
VERTEX
8
0
10
-0.635
20
13.335
30
0
0
VERTEX
8
0
10
-0.635
20
12.065000000000001
30
0
0
VERTEX
8
0
10
2.795
20
12.065000000000001
30
0
0
VERTEX
8
0
10
2.795
20
12.446
30
0
0
VERTEX
8
0
10
4.816040625
20
12.446
30
0
0
VERTEX
8
0
10
10.47078125
20
6.791259375
30
0
0
VERTEX
8
0
10
10.503125
20
6.767759375000001
30
0
0
VERTEX
8
0
10
10.538746875000001
20
6.749609375
30
0
0
VERTEX
8
0
10
10.576771875
20
6.7372531250000005
30
0
0
VERTEX
8
0
10
10.616259375
20
6.731000000000001
30
0
0
VERTEX
8
0
10
14.380140625000001
20
6.731000000000001
30
0
0
VERTEX
8
0
10
14.389984375000001
20
6.7139500000000005
30
0
0
VERTEX
8
0
10
14.40395
20
6.6999843750000005
30
0
0
VERTEX
8
0
10
14.421050000000001
20
6.690112500000001
30
0
0
VERTEX
8
0
10
14.440125
20
6.6850000000000005
30
0
0
VERTEX
8
0
10
16.209875
20
6.6850000000000005
30
0
0
VERTEX
8
0
10
16.22895
20
6.690112500000001
30
0
0
VERTEX
8
0
10
16.24605
20
6.6999843750000005
30
0
0
VERTEX
8
0
10
16.260015625
20
6.7139500000000005
30
0
0
VERTEX
8
0
10
16.2698875
20
6.731050000000001
30
0
0
VERTEX
8
0
10
16.275000000000002
20
6.750125000000001
30
0
0
VERTEX
8
0
10
16.275000000000002
20
7.219875
30
0
0
VERTEX
8
0
10
16.2698875
20
7.23895
30
0
0
VERTEX
8
0
10
16.260015625
20
7.25605
30
0
0
VERTEX
8
0
10
16.24605
20
7.270015625
30
0
0
VERTEX
8
0
10
16.22895
20
7.2798875
30
0
0
VERTEX
8
0
10
16.209875
20
7.285
30
0
0
VERTEX
8
0
10
14.440125
20
7.285
30
0
0
VERTEX
8
0
10
14.421050000000001
20
7.2798875
30
0
0
VERTEX
8
0
10
14.40395
20
7.270015625
30
0
0
VERTEX
8
0
10
14.389984375000001
20
7.25605
30
0
0
VERTEX
8
0
10
14.380140625000001
20
7.239000000000001
30
0
0
VERTEX
8
0
10
10.741459375
20
7.239000000000001
30
0
0
VERTEX
8
0
10
5.08671875
20
12.893740625000001
30
0
0
VERTEX
8
0
10
5.054375
20
12.917240625
30
0
0
VERTEX
8
0
10
5.018753125
20
12.935390625
30
0
0
VERTEX
8
0
10
4.980728125000001
20
12.947746875
30
0
0
VERTEX
8
0
10
4.941240625
20
12.954
30
0
0
VERTEX
8
0
10
2.795
20
12.954
30
0
0
SEQEND
0
ENDSEC
0
EOF