  0
SECTION
  2
HEADER
  9
$ACADVER
  1
AC1018
  9
$ACADMAINTVER
 70
     0
  9
$DWGCODEPAGE
  3
ANSI_1252
  9
$INSBASE
 10
0.0
 20
0.0
 30
0.0
  9
$EXTMIN
 10
1.000000000000000E+20
 20
1.000000000000000E+20
 30
1.000000000000000E+20
  9
$EXTMAX
 10
-1.000000000000000E+20
 20
-1.000000000000000E+20
 30
-1.000000000000000E+20
  9
$LIMMIN
 10
0.0
 20
0.0
  9
$LIMMAX
 10
12.0
 20
9.0
  9
$ORTHOMODE
 70
     0
  9
$REGENMODE
 70
     1
  9
$FILLMODE
 70
     1
  9
$QTEXTMODE
 70
     0
  9
$MIRRTEXT
 70
     1
  9
$LTSCALE
 40
1.0
  9
$ATTMODE
 70
     1
  9
$TEXTSIZE
 40
0.2
  9
$TRACEWID
 40
0.05
  9
$TEXTSTYLE
  7
Standard
  9
$CLAYER
  8
Default
  9
$CELTYPE
  6
ByLayer
  9
$CECOLOR
 62
   256
  9
$CELTSCALE
 40
1.0
  9
$DISPSILH
 70
     0
  9
$DIMSCALE
 40
1.0
  9
$DIMASZ
 40
0.18
  9
$DIMEXO
 40
0.0625
  9
$DIMDLI
 40
0.38
  9
$DIMRND
 40
0.0
  9
$DIMDLE
 40
0.0
  9
$DIMEXE
 40
0.18
  9
$DIMTP
 40
0.0
  9
$DIMTM
 40
0.0
  9
$DIMTXT
 40
0.18
  9
$DIMCEN
 40
0.09
  9
$DIMTSZ
 40
0.0
  9
$DIMTOL
 70
     0
  9
$DIMLIM
 70
     0
  9
$DIMTIH
 70
     1
  9
$DIMTOH
 70
     1
  9
$DIMSE1
 70
     0
  9
$DIMSE2
 70
     0
  9
$DIMTAD
 70
     0
  9
$DIMZIN
 70
     0
  9
$DIMBLK
  1

  9
$DIMASO
 70
     1
  9
$DIMSHO
 70
     1
  9
$DIMPOST
  1

  9
$DIMAPOST
  1

  9
$DIMALT
 70
     0
  9
$DIMALTD
 70
     2
  9
$DIMALTF
 40
25.4
  9
$DIMLFAC
 40
1.0
  9
$DIMTOFL
 70
     0
  9
$DIMTVP
 40
0.0
  9
$DIMTIX
 70
     0
  9
$DIMSOXD
 70
     0
  9
$DIMSAH
 70
     0
  9
$DIMBLK1
  1

  9
$DIMBLK2
  1

  9
$DIMSTYLE
  2
STANDARD_ACAD
  9
$DIMCLRD
 70
     0
  9
$DIMCLRE
 70
     0
  9
$DIMCLRT
 70
     0
  9
$DIMTFAC
 40
1.0
  9
$DIMGAP
 40
0.09
  9
$DIMJUST
 70
     0
  9
$DIMSD1
 70
     0
  9
$DIMSD2
 70
     0
  9
$DIMTOLJ
 70
     1
  9
$DIMTZIN
 70
     0
  9
$DIMALTZ
 70
     0
  9
$DIMALTTZ
 70
     0
  9
$DIMUPT
 70
     0
  9
$DIMDEC
 70
     4
  9
$DIMTDEC
 70
     4
  9
$DIMALTU
 70
     2
  9
$DIMALTTD
 70
     2
  9
$DIMTXSTY
  7
Standard
  9
$DIMAUNIT
 70
     0
  9
$DIMADEC
 70
     0
  9
$DIMALTRND
 40
0.0
  9
$DIMAZIN
 70
     0
  9
$DIMDSEP
 70
    46
  9
$DIMATFIT
 70
     3
  9
$DIMFRAC
 70
     0
  9
$DIMLDRBLK
  1

  9
$DIMLUNIT
 70
     2
  9
$DIMLWD
 70
    -2
  9
$DIMLWE
 70
    -2
  9
$DIMTMOVE
 70
     2
  9
$LUNITS
 70
     2
  9
$LUPREC
 70
     2
  9
$SKETCHINC
 40
0.1
  9
$FILLETRAD
 40
0.5
  9
$AUNITS
 70
     0
  9
$AUPREC
 70
     0
  9
$MENU
  1
.
  9
$ELEVATION
 40
0.0
  9
$PELEVATION
 40
0.0
  9
$THICKNESS
 40
0.0
  9
$LIMCHECK
 70
     0
  9
$CHAMFERA
 40
0.0
  9
$CHAMFERB
 40
0.0
  9
$CHAMFERC
 40
0.0
  9
$CHAMFERD
 40
0.0
  9
$SKPOLY
 70
     0
  9
$TDCREATE
 40
2459321.397587442
  9
$TDUCREATE
 40
2459321.605920775
  9
$TDUPDATE
 40
2459321.397598391
  9
$TDUUPDATE
 40
2459321.605931724
  9
$TDINDWG
 40
0.0000000116
  9
$TDUSRTIMER
 40
0.0000000116
  9
$USRTIMER
 70
     1
  9
$ANGBASE
 50
0.0
  9
$ANGDIR
 70
     0
  9
$PDMODE
 70
     0
  9
$PDSIZE
 40
0.0
  9
$PLINEWID
 40
0.0
  9
$SPLFRAME
 70
     0
  9
$SPLINETYPE
 70
     6
  9
$SPLINESEGS
 70
     8
  9
$HANDSEED
  5
73B
  9
$SURFTAB1
 70
     6
  9
$SURFTAB2
 70
     6
  9
$SURFTYPE
 70
     6
  9
$SURFU
 70
     6
  9
$SURFV
 70
     6
  9
$UCSBASE
  2

  9
$UCSNAME
  2

  9
$UCSORG
 10
0.0
 20
0.0
 30
0.0
  9
$UCSXDIR
 10
1.0
 20
0.0
 30
0.0
  9
$UCSYDIR
 10
0.0
 20
1.0
 30
0.0
  9
$UCSORTHOREF
  2

  9
$UCSORTHOVIEW
 70
     0
  9
$UCSORGTOP
 10
0.0
 20
0.0
 30
0.0
  9
$UCSORGBOTTOM
 10
0.0
 20
0.0
 30
0.0
  9
$UCSORGLEFT
 10
0.0
 20
0.0
 30
0.0
  9
$UCSORGRIGHT
 10
0.0
 20
0.0
 30
0.0
  9
$UCSORGFRONT
 10
0.0
 20
0.0
 30
0.0
  9
$UCSORGBACK
 10
0.0
 20
0.0
 30
0.0
  9
$PUCSBASE
  2

  9
$PUCSNAME
  2

  9
$PUCSORG
 10
0.0
 20
0.0
 30
0.0
  9
$PUCSXDIR
 10
1.0
 20
0.0
 30
0.0
  9
$PUCSYDIR
 10
0.0
 20
1.0
 30
0.0
  9
$PUCSORTHOREF
  2

  9
$PUCSORTHOVIEW
 70
     0
  9
$PUCSORGTOP
 10
0.0
 20
0.0
 30
0.0
  9
$PUCSORGBOTTOM
 10
0.0
 20
0.0
 30
0.0
  9
$PUCSORGLEFT
 10
0.0
 20
0.0
 30
0.0
  9
$PUCSORGRIGHT
 10
0.0
 20
0.0
 30
0.0
  9
$PUCSORGFRONT
 10
0.0
 20
0.0
 30
0.0
  9
$PUCSORGBACK
 10
0.0
 20
0.0
 30
0.0
  9
$USERI1
 70
     0
  9
$USERI2
 70
     0
  9
$USERI3
 70
     0
  9
$USERI4
 70
     0
  9
$USERI5
 70
     0
  9
$USERR1
 40
0.0
  9
$USERR2
 40
0.0
  9
$USERR3
 40
0.0
  9
$USERR4
 40
0.0
  9
$USERR5
 40
0.0
  9
$WORLDVIEW
 70
     1
  9
$SHADEDGE
 70
     3
  9
$SHADEDIF
 70
    70
  9
$TILEMODE
 70
     1
  9
$MAXACTVP
 70
    64
  9
$PINSBASE
 10
0.0
 20
0.0
 30
0.0
  9
$PLIMCHECK
 70
     0
  9
$PEXTMIN
 10
1.000000000000000E+20
 20
1.000000000000000E+20
 30
1.000000000000000E+20
  9
$PEXTMAX
 10
-1.000000000000000E+20
 20
-1.000000000000000E+20
 30
-1.000000000000000E+20
  9
$PLIMMIN
 10
0.0
 20
0.0
  9
$PLIMMAX
 10
12.0
 20
9.0
  9
$UNITMODE
 70
     0
  9
$VISRETAIN
 70
     1
  9
$PLINEGEN
 70
     0
  9
$PSLTSCALE
 70
     1
  9
$TREEDEPTH
 70
  3020
  9
$CMLSTYLE
  2
Standard
  9
$CMLJUST
 70
     0
  9
$CMLSCALE
 40
1.0
  9
$PROXYGRAPHICS
 70
     1
  9
$MEASUREMENT
 70
     1
  9
$CELWEIGHT
370
    -1
  9
$ENDCAPS
280
     0
  9
$JOINSTYLE
280
     0
  9
$LWDISPLAY
290
     0
  9
$INSUNITS
 70
     4
  9
$HYPERLINKBASE
  1

  9
$STYLESHEET
  1

  9
$XEDIT
290
     1
  9
$CEPSNTYPE
380
     0
  9
$PSTYLEMODE
290
     1
  9
$FINGERPRINTGUID
  2
{97f06e38-828d-4e58-b781-116a99b24047}
  9
$VERSIONGUID
  2
{FAEB1C32-E019-11D5-929B-00C0DF256EC4}
  9
$EXTNAMES
290
     1
  9
$PSVPSCALE
 40
0.0
  9
$OLESTARTUP
290
     0
  9
$SORTENTS
280
   127
  9
$INDEXCTL
280
     0
  9
$HIDETEXT
280
     1
  9
$XCLIPFRAME
290
     0
  9
$HALOGAP
280
     0
  9
$OBSCOLOR
 70
   257
  9
$OBSLTYPE
280
     0
  9
$INTERSECTIONDISPLAY
280
     0
  9
$INTERSECTIONCOLOR
 70
   257
  9
$DIMASSOC
280
     2
  9
$PROJECTNAME
  1

  0
ENDSEC
  0
SECTION
  2
CLASSES
  0
CLASS
  1
ACDBDICTIONARYWDFLT
  2
AcDbDictionaryWithDefault
  3
ObjectDBX Classes
 90
        0
 91
        3
280
     0
281
     0
  0
CLASS
  1
VISUALSTYLE
  2
AcDbVisualStyle
  3
ObjectDBX Classes
 90
     4095
 91
        3
280
     0
281
     0
  0
CLASS
  1
MATERIAL
  2
AcDbMaterial
  3
ObjectDBX Classes
 90
     1153
 91
        3
280
     0
281
     0
  0
CLASS
  1
SCALE
  2
AcDbScale
  3
ObjectDBX Classes
 90
     1153
 91
        3
280
     0
281
     0
  0
CLASS
  1
TABLESTYLE
  2
AcDbTableStyle
  3
ObjectDBX Classes
 90
     4095
 91
        3
280
     0
281
     0
  0
CLASS
  1
MLEADERSTYLE
  2
AcDbMLeaderStyle
  3
ACDB_MLEADERSTYLE_CLASS
 90
     4095
 91
        3
280
     0
281
     0
  0
CLASS
  1
SUN
  2
AcDbSun
  3
SCENEOE
 90
     1153
 91
        3
280
     0
281
     0
  0
CLASS
  1
DICTIONARYVAR
  2
AcDbDictionaryVar
  3
ObjectDBX Classes
 90
        0
 91
        3
280
     0
281
     0
  0
CLASS
  1
CELLSTYLEMAP
  2
AcDbCellStyleMap
  3
ObjectDBX Classes
 90
     1152
 91
        3
280
     0
281
     0
  0
ENDSEC
  0
SECTION
  2
TABLES
  0
TABLE
  2
VPORT
  5
8
102
{ACAD_XDICTIONARY
360
6F4
102
}
330
0
100
AcDbSymbolTable
 70
     1
  0
VPORT
  5
29
330
8
100
AcDbSymbolTableRecord
100
AcDbViewportTableRecord
  2
*Active
 70
     0
 10
0.0
 20
0.0
 11
1.0
 21
1.0
 12
10.42990654205607
 22
4.5
 13
0.0
 23
0.0
 14
0.5
 24
0.5
 15
0.5
 25
0.5
 16
0.0
 26
0.0
 36
1.0
 17
0.0
 27
0.0
 37
0.0
 40
9.0
 41
1.972972972850329
 42
50.0
 43
0.0
 44
0.0
 50
0.0
 51
0.0
 71
     0
 72
   100
 73
     1
 74
     3
 75
     0
 76
     0
 77
     0
 78
     0
281
     0
 65
     1
110
0.0
120
0.0
130
0.0
111
1.0
121
0.0
131
0.0
112
0.0
122
1.0
132
0.0
 79
     0
146
0.0
  0
ENDTAB
  0
TABLE
  2
LTYPE
  5
5
330
0
100
AcDbSymbolTable
 70
     1
  0
LTYPE
  5
14
330
5
100
AcDbSymbolTableRecord
100
AcDbLinetypeTableRecord
  2
ByBlock
 70
     0
  3

 72
    65
 73
     0
 40
0.0
  0
LTYPE
  5
15
330
5
100
AcDbSymbolTableRecord
100
AcDbLinetypeTableRecord
  2
ByLayer
 70
     0
  3

 72
    65
 73
     0
 40
0.0
  0
LTYPE
  5
16
330
5
100
AcDbSymbolTableRecord
100
AcDbLinetypeTableRecord
  2
Continuous
 70
     0
  3
Solid line
 72
    65
 73
     0
 40
0.0
  0
ENDTAB
  0
TABLE
  2
LAYER
  5
2
330
0
100
AcDbSymbolTable
 70
     4
  0
LAYER
  5
10
330
2
100
AcDbSymbolTableRecord
100
AcDbLayerTableRecord
  2
0
 70
     0
 62
    18
420
        0
  6
Continuous
370
    -3
390
F
  0
LAYER
  5
136
330
2
100
AcDbSymbolTableRecord
100
AcDbLayerTableRecord
  2
Default
 70
     0
 62
    18
420
        0
  6
Continuous
370
    -3
390
F
  0
LAYER
  5
2B3
330
2
100
AcDbSymbolTableRecord
100
AcDbLayerTableRecord
  2
Layer 03
 70
     0
 62
     5
420
      255
  6
Continuous
370
    -3
390
F
  0
LAYER
  5
429
330
2
100
AcDbSymbolTableRecord
100
AcDbLayerTableRecord
  2
Over
 70
     0
 62
     1
420
 16711680
  6
Continuous
370
    -3
390
F
  0
ENDTAB
  0
TABLE
  2
STYLE
  5
3
330
0
100
AcDbSymbolTable
 70
     1
  0
STYLE
  5
11
330
3
100
AcDbSymbolTableRecord
100
AcDbTextStyleTableRecord
  2
Standard
 70
     0
 40
0.0
 41
1.0
 50
0.0
 71
     0
 42
0.2
  3
txt
  4

  0
ENDTAB
  0
TABLE
  2
VIEW
  5
6
330
0
100
AcDbSymbolTable
 70
     0
  0
ENDTAB
  0
TABLE
  2
UCS
  5
7
330
0
100
AcDbSymbolTable
 70
     0
  0
ENDTAB
  0
TABLE
  2
APPID
  5
9
330
0
100
AcDbSymbolTable
 70
     2
  0
APPID
  5
12
330
9
100
AcDbSymbolTableRecord
100
AcDbRegAppTableRecord
  2
ACAD
 70
     0
  0
APPID
  5
733
330
9
100
AcDbSymbolTableRecord
100
AcDbRegAppTableRecord
  2
ACAD_MLEADERVER
 70
     0
  0
ENDTAB
  0
TABLE
  2
DIMSTYLE
  5
A
330
0
100
AcDbSymbolTable
 70
     1
100
AcDbDimStyleTable
  0
DIMSTYLE
105
27
330
A
100
AcDbSymbolTableRecord
100
AcDbDimStyleTableRecord
  2
STANDARD_ACAD
 70
     0
178
     0
340
11
  0
ENDTAB
  0
TABLE
  2
BLOCK_RECORD
  5
1
330
0
100
AcDbSymbolTable
 70
     1
  0
BLOCK_RECORD
  5
1F
330
1
100
AcDbSymbolTableRecord
100
AcDbBlockTableRecord
  2
*Model_Space
340
22
  0
BLOCK_RECORD
  5
1B
330
1
100
AcDbSymbolTableRecord
100
AcDbBlockTableRecord
  2
*Paper_Space
340
1E
  0
BLOCK_RECORD
  5
23
330
1
100
AcDbSymbolTableRecord
100
AcDbBlockTableRecord
  2
*Paper_Space0
340
26
  0
ENDTAB
  0
ENDSEC
  0
SECTION
  2
BLOCKS
  0
BLOCK
  5
20
330
1F
100
AcDbEntity
  8
0
100
AcDbBlockBegin
  2
*Model_Space
 70
     0
 10
0.0
 20
0.0
 30
0.0
  3
*Model_Space
  1

  0
ENDBLK
  5
21
330
1F
100
AcDbEntity
  8
0
100
AcDbBlockEnd
  0
BLOCK
  5
1C
330
1B
100
AcDbEntity
 67
     1
  8
0
100
AcDbBlockBegin
  2
*Paper_Space
 70
     0
 10
0.0
 20
0.0
 30
0.0
  3
*Paper_Space
  1

  0
ENDBLK
  5
1D
330
1B
100
AcDbEntity
 67
     1
  8
0
100
AcDbBlockEnd
  0
BLOCK
  5
24
330
23
100
AcDbEntity
  8
0
100
AcDbBlockBegin
  2
*Paper_Space0
 70
     0
 10
0.0
 20
0.0
 30
0.0
  3
*Paper_Space0
  1

  0
ENDBLK
  5
25
330
23
100
AcDbEntity
  8
0
100
AcDbBlockEnd
  0
ENDSEC
  0
SECTION
  2
ENTITIES
  0
POLYLINE
  5
6E
330
1F
100
AcDbEntity
  8
0
  6
ByBlock
 62
     0
370
    -2
100
AcDb2dPolyline
 66
     1
 10
0.0
 20
0.0
 30
0.0
 70
     1
  0
VERTEX
  5
6F
330
6E
100
AcDbEntity
  8
0
  6
ByBlock
 62
     0
370
    -2
100
AcDbVertex
100
AcDb2dVertex
 10
7909.073124825454
 20
-3024.398477852872
 30
0.0
  0
VERTEX
  5
70
330
6E
100
AcDbEntity
  8
0
  6
ByBlock
 62
     0
370
    -2
100
AcDbVertex
100
AcDb2dVertex
 10
5509.073124825454
 20
-3024.398477852872
 30
0.0
  0
VERTEX
  5
71
330
6E
100
AcDbEntity
  8
0
  6
ByBlock
 62
     0
370
    -2
100
AcDbVertex
100
AcDb2dVertex
 10
5509.073124825454
 20
-1824.398477852872
 30
0.0
  0
VERTEX
  5
72
330
6E
100
AcDbEntity
  8
0
  6
ByBlock
 62
     0
370
    -2
100
AcDbVertex
100
AcDb2dVertex
 10
7909.073124825454
 20
-1824.398477852872
 30
0.0
  0
SEQEND
  5
73
330
6E
100
AcDbEntity
  8
0
  6
ByBlock
 62
     0
370
    -2
  0
POLYLINE
  5
74
330
1F
100
AcDbEntity
  8
0
  6
ByBlock
 62
     0
370
    -2
100
AcDb2dPolyline
 66
     1
 10
0.0
 20
0.0
 30
0.0
 70
     1
  0
VERTEX
  5
75
330
74
100
AcDbEntity
  8
0
  6
ByBlock
 62
     0
370
    -2
100
AcDbVertex
100
AcDb2dVertex
 10
5846.429477917201
 20
-2979.807644246797
 30
0.0
  0
VERTEX
  5
76
330
74
100
AcDbEntity
  8
0
  6
ByBlock
 62
     0
370
    -2
100
AcDbVertex
100
AcDb2dVertex
 10
5846.501433696209
 20
-2979.733160450249
 30
0.0
  0
VERTEX
  5
77
330
74
100
AcDbEntity
  8
0
  6
ByBlock
 62
     0
370
    -2
100
AcDbVertex
100
AcDb2dVertex
 10
5846.570775706611
 20
-2979.656237399906
 30
0.0
  0
VERTEX
  5
78
330
74
100
AcDbEntity
  8
0
  6
ByBlock
 62
     0
370
    -2
100
AcDbVertex
100
AcDb2dVertex
 10
5846.637421312227
 20
-2979.576966766423
 30
0.0
  0
VERTEX
  5
79
330
74
100
AcDbEntity
  8
0
  6
ByBlock
 62
     0
370
    -2
100
AcDbVertex
100
AcDb2dVertex
 10
5846.701291090228
 20
-2979.49544301811
 30
0.0
  0
VERTEX
  5
7A
330
74
100
AcDbEntity
  8
0
  6
ByBlock
 62
     0
370
    -2
100
AcDbVertex
100
AcDb2dVertex
 10
5846.76230892579
 20
-2979.41176330836
 30
0.0
  0
VERTEX
  5
7B
330
74
100
AcDbEntity
  8
0
  6
ByBlock
 62
     0
370
    -2
100
AcDbVertex
100
AcDb2dVertex
 10
5846.82040210281
 20
-2979.326027359863
 30
0.0
  0
VERTEX
  5
7C
330
74
100
AcDbEntity
  8
0
  6
ByBlock
 62
     0
370
    -2
100
AcDbVertex
100
AcDb2dVertex
 10
5846.875501390547
 20
-2979.238337345771
 30
0.0
  0
VERTEX
  5
7D
330
74
100
AcDbEntity
  8
0
  6
ByBlock
 62
     0
370
    -2
100
AcDbVertex
100
AcDb2dVertex
 10
5846.92754112614
 20
-2979.148797767928
 30
0.0
  0
VERTEX
  5
7E
330
74
100
AcDbEntity
  8
0
  6
ByBlock
 62
     0
370
    -2
100
AcDbVertex
100
AcDb2dVertex
 10
5846.976459292853
 20
-2979.057515332344
 30
0.0
  0
VERTEX
  5
7F
330
74
100
AcDbEntity
  8
0
  6
ByBlock
 62
     0
370
    -2
100
AcDbVertex
100
AcDb2dVertex
 10
5847.022197593982
 20
-2978.964598822022
 30
0.0
  0
VERTEX
  5
80
330
74
100
AcDbEntity
  8
0
  6
ByBlock
 62
     0
370
    -2
100
AcDbVertex
100
AcDb2dVertex
 10
5847.064701522329
 20
-2978.870158967321
 30
0.0
  0
VERTEX
  5
81
330
74
100
AcDbEntity
  8
0
  6
ByBlock
 62
     0
370
    -2
100
AcDbVertex
100
AcDb2dVertex
 10
5847.10392042516
 20
-2978.774308314004
 30
0.0
  0
VERTEX
  5
82
330
74
100
AcDbEntity
  8
0
  6
ByBlock
 62
     0
370
    -2
100
AcDbVertex
100
AcDb2dVertex
 10
5847.139807564567
 20
-2978.677161089103
 30
0.0
  0
VERTEX
  5
83
330
74
100
AcDbEntity
  8
0
  6
ByBlock
 62
     0
370
    -2
100
AcDbVertex
100
AcDb2dVertex
 10
5847.172320173168
 20
-2978.578833064803
 30
0.0
  0
VERTEX
  5
84
330
74
100
AcDbEntity
  8
0
  6
ByBlock
 62
     0
370
    -2
100
AcDbVertex
100
AcDb2dVertex
 10
5847.201419505072
 20
-2978.479441420468
 30
0.0
  0
VERTEX
  5
85
330
74
100
AcDbEntity
  8
0
  6
ByBlock
 62
     0
370
    -2
100
AcDbVertex
100
AcDb2dVertex
 10
5847.227070882056
 20
-2978.379104603001
 30
0.0
  0
VERTEX
  5
86
330
74
100
AcDbEntity
  8
0
  6
ByBlock
 62
     0
370
    -2
100
AcDbVertex
100
AcDb2dVertex
 10
5847.249243734889
 20
-2978.277942185681
 30
0.0
  0
VERTEX
  5
87
330
74
100
AcDbEntity
  8
0
  6
ByBlock
 62
     0
370
    -2
100
AcDbVertex
100
AcDb2dVertex
 10
5847.267911639764
 20
-2978.176074725674
 30
0.0
  0
VERTEX
  5
88
330
74
100
AcDbEntity
  8
0
  6
ByBlock
 62
     0
370
    -2
100
AcDbVertex
100
AcDb2dVertex
 10
5847.283052349785
 20
-2978.073623620356
 30
0.0
  0
VERTEX
  5
89
330
74
100
AcDbEntity
  8
0
  6
ByBlock
 62
     0
370
    -2
100
AcDbVertex
100
AcDb2dVertex
 10
5847.294647821482
 20
-2977.970710962647
 30
0.0
  0
VERTEX
  5
8A
330
74
100
AcDbEntity
  8
0
  6
ByBlock
 62
     0
370
    -2
100
AcDbVertex
100
AcDb2dVertex
 10
5847.302684236312
 20
-2977.867459395504
 30
0.0
  0
VERTEX
  5
8B
330
74
100
AcDbEntity
  8
0
  6
ByBlock
 62
     0
370
    -2
100
AcDbVertex
100
AcDb2dVertex
 10
5847.307152017129
 20
-2977.763991965773
 30
0.0
  0
VERTEX
  5
8C
330
74
100
AcDbEntity
  8
0
  6
ByBlock
 62
     0
370
    -2
100
AcDbVertex
100
AcDb2dVertex
 10
5847.308045839593
 20
-2977.660431977542
 30
0.0
  0
VERTEX
  5
8D
330
74
100
AcDbEntity
  8
0
  6
ByBlock
 62
     0
370
    -2
100
AcDbVertex
100
AcDb2dVertex
 10
5847.305364638517
 20
-2977.55690284521
 30
0.0
  0
VERTEX
  5
8E
330
74
100
AcDbEntity
  8
0
  6
ByBlock
 62
     0
370
    -2
100
AcDbVertex
100
AcDb2dVertex
 10
5847.299111609143
 20
-2977.453527946398
 30
0.0
  0
VERTEX
  5
8F
330
74
100
AcDbEntity
  8
0
  6
ByBlock
 62
     0
370
    -2
100
AcDbVertex
100
AcDb2dVertex
 10
5847.289294203322
 20
-2977.350430474927
 30
0.0
  0
VERTEX
  5
90
330
74
100
AcDbEntity
  8
0
  6
ByBlock
 62
     0
370
    -2
100
AcDbVertex
100
AcDb2dVertex
 10
5847.275924120642
 20
-2977.247733294003
 30
0.0
  0
VERTEX
  5
91
330
74
100
AcDbEntity
  8
0
  6
ByBlock
 62
     0
370
    -2
100
AcDbVertex
100
AcDb2dVertex
 10
5847.259017294484
 20
-2977.145558789795
 30
0.0
  0
VERTEX
  5
92
330
74
100
AcDbEntity
  8
0
  6
ByBlock
 62
     0
370
    -2
100
AcDbVertex
100
AcDb2dVertex
 10
5847.23859387303
 20
-2977.044028725593
 30
0.0
  0
VERTEX
  5
93
330
74
100
AcDbEntity
  8
0
  6
ByBlock
 62
     0
370
    -2
100
AcDbVertex
100
AcDb2dVertex
 10
5847.214678195262
 20
-2976.943264096692
 30
0.0
  0
VERTEX
  5
94
330
74
100
AcDbEntity
  8
0
  6
ByBlock
 62
     0
370
    -2
100
AcDbVertex
100
AcDb2dVertex
 10
5847.18729876194
 20
-2976.843384986205
 30
0.0
  0
VERTEX
  5
95
330
74
100
AcDbEntity
  8
0
  6
ByBlock
 62
     0
370
    -2
100
AcDbVertex
100
AcDb2dVertex
 10
5847.156488201655
 20
-2976.744510421955
 30
0.0
  0
VERTEX
  5
96
330
74
100
AcDbEntity
  8
0
  6
ByBlock
 62
     0
370
    -2
100
AcDbVertex
100
AcDb2dVertex
 10
5847.122283231934
 20
-2976.646758234629
 30
0.0
  0
VERTEX
  5
97
330
74
100
AcDbEntity
  8
0
  6
ByBlock
 62
     0
370
    -2
100
AcDbVertex
100
AcDb2dVertex
 10
5847.084724615483
 20
-2976.550244917355
 30
0.0
  0
VERTEX
  5
98
330
74
100
AcDbEntity
  8
0
  6
ByBlock
 62
     0
370
    -2
100
AcDbVertex
100
AcDb2dVertex
 10
5847.043857111618
 20
-2976.455085486879
 30
0.0
  0
VERTEX
  5
99
330
74
100
AcDbEntity
  8
0
  6
ByBlock
 62
     0
370
    -2
100
AcDbVertex
100
AcDb2dVertex
 10
5846.999729422915
 20
-2976.361393346491
 30
0.0
  0
VERTEX
  5
9A
330
74
100
AcDbEntity
  8
0
  6
ByBlock
 62
     0
370
    -2
100
AcDbVertex
100
AcDb2dVertex
 10
5846.952394137175
 20
-2976.269280150886
 30
0.0
  0
VERTEX
  5
9B
330
74
100
AcDbEntity
  8
0
  6
ByBlock
 62
     0
370
    -2
100
AcDbVertex
100
AcDb2dVertex
 10
5846.901907664751
 20
-2976.1788556731
 30
0.0
  0
VERTEX
  5
9C
330
74
100
AcDbEntity
  8
0
  6
ByBlock
 62
     0
370
    -2
100
AcDbVertex
100
AcDb2dVertex
 10
5846.848330171328
 20
-2976.090227673691
 30
0.0
  0
VERTEX
  5
9D
330
74
100
AcDbEntity
  8
0
  6
ByBlock
 62
     0
370
    -2
100
AcDbVertex
100
AcDb2dVertex
 10
5846.791725506215
 20
-2976.003501772322
 30
0.0
  0
VERTEX
  5
9E
330
74
100
AcDbEntity
  8
0
  6
ByBlock
 62
     0
370
    -2
100
AcDbVertex
100
AcDb2dVertex
 10
5846.732161126263
 20
-2975.918781321889
 30
0.0
  0
VERTEX
  5
9F
330
74
100
AcDbEntity
  8
0
  6
ByBlock
 62
     0
370
    -2
100
AcDbVertex
100
AcDb2dVertex
 10
5846.669708015469
 20
-2975.836167285352
 30
0.0
  0
VERTEX
  5
A0
330
74
100
AcDbEntity
  8
0
  6
ByBlock
 62
     0
370
    -2
100
AcDbVertex
100
AcDb2dVertex
 10
5846.604440600386
 20
-2975.755758115421
 30
0.0
  0
VERTEX
  5
A1
330
74
100
AcDbEntity
  8
0
  6
ByBlock
 62
     0
370
    -2
100
AcDbVertex
100
AcDb2dVertex
 10
5846.536436661424
 20
-2975.677649637222
 30
0.0
  0
VERTEX
  5
A2
330
74
100
AcDbEntity
  8
0
  6
ByBlock
 62
     0
370
    -2
100
AcDbVertex
100
AcDb2dVertex
 10
5846.465777240165
 20
-2975.601934934106
 30
0.0
  0
VERTEX
  5
A3
330
74
100
AcDbEntity
  8
0
  6
ByBlock
 62
     0
370
    -2
100
AcDbVertex
100
AcDb2dVertex
 10
5846.392546542774
 20
-2975.528704236715
 30
0.0
  0
VERTEX
  5
A4
330
74
100
AcDbEntity
  8
0
  6
ByBlock
 62
     0
370
    -2
100
AcDbVertex
100
AcDb2dVertex
 10
5846.316831839657
 20
-2975.458044815455
 30
0.0
  0
VERTEX
  5
A5
330
74
100
AcDbEntity
  8
0
  6
ByBlock
 62
     0
370
    -2
100
AcDbVertex
100
AcDb2dVertex
 10
5846.238723361459
 20
-2975.390040876494
 30
0.0
  0
VERTEX
  5
A6
330
74
100
AcDbEntity
  8
0
  6
ByBlock
 62
     0
370
    -2
100
AcDbVertex
100
AcDb2dVertex
 10
5846.158314191528
 20
-2975.324773461411
 30
0.0
  0
VERTEX
  5
A7
330
74
100
AcDbEntity
  8
0
  6
ByBlock
 62
     0
370
    -2
100
AcDbVertex
100
AcDb2dVertex
 10
5846.075700154991
 20
-2975.262320350616
 30
0.0
  0
VERTEX
  5
A8
330
74
100
AcDbEntity
  8
0
  6
ByBlock
 62
     0
370
    -2
100
AcDbVertex
100
AcDb2dVertex
 10
5845.990979704557
 20
-2975.202755970665
 30
0.0
  0
VERTEX
  5
A9
330
74
100
AcDbEntity
  8
0
  6
ByBlock
 62
     0
370
    -2
100
AcDbVertex
100
AcDb2dVertex
 10
5845.904253803188
 20
-2975.146151305552
 30
0.0
  0
VERTEX
  5
AA
330
74
100
AcDbEntity
  8
0
  6
ByBlock
 62
     0
370
    -2
100
AcDbVertex
100
AcDb2dVertex
 10
5845.81562580378
 20
-2975.092573812129
 30
0.0
  0
VERTEX
  5
AB
330
74
100
AcDbEntity
  8
0
  6
ByBlock
 62
     0
370
    -2
100
AcDbVertex
100
AcDb2dVertex
 10
5845.725201325993
 20
-2975.042087339705
 30
0.0
  0
VERTEX
  5
AC
330
74
100
AcDbEntity
  8
0
  6
ByBlock
 62
     0
370
    -2
100
AcDbVertex
100
AcDb2dVertex
 10
5845.633088130388
 20
-2974.994752053964
 30
0.0
  0
VERTEX
  5
AD
330
74
100
AcDbEntity
  8
0
  6
ByBlock
 62
     0
370
    -2
100
AcDbVertex
100
AcDb2dVertex
 10
5845.53939599
 20
-2974.950624365261
 30
0.0
  0
VERTEX
  5
AE
330
74
100
AcDbEntity
  8
0
  6
ByBlock
 62
     0
370
    -2
100
AcDbVertex
100
AcDb2dVertex
 10
5845.444236559524
 20
-2974.909756861396
 30
0.0
  0
VERTEX
  5
AF
330
74
100
AcDbEntity
  8
0
  6
ByBlock
 62
     0
370
    -2
100
AcDbVertex
100
AcDb2dVertex
 10
5845.347723242251
 20
-2974.872198244947
 30
0.0
  0
VERTEX
  5
B0
330
74
100
AcDbEntity
  8
0
  6
ByBlock
 62
     0
370
    -2
100
AcDbVertex
100
AcDb2dVertex
 10
5845.249971054925
 20
-2974.837993275225
 30
0.0
  0
VERTEX
  5
B1
330
74
100
AcDbEntity
  8
0
  6
ByBlock
 62
     0
370
    -2
100
AcDbVertex
100
AcDb2dVertex
 10
5845.151096490675
 20
-2974.80718271494
 30
0.0
  0
VERTEX
  5
B2
330
74
100
AcDbEntity
  8
0
  6
ByBlock
 62
     0
370
    -2
100
AcDbVertex
100
AcDb2dVertex
 10
5845.051217380187
 20
-2974.779803281618
 30
0.0
  0
VERTEX
  5
B3
330
74
100
AcDbEntity
  8
0
  6
ByBlock
 62
     0
370
    -2
100
AcDbVertex
100
AcDb2dVertex
 10
5844.950452751286
 20
-2974.755887603848
 30
0.0
  0
VERTEX
  5
B4
330
74
100
AcDbEntity
  8
0
  6
ByBlock
 62
     0
370
    -2
100
AcDbVertex
100
AcDb2dVertex
 10
5844.848922687084
 20
-2974.735464182396
 30
0.0
  0
VERTEX
  5
B5
330
74
100
AcDbEntity
  8
0
  6
ByBlock
 62
     0
370
    -2
100
AcDbVertex
100
AcDb2dVertex
 10
5844.746748182877
 20
-2974.718557356238
 30
0.0
  0
VERTEX
  5
B6
330
74
100
AcDbEntity
  8
0
  6
ByBlock
 62
     0
370
    -2
100
AcDbVertex
100
AcDb2dVertex
 10
5844.644051001952
 20
-2974.705187273558
 30
0.0
  0
VERTEX
  5
B7
330
74
100
AcDbEntity
  8
0
  6
ByBlock
 62
     0
370
    -2
100
AcDbVertex
100
AcDb2dVertex
 10
5844.540953530482
 20
-2974.695369867736
 30
0.0
  0
VERTEX
  5
B8
330
74
100
AcDbEntity
  8
0
  6
ByBlock
 62
     0
370
    -2
100
AcDbVertex
100
AcDb2dVertex
 10
5844.43757863167
 20
-2974.689116838362
 30
0.0
  0
VERTEX
  5
B9
330
74
100
AcDbEntity
  8
0
  6
ByBlock
 62
     0
370
    -2
100
AcDbVertex
100
AcDb2dVertex
 10
5844.334049499337
 20
-2974.686435637288
 30
0.0
  0
VERTEX
  5
BA
330
74
100
AcDbEntity
  8
0
  6
ByBlock
 62
     0
370
    -2
100
AcDbVertex
100
AcDb2dVertex
 10
5844.230489511107
 20
-2974.687329459751
 30
0.0
  0
VERTEX
  5
BB
330
74
100
AcDbEntity
  8
0
  6
ByBlock
 62
     0
370
    -2
100
AcDbVertex
100
AcDb2dVertex
 10
5844.127022081376
 20
-2974.691797240567
 30
0.0
  0
VERTEX
  5
BC
330
74
100
AcDbEntity
  8
0
  6
ByBlock
 62
     0
370
    -2
100
AcDbVertex
100
AcDb2dVertex
 10
5844.023770514234
 20
-2974.699833655398
 30
0.0
  0
VERTEX
  5
BD
330
74
100
AcDbEntity
  8
0
  6
ByBlock
 62
     0
370
    -2
100
AcDbVertex
100
AcDb2dVertex
 10
5843.920857856523
 20
-2974.711429127095
 30
0.0
  0
VERTEX
  5
BE
330
74
100
AcDbEntity
  8
0
  6
ByBlock
 62
     0
370
    -2
100
AcDbVertex
100
AcDb2dVertex
 10
5843.818406751206
 20
-2974.726569837116
 30
0.0
  0
VERTEX
  5
BF
330
74
100
AcDbEntity
  8
0
  6
ByBlock
 62
     0
370
    -2
100
AcDbVertex
100
AcDb2dVertex
 10
5843.716539291198
 20
-2974.74523774199
 30
0.0
  0
VERTEX
  5
C0
330
74
100
AcDbEntity
  8
0
  6
ByBlock
 62
     0
370
    -2
100
AcDbVertex
100
AcDb2dVertex
 10
5843.615376873879
 20
-2974.767410594824
 30
0.0
  0
VERTEX
  5
C1
330
74
100
AcDbEntity
  8
0
  6
ByBlock
 62
     0
370
    -2
100
AcDbVertex
100
AcDb2dVertex
 10
5843.515040056411
 20
-2974.793061971808
 30
0.0
  0
VERTEX
  5
C2
330
74
100
AcDbEntity
  8
0
  6
ByBlock
 62
     0
370
    -2
100
AcDbVertex
100
AcDb2dVertex
 10
5843.415648412077
 20
-2974.822161303712
 30
0.0
  0
VERTEX
  5
C3
330
74
100
AcDbEntity
  8
0
  6
ByBlock
 62
     0
370
    -2
100
AcDbVertex
100
AcDb2dVertex
 10
5843.317320387777
 20
-2974.854673912312
 30
0.0
  0
VERTEX
  5
C4
330
74
100
AcDbEntity
  8
0
  6
ByBlock
 62
     0
370
    -2
100
AcDbVertex
100
AcDb2dVertex
 10
5843.220173162877
 20
-2974.890561051719
 30
0.0
  0
VERTEX
  5
C5
330
74
100
AcDbEntity
  8
0
  6
ByBlock
 62
     0
370
    -2
100
AcDbVertex
100
AcDb2dVertex
 10
5843.124322509559
 20
-2974.92977995455
 30
0.0
  0
VERTEX
  5
C6
330
74
100
AcDbEntity
  8
0
  6
ByBlock
 62
     0
370
    -2
100
AcDbVertex
100
AcDb2dVertex
 10
5843.029882654859
 20
-2974.972283882898
 30
0.0
  0
VERTEX
  5
C7
330
74
100
AcDbEntity
  8
0
  6
ByBlock
 62
     0
370
    -2
100
AcDbVertex
100
AcDb2dVertex
 10
5842.936966144536
 20
-2975.018022184026
 30
0.0
  0
VERTEX
  5
C8
330
74
100
AcDbEntity
  8
0
  6
ByBlock
 62
     0
370
    -2
100
AcDbVertex
100
AcDb2dVertex
 10
5842.845683708952
 20
-2975.06694035074
 30
0.0
  0
VERTEX
  5
C9
330
74
100
AcDbEntity
  8
0
  6
ByBlock
 62
     0
370
    -2
100
AcDbVertex
100
AcDb2dVertex
 10
5842.75614413111
 20
-2975.118980086333
 30
0.0
  0
VERTEX
  5
CA
330
74
100
AcDbEntity
  8
0
  6
ByBlock
 62
     0
370
    -2
100
AcDbVertex
100
AcDb2dVertex
 10
5842.668454117017
 20
-2975.174079374071
 30
0.0
  0
VERTEX
  5
CB
330
74
100
AcDbEntity
  8
0
  6
ByBlock
 62
     0
370
    -2
100
AcDbVertex
100
AcDb2dVertex
 10
5842.58271816852
 20
-2975.232172551089
 30
0.0
  0
VERTEX
  5
CC
330
74
100
AcDbEntity
  8
0
  6
ByBlock
 62
     0
370
    -2
100
AcDbVertex
100
AcDb2dVertex
 10
5842.49903845877
 20
-2975.293190386652
 30
0.0
  0
VERTEX
  5
CD
330
74
100
AcDbEntity
  8
0
  6
ByBlock
 62
     0
370
    -2
100
AcDbVertex
100
AcDb2dVertex
 10
5842.417514710458
 20
-2975.357060164652
 30
0.0
  0
VERTEX
  5
CE
330
74
100
AcDbEntity
  8
0
  6
ByBlock
 62
     0
370
    -2
100
AcDbVertex
100
AcDb2dVertex
 10
5842.338244076974
 20
-2975.423705770268
 30
0.0
  0
VERTEX
  5
CF
330
74
100
AcDbEntity
  8
0
  6
ByBlock
 62
     0
370
    -2
100
AcDbVertex
100
AcDb2dVertex
 10
5842.261321026632
 20
-2975.493047780671
 30
0.0
  0
VERTEX
  5
D0
330
74
100
AcDbEntity
  8
0
  6
ByBlock
 62
     0
370
    -2
100
AcDbVertex
100
AcDb2dVertex
 10
5842.186837230083
 20
-2975.565003559678
 30
0.0
  0
VERTEX
  5
D1
330
74
100
AcDbEntity
  8
0
  6
ByBlock
 62
     0
370
    -2
100
AcDbVertex
100
AcDb2dVertex
 10
5750.672118604321
 20
-2975.565003559678
 30
0.0
  0
VERTEX
  5
D2
330
74
100
AcDbEntity
  8
0
  6
ByBlock
 62
     0
370
    -2
100
AcDbVertex
100
AcDb2dVertex
 10
5750.597634807773
 20
-2975.493047780671
 30
0.0
  0
VERTEX
  5
D3
330
74
100
AcDbEntity
  8
0
  6
ByBlock
 62
     0
370
    -2
100
AcDbVertex
100
AcDb2dVertex
 10
5750.520711757431
 20
-2975.423705770268
 30
0.0
  0
VERTEX
  5
D4
330
74
100
AcDbEntity
  8
0
  6
ByBlock
 62
     0
370
    -2
100
AcDbVertex
100
AcDb2dVertex
 10
5750.441441123947
 20
-2975.357060164652
 30
0.0
  0
VERTEX
  5
D5
330
74
100
AcDbEntity
  8
0
  6
ByBlock
 62
     0
370
    -2
100
AcDbVertex
100
AcDb2dVertex
 10
5750.359917375635
 20
-2975.293190386652
 30
0.0
  0
VERTEX
  5
D6
330
74
100
AcDbEntity
  8
0
  6
ByBlock
 62
     0
370
    -2
100
AcDbVertex
100
AcDb2dVertex
 10
5750.276237665885
 20
-2975.232172551089
 30
0.0
  0
VERTEX
  5
D7
330
74
100
AcDbEntity
  8
0
  6
ByBlock
 62
     0
370
    -2
100
AcDbVertex
100
AcDb2dVertex
 10
5750.190501717388
 20
-2975.174079374071
 30
0.0
  0
VERTEX
  5
D8
330
74
100
AcDbEntity
  8
0
  6
ByBlock
 62
     0
370
    -2
100
AcDbVertex
100
AcDb2dVertex
 10
5750.102811703295
 20
-2975.118980086333
 30
0.0
  0
VERTEX
  5
D9
330
74
100
AcDbEntity
  8
0
  6
ByBlock
 62
     0
370
    -2
100
AcDbVertex
100
AcDb2dVertex
 10
5750.013272125453
 20
-2975.06694035074
 30
0.0
  0
VERTEX
  5
DA
330
74
100
AcDbEntity
  8
0
  6
ByBlock
 62
     0
370
    -2
100
AcDbVertex
100
AcDb2dVertex
 10
5749.921989689868
 20
-2975.018022184026
 30
0.0
  0
VERTEX
  5
DB
330
74
100
AcDbEntity
  8
0
  6
ByBlock
 62
     0
370
    -2
100
AcDbVertex
100
AcDb2dVertex
 10
5749.829073179546
 20
-2974.972283882898
 30
0.0
  0
VERTEX
  5
DC
330
74
100
AcDbEntity
  8
0
  6
ByBlock
 62
     0
370
    -2
100
AcDbVertex
100
AcDb2dVertex
 10
5749.734633324846
 20
-2974.92977995455
 30
0.0
  0
VERTEX
  5
DD
330
74
100
AcDbEntity
  8
0
  6
ByBlock
 62
     0
370
    -2
100
AcDbVertex
100
AcDb2dVertex
 10
5749.638782671528
 20
-2974.890561051719
 30
0.0
  0
VERTEX
  5
DE
330
74
100
AcDbEntity
  8
0
  6
ByBlock
 62
     0
370
    -2
100
AcDbVertex
100
AcDb2dVertex
 10
5749.541635446628
 20
-2974.854673912312
 30
0.0
  0
VERTEX
  5
DF
330
74
100
AcDbEntity
  8
0
  6
ByBlock
 62
     0
370
    -2
100
AcDbVertex
100
AcDb2dVertex
 10
5749.443307422328
 20
-2974.822161303712
 30
0.0
  0
VERTEX
  5
E0
330
74
100
AcDbEntity
  8
0
  6
ByBlock
 62
     0
370
    -2
100
AcDbVertex
100
AcDb2dVertex
 10
5749.343915777994
 20
-2974.793061971808
 30
0.0
  0
VERTEX
  5
E1
330
74
100
AcDbEntity
  8
0
  6
ByBlock
 62
     0
370
    -2
100
AcDbVertex
100
AcDb2dVertex
 10
5749.243578960526
 20
-2974.767410594824
 30
0.0
  0
VERTEX
  5
E2
330
74
100
AcDbEntity
  8
0
  6
ByBlock
 62
     0
370
    -2
100
AcDbVertex
100
AcDb2dVertex
 10
5749.142416543206
 20
-2974.74523774199
 30
0.0
  0
VERTEX
  5
E3
330
74
100
AcDbEntity
  8
0
  6
ByBlock
 62
     0
370
    -2
100
AcDbVertex
100
AcDb2dVertex
 10
5749.040549083199
 20
-2974.726569837116
 30
0.0
  0
VERTEX
  5
E4
330
74
100
AcDbEntity
  8
0
  6
ByBlock
 62
     0
370
    -2
100
AcDbVertex
100
AcDb2dVertex
 10
5748.938097977882
 20
-2974.711429127095
 30
0.0
  0
VERTEX
  5
E5
330
74
100
AcDbEntity
  8
0
  6
ByBlock
 62
     0
370
    -2
100
AcDbVertex
100
AcDb2dVertex
 10
5748.835185320171
 20
-2974.699833655398
 30
0.0
  0
VERTEX
  5
E6
330
74
100
AcDbEntity
  8
0
  6
ByBlock
 62
     0
370
    -2
100
AcDbVertex
100
AcDb2dVertex
 10
5748.73193375303
 20
-2974.691797240568
 30
0.0
  0
VERTEX
  5
E7
330
74
100
AcDbEntity
  8
0
  6
ByBlock
 62
     0
370
    -2
100
AcDbVertex
100
AcDb2dVertex
 10
5748.628466323297
 20
-2974.687329459751
 30
0.0
  0
VERTEX
  5
E8
330
74
100
AcDbEntity
  8
0
  6
ByBlock
 62
     0
370
    -2
100
AcDbVertex
100
AcDb2dVertex
 10
5748.524906335067
 20
-2974.686435637288
 30
0.0
  0
VERTEX
  5
E9
330
74
100
AcDbEntity
  8
0
  6
ByBlock
 62
     0
370
    -2
100
AcDbVertex
100
AcDb2dVertex
 10
5748.421377202735
 20
-2974.689116838362
 30
0.0
  0
VERTEX
  5
EA
330
74
100
AcDbEntity
  8
0
  6
ByBlock
 62
     0
370
    -2
100
AcDbVertex
100
AcDb2dVertex
 10
5748.318002303923
 20
-2974.695369867736
 30
0.0
  0
VERTEX
  5
EB
330
74
100
AcDbEntity
  8
0
  6
ByBlock
 62
     0
370
    -2
100
AcDbVertex
100
AcDb2dVertex
 10
5748.214904832453
 20
-2974.705187273558
 30
0.0
  0
VERTEX
  5
EC
330
74
100
AcDbEntity
  8
0
  6
ByBlock
 62
     0
370
    -2
100
AcDbVertex
100
AcDb2dVertex
 10
5748.112207651528
 20
-2974.718557356238
 30
0.0
  0
VERTEX
  5
ED
330
74
100
AcDbEntity
  8
0
  6
ByBlock
 62
     0
370
    -2
100
AcDbVertex
100
AcDb2dVertex
 10
5748.01003314732
 20
-2974.735464182396
 30
0.0
  0
VERTEX
  5
EE
330
74
100
AcDbEntity
  8
0
  6
ByBlock
 62
     0
370
    -2
100
AcDbVertex
100
AcDb2dVertex
 10
5747.908503083118
 20
-2974.755887603848
 30
0.0
  0
VERTEX
  5
EF
330
74
100
AcDbEntity
  8
0
  6
ByBlock
 62
     0
370
    -2
100
AcDbVertex
100
AcDb2dVertex
 10
5747.807738454218
 20
-2974.779803281618
 30
0.0
  0
VERTEX
  5
F0
330
74
100
AcDbEntity
  8
0
  6
ByBlock
 62
     0
370
    -2
100
AcDbVertex
100
AcDb2dVertex
 10
5747.70785934373
 20
-2974.807182714939
 30
0.0
  0
VERTEX
  5
F1
330
74
100
AcDbEntity
  8
0
  6
ByBlock
 62
     0
370
    -2
100
AcDbVertex
100
AcDb2dVertex
 10
5747.60898477948
 20
-2974.837993275225
 30
0.0
  0
VERTEX
  5
F2
330
74
100
AcDbEntity
  8
0
  6
ByBlock
 62
     0
370
    -2
100
AcDbVertex
100
AcDb2dVertex
 10
5747.511232592154
 20
-2974.872198244947
 30
0.0
  0
VERTEX
  5
F3
330
74
100
AcDbEntity
  8
0
  6
ByBlock
 62
     0
370
    -2
100
AcDbVertex
100
AcDb2dVertex
 10
5747.414719274881
 20
-2974.909756861396
 30
0.0
  0
VERTEX
  5
F4
330
74
100
AcDbEntity
  8
0
  6
ByBlock
 62
     0
370
    -2
100
AcDbVertex
100
AcDb2dVertex
 10
5747.319559844404
 20
-2974.950624365261
 30
0.0
  0
VERTEX
  5
F5
330
74
100
AcDbEntity
  8
0
  6
ByBlock
 62
     0
370
    -2
100
AcDbVertex
100
AcDb2dVertex
 10
5747.225867704016
 20
-2974.994752053964
 30
0.0
  0
VERTEX
  5
F6
330
74
100
AcDbEntity
  8
0
  6
ByBlock
 62
     0
370
    -2
100
AcDbVertex
100
AcDb2dVertex
 10
5747.133754508412
 20
-2975.042087339705
 30
0.0
  0
VERTEX
  5
F7
330
74
100
AcDbEntity
  8
0
  6
ByBlock
 62
     0
370
    -2
100
AcDbVertex
100
AcDb2dVertex
 10
5747.043330030625
 20
-2975.092573812129
 30
0.0
  0
VERTEX
  5
F8
330
74
100
AcDbEntity
  8
0
  6
ByBlock
 62
     0
370
    -2
100
AcDbVertex
100
AcDb2dVertex
 10
5746.954702031217
 20
-2975.146151305552
 30
0.0
  0
VERTEX
  5
F9
330
74
100
AcDbEntity
  8
0
  6
ByBlock
 62
     0
370
    -2
100
AcDbVertex
100
AcDb2dVertex
 10
5746.867976129848
 20
-2975.202755970665
 30
0.0
  0
VERTEX
  5
FA
330
74
100
AcDbEntity
  8
0
  6
ByBlock
 62
     0
370
    -2
100
AcDbVertex
100
AcDb2dVertex
 10
5746.783255679413
 20
-2975.262320350616
 30
0.0
  0
VERTEX
  5
FB
330
74
100
AcDbEntity
  8
0
  6
ByBlock
 62
     0
370
    -2
100
AcDbVertex
100
AcDb2dVertex
 10
5746.700641642877
 20
-2975.324773461411
 30
0.0
  0
VERTEX
  5
FC
330
74
100
AcDbEntity
  8
0
  6
ByBlock
 62
     0
370
    -2
100
AcDbVertex
100
AcDb2dVertex
 10
5746.620232472946
 20
-2975.390040876494
 30
0.0
  0
VERTEX
  5
FD
330
74
100
AcDbEntity
  8
0
  6
ByBlock
 62
     0
370
    -2
100
AcDbVertex
100
AcDb2dVertex
 10
5746.542123994747
 20
-2975.458044815455
 30
0.0
  0
VERTEX
  5
FE
330
74
100
AcDbEntity
  8
0
  6
ByBlock
 62
     0
370
    -2
100
AcDbVertex
100
AcDb2dVertex
 10
5746.466409291631
 20
-2975.528704236715
 30
0.0
  0
VERTEX
  5
FF
330
74
100
AcDbEntity
  8
0
  6
ByBlock
 62
     0
370
    -2
100
AcDbVertex
100
AcDb2dVertex
 10
5746.39317859424
 20
-2975.601934934106
 30
0.0
  0
VERTEX
  5
100
330
74
100
AcDbEntity
  8
0
  6
ByBlock
 62
     0
370
    -2
100
AcDbVertex
100
AcDb2dVertex
 10
5746.322519172981
 20
-2975.677649637222
 30
0.0
  0
VERTEX
  5
101
330
74
100
AcDbEntity
  8
0
  6
ByBlock
 62
     0
370
    -2
100
AcDbVertex
100
AcDb2dVertex
 10
5746.254515234019
 20
-2975.755758115421
 30
0.0
  0
VERTEX
  5
102
330
74
100
AcDbEntity
  8
0
  6
ByBlock
 62
     0
370
    -2
100
AcDbVertex
100
AcDb2dVertex
 10
5746.189247818936
 20
-2975.836167285352
 30
0.0
  0
VERTEX
  5
103
330
74
100
AcDbEntity
  8
0
  6
ByBlock
 62
     0
370
    -2
100
AcDbVertex
100
AcDb2dVertex
 10
5746.126794708141
 20
-2975.918781321889
 30
0.0
  0
VERTEX
  5
104
330
74
100
AcDbEntity
  8
0
  6
ByBlock
 62
     0
370
    -2
100
AcDbVertex
100
AcDb2dVertex
 10
5746.06723032819
 20
-2976.003501772322
 30
0.0
  0
VERTEX
  5
105
330
74
100
AcDbEntity
  8
0
  6
ByBlock
 62
     0
370
    -2
100
AcDbVertex
100
AcDb2dVertex
 10
5746.010625663077
 20
-2976.090227673691
 30
0.0
  0
VERTEX
  5
106
330
74
100
AcDbEntity
  8
0
  6
ByBlock
 62
     0
370
    -2
100
AcDbVertex
100
AcDb2dVertex
 10
5745.957048169654
 20
-2976.1788556731
 30
0.0
  0
VERTEX
  5
107
330
74
100
AcDbEntity
  8
0
  6
ByBlock
 62
     0
370
    -2
100
AcDbVertex
100
AcDb2dVertex
 10
5745.90656169723
 20
-2976.269280150886
 30
0.0
  0
VERTEX
  5
108
330
74
100
AcDbEntity
  8
0
  6
ByBlock
 62
     0
370
    -2
100
AcDbVertex
100
AcDb2dVertex
 10
5745.85922641149
 20
-2976.361393346491
 30
0.0
  0
VERTEX
  5
109
330
74
100
AcDbEntity
  8
0
  6
ByBlock
 62
     0
370
    -2
100
AcDbVertex
100
AcDb2dVertex
 10
5745.815098722786
 20
-2976.455085486879
 30
0.0
  0
VERTEX
  5
10A
330
74
100
AcDbEntity
  8
0
  6
ByBlock
 62
     0
370
    -2
100
AcDbVertex
100
AcDb2dVertex
 10
5745.774231218922
 20
-2976.550244917355
 30
0.0
  0
VERTEX
  5
10B
330
74
100
AcDbEntity
  8
0
  6
ByBlock
 62
     0
370
    -2
100
AcDbVertex
100
AcDb2dVertex
 10
5745.736672602471
 20
-2976.646758234629
 30
0.0
  0
VERTEX
  5
10C
330
74
100
AcDbEntity
  8
0
  6
ByBlock
 62
     0
370
    -2
100
AcDbVertex
100
AcDb2dVertex
 10
5745.70246763275
 20
-2976.744510421955
 30
0.0
  0
VERTEX
  5
10D
330
74
100
AcDbEntity
  8
0
  6
ByBlock
 62
     0
370
    -2
100
AcDbVertex
100
AcDb2dVertex
 10
5745.671657072465
 20
-2976.843384986205
 30
0.0
  0
VERTEX
  5
10E
330
74
100
AcDbEntity
  8
0
  6
ByBlock
 62
     0
370
    -2
100
AcDbVertex
100
AcDb2dVertex
 10
5745.644277639143
 20
-2976.943264096692
 30
0.0
  0
VERTEX
  5
10F
330
74
100
AcDbEntity
  8
0
  6
ByBlock
 62
     0
370
    -2
100
AcDbVertex
100
AcDb2dVertex
 10
5745.620361961374
 20
-2977.044028725593
 30
0.0
  0
VERTEX
  5
110
330
74
100
AcDbEntity
  8
0
  6
ByBlock
 62
     0
370
    -2
100
AcDbVertex
100
AcDb2dVertex
 10
5745.599938539921
 20
-2977.145558789795
 30
0.0
  0
VERTEX
  5
111
330
74
100
AcDbEntity
  8
0
  6
ByBlock
 62
     0
370
    -2
100
AcDbVertex
100
AcDb2dVertex
 10
5745.583031713762
 20
-2977.247733294003
 30
0.0
  0
VERTEX
  5
112
330
74
100
AcDbEntity
  8
0
  6
ByBlock
 62
     0
370
    -2
100
AcDbVertex
100
AcDb2dVertex
 10
5745.569661631082
 20
-2977.350430474927
 30
0.0
  0
VERTEX
  5
113
330
74
100
AcDbEntity
  8
0
  6
ByBlock
 62
     0
370
    -2
100
AcDbVertex
100
AcDb2dVertex
 10
5745.559844225262
 20
-2977.453527946398
 30
0.0
  0
VERTEX
  5
114
330
74
100
AcDbEntity
  8
0
  6
ByBlock
 62
     0
370
    -2
100
AcDbVertex
100
AcDb2dVertex
 10
5745.553591195888
 20
-2977.55690284521
 30
0.0
  0
VERTEX
  5
115
330
74
100
AcDbEntity
  8
0
  6
ByBlock
 62
     0
370
    -2
100
AcDbVertex
100
AcDb2dVertex
 10
5745.550909994812
 20
-2977.660431977543
 30
0.0
  0
VERTEX
  5
116
330
74
100
AcDbEntity
  8
0
  6
ByBlock
 62
     0
370
    -2
100
AcDbVertex
100
AcDb2dVertex
 10
5745.551803817277
 20
-2977.763991965772
 30
0.0
  0
VERTEX
  5
117
330
74
100
AcDbEntity
  8
0
  6
ByBlock
 62
     0
370
    -2
100
AcDbVertex
100
AcDb2dVertex
 10
5745.556271598092
 20
-2977.867459395504
 30
0.0
  0
VERTEX
  5
118
330
74
100
AcDbEntity
  8
0
  6
ByBlock
 62
     0
370
    -2
100
AcDbVertex
100
AcDb2dVertex
 10
5745.564308012923
 20
-2977.970710962647
 30
0.0
  0
VERTEX
  5
119
330
74
100
AcDbEntity
  8
0
  6
ByBlock
 62
     0
370
    -2
100
AcDbVertex
100
AcDb2dVertex
 10
5745.57590348462
 20
-2978.073623620356
 30
0.0
  0
VERTEX
  5
11A
330
74
100
AcDbEntity
  8
0
  6
ByBlock
 62
     0
370
    -2
100
AcDbVertex
100
AcDb2dVertex
 10
5745.591044194641
 20
-2978.176074725674
 30
0.0
  0
VERTEX
  5
11B
330
74
100
AcDbEntity
  8
0
  6
ByBlock
 62
     0
370
    -2
100
AcDbVertex
100
AcDb2dVertex
 10
5745.609712099515
 20
-2978.277942185681
 30
0.0
  0
VERTEX
  5
11C
330
74
100
AcDbEntity
  8
0
  6
ByBlock
 62
     0
370
    -2
100
AcDbVertex
100
AcDb2dVertex
 10
5745.631884952349
 20
-2978.379104603001
 30
0.0
  0
VERTEX
  5
11D
330
74
100
AcDbEntity
  8
0
  6
ByBlock
 62
     0
370
    -2
100
AcDbVertex
100
AcDb2dVertex
 10
5745.657536329332
 20
-2978.479441420468
 30
0.0
  0
VERTEX
  5
11E
330
74
100
AcDbEntity
  8
0
  6
ByBlock
 62
     0
370
    -2
100
AcDbVertex
100
AcDb2dVertex
 10
5745.686635661236
 20
-2978.578833064803
 30
0.0
  0
VERTEX
  5
11F
330
74
100
AcDbEntity
  8
0
  6
ByBlock
 62
     0
370
    -2
100
AcDbVertex
100
AcDb2dVertex
 10
5745.719148269837
 20
-2978.677161089103
 30
0.0
  0
VERTEX
  5
120
330
74
100
AcDbEntity
  8
0
  6
ByBlock
 62
     0
370
    -2
100
AcDbVertex
100
AcDb2dVertex
 10
5745.755035409245
 20
-2978.774308314004
 30
0.0
  0
VERTEX
  5
121
330
74
100
AcDbEntity
  8
0
  6
ByBlock
 62
     0
370
    -2
100
AcDbVertex
100
AcDb2dVertex
 10
5745.794254312075
 20
-2978.870158967321
 30
0.0
  0
VERTEX
  5
122
330
74
100
AcDbEntity
  8
0
  6
ByBlock
 62
     0
370
    -2
100
AcDbVertex
100
AcDb2dVertex
 10
5745.836758240423
 20
-2978.964598822022
 30
0.0
  0
VERTEX
  5
123
330
74
100
AcDbEntity
  8
0
  6
ByBlock
 62
     0
370
    -2
100
AcDbVertex
100
AcDb2dVertex
 10
5745.882496541552
 20
-2979.057515332344
 30
0.0
  0
VERTEX
  5
124
330
74
100
AcDbEntity
  8
0
  6
ByBlock
 62
     0
370
    -2
100
AcDbVertex
100
AcDb2dVertex
 10
5745.931414708265
 20
-2979.148797767928
 30
0.0
  0
VERTEX
  5
125
330
74
100
AcDbEntity
  8
0
  6
ByBlock
 62
     0
370
    -2
100
AcDbVertex
100
AcDb2dVertex
 10
5745.983454443858
 20
-2979.238337345771
 30
0.0
  0
VERTEX
  5
126
330
74
100
AcDbEntity
  8
0
  6
ByBlock
 62
     0
370
    -2
100
AcDbVertex
100
AcDb2dVertex
 10
5746.038553731595
 20
-2979.326027359863
 30
0.0
  0
VERTEX
  5
127
330
74
100
AcDbEntity
  8
0
  6
ByBlock
 62
     0
370
    -2
100
AcDbVertex
100
AcDb2dVertex
 10
5746.096646908614
 20
-2979.411763308359
 30
0.0
  0
VERTEX
  5
128
330
74
100
AcDbEntity
  8
0
  6
ByBlock
 62
     0
370
    -2
100
AcDbVertex
100
AcDb2dVertex
 10
5746.157664744177
 20
-2979.49544301811
 30
0.0
  0
VERTEX
  5
129
330
74
100
AcDbEntity
  8
0
  6
ByBlock
 62
     0
370
    -2
100
AcDbVertex
100
AcDb2dVertex
 10
5746.221534522178
 20
-2979.576966766423
 30
0.0
  0
VERTEX
  5
12A
330
74
100
AcDbEntity
  8
0
  6
ByBlock
 62
     0
370
    -2
100
AcDbVertex
100
AcDb2dVertex
 10
5746.288180127794
 20
-2979.656237399906
 30
0.0
  0
VERTEX
  5
12B
330
74
100
AcDbEntity
  8
0
  6
ByBlock
 62
     0
370
    -2
100
AcDbVertex
100
AcDb2dVertex
 10
5746.357522138196
 20
-2979.733160450249
 30
0.0
  0
VERTEX
  5
12C
330
74
100
AcDbEntity
  8
0
  6
ByBlock
 62
     0
370
    -2
100
AcDbVertex
100
AcDb2dVertex
 10
5746.429477917203
 20
-2979.807644246797
 30
0.0
  0
VERTEX
  5
12D
330
74
100
AcDbEntity
  8
0
  6
ByBlock
 62
     0
370
    -2
100
AcDbVertex
100
AcDb2dVertex
 10
5746.429477917202
 20
-3008.565003559678
 30
0.0
  0
VERTEX
  5
12E
330
74
100
AcDbEntity
  8
0
  6
ByBlock
 62
     0
370
    -2
100
AcDbVertex
100
AcDb2dVertex
 10
5541.429477917202
 20
-3008.565003559678
 30
0.0
  0
VERTEX
  5
12F
330
74
100
AcDbEntity
  8
0
  6
ByBlock
 62
     0
370
    -2
100
AcDbVertex
100
AcDb2dVertex
 10
5541.429477917202
 20
-2975.565003559678
 30
0.0
  0
VERTEX
  5
130
330
74
100
AcDbEntity
  8
0
  6
ByBlock
 62
     0
370
    -2
100
AcDbVertex
100
AcDb2dVertex
 10
5541.429477917202
 20
-2648.565003559678
 30
0.0
  0
VERTEX
  5
131
330
74
100
AcDbEntity
  8
0
  6
ByBlock
 62
     0
370
    -2
100
AcDbVertex
100
AcDb2dVertex
 10
6051.429477917202
 20
-2648.565003559678
 30
0.0
  0
VERTEX
  5
132
330
74
100
AcDbEntity
  8
0
  6
ByBlock
 62
     0
370
    -2
100
AcDbVertex
100
AcDb2dVertex
 10
6051.429477917202
 20
-2975.565003559678
 30
0.0
  0
VERTEX
  5
133
330
74
100
AcDbEntity
  8
0
  6
ByBlock
 62
     0
370
    -2
100
AcDbVertex
100
AcDb2dVertex
 10
6051.429477917202
 20
-3008.565003559678
 30
0.0
  0
VERTEX
  5
134
330
74
100
AcDbEntity
  8
0
  6
ByBlock
 62
     0
370
    -2
100
AcDbVertex
100
AcDb2dVertex
 10
5846.429477917202
 20
-3008.565003559678
 30
0.0
  0
SEQEND
  5
135
330
74
100
AcDbEntity
  8
0
  6
ByBlock
 62
     0
370
    -2
  0
POLYLINE
  5
137
330
1F
100
AcDbEntity
  8
Default
100
AcDb2dPolyline
 66
     1
 10
0.0
 20
0.0
 30
0.0
 70
     1
  0
VERTEX
  5
138
330
137
100
AcDbEntity
  8
Default
100
AcDbVertex
100
AcDb2dVertex
 10
5566.429477917202
 20
-2784.565003559678
 30
0.0
  0
VERTEX
  5
139
330
137
100
AcDbEntity
  8
Default
100
AcDbVertex
100
AcDb2dVertex
 10
5566.432975783006
 20
-2784.360156898562
 30
0.0
  0
VERTEX
  5
13A
330
137
100
AcDbEntity
  8
Default
100
AcDbVertex
100
AcDb2dVertex
 10
5566.443465302059
 20
-2784.15554907949
 30
0.0
  0
VERTEX
  5
13B
330
137
100
AcDbEntity
  8
Default
100
AcDbVertex
100
AcDb2dVertex
 10
5566.460934244054
 20
-2783.951418666025
 30
0.0
  0
VERTEX
  5
13C
330
137
100
AcDbEntity
  8
Default
100
AcDbVertex
100
AcDb2dVertex
 10
5566.485362240985
 20
-2783.7480036651
 30
0.0
  0
VERTEX
  5
13D
330
137
100
AcDbEntity
  8
Default
100
AcDbVertex
100
AcDb2dVertex
 10
5566.516720810899
 20
-2783.545541249506
 30
0.0
  0
VERTEX
  5
13E
330
137
100
AcDbEntity
  8
Default
100
AcDbVertex
100
AcDb2dVertex
 10
5566.554973391108
 20
-2783.344267481362
 30
0.0
  0
VERTEX
  5
13F
330
137
100
AcDbEntity
  8
Default
100
AcDbVertex
100
AcDb2dVertex
 10
5566.600075380815
 20
-2783.144417036879
 30
0.0
  0
VERTEX
  5
140
330
137
100
AcDbEntity
  8
Default
100
AcDbVertex
100
AcDb2dVertex
 10
5566.651974193115
 20
-2782.946222932736
 30
0.0
  0
VERTEX
  5
141
330
137
100
AcDbEntity
  8
Default
100
AcDbVertex
100
AcDb2dVertex
 10
5566.710609316317
 20
-2782.749916254391
 30
0.0
  0
VERTEX
  5
142
330
137
100
AcDbEntity
  8
Default
100
AcDbVertex
100
AcDb2dVertex
 10
5566.77591238449
 20
-2782.555725886652
 30
0.0
  0
VERTEX
  5
143
330
137
100
AcDbEntity
  8
Default
100
AcDbVertex
100
AcDb2dVertex
 10
5566.847807257175
 20
-2782.363878246799
 30
0.0
  0
VERTEX
  5
144
330
137
100
AcDbEntity
  8
Default
100
AcDbVertex
100
AcDb2dVertex
 10
5566.926210108169
 20
-2782.1745970206
 30
0.0
  0
VERTEX
  5
145
330
137
100
AcDbEntity
  8
Default
100
AcDbVertex
100
AcDb2dVertex
 10
5567.011029523255
 20
-2781.988102901497
 30
0.0
  0
VERTEX
  5
146
330
137
100
AcDbEntity
  8
Default
100
AcDbVertex
100
AcDb2dVertex
 10
5567.102166606788
 20
-2781.804613333291
 30
0.0
  0
VERTEX
  5
147
330
137
100
AcDbEntity
  8
Default
100
AcDbVertex
100
AcDb2dVertex
 10
5567.199515097006
 20
-2781.624342256609
 30
0.0
  0
VERTEX
  5
148
330
137
100
AcDbEntity
  8
Default
100
AcDbVertex
100
AcDb2dVertex
 10
5567.302961489923
 20
-2781.447499859465
 30
0.0
  0
VERTEX
  5
149
330
137
100
AcDbEntity
  8
Default
100
AcDbVertex
100
AcDb2dVertex
 10
5567.412385171674
 20
-2781.274292332182
 30
0.0
  0
VERTEX
  5
14A
330
137
100
AcDbEntity
  8
Default
100
AcDbVertex
100
AcDb2dVertex
 10
5567.52765855914
 20
-2781.104921626988
 30
0.0
  0
VERTEX
  5
14B
330
137
100
AcDbEntity
  8
Default
100
AcDbVertex
100
AcDb2dVertex
 10
5567.648647248707
 20
-2780.939585222551
 30
0.0
  0
VERTEX
  5
14C
330
137
100
AcDbEntity
  8
Default
100
AcDbVertex
100
AcDb2dVertex
 10
5567.775210172976
 20
-2780.778475893721
 30
0.0
  0
VERTEX
  5
14D
330
137
100
AcDbEntity
  8
Default
100
AcDbVertex
100
AcDb2dVertex
 10
5567.907199765238
 20
-2780.62178148677
 30
0.0
  0
VERTEX
  5
14E
330
137
100
AcDbEntity
  8
Default
100
AcDbVertex
100
AcDb2dVertex
 10
5568.044462131534
 20
-2780.469684700366
 30
0.0
  0
VERTEX
  5
14F
330
137
100
AcDbEntity
  8
Default
100
AcDbVertex
100
AcDb2dVertex
 10
5568.186837230083
 20
-2780.322362872559
 30
0.0
  0
VERTEX
  5
150
330
137
100
AcDbEntity
  8
Default
100
AcDbVertex
100
AcDb2dVertex
 10
5568.33415905789
 20
-2780.179987774009
 30
0.0
  0
VERTEX
  5
151
330
137
100
AcDbEntity
  8
Default
100
AcDbVertex
100
AcDb2dVertex
 10
5568.486255844295
 20
-2780.042725407714
 30
0.0
  0
VERTEX
  5
152
330
137
100
AcDbEntity
  8
Default
100
AcDbVertex
100
AcDb2dVertex
 10
5568.642950251246
 20
-2779.910735815451
 30
0.0
  0
VERTEX
  5
153
330
137
100
AcDbEntity
  8
Default
100
AcDbVertex
100
AcDb2dVertex
 10
5568.804059580076
 20
-2779.784172891182
 30
0.0
  0
VERTEX
  5
154
330
137
100
AcDbEntity
  8
Default
100
AcDbVertex
100
AcDb2dVertex
 10
5568.969395984514
 20
-2779.663184201615
 30
0.0
  0
VERTEX
  5
155
330
137
100
AcDbEntity
  8
Default
100
AcDbVertex
100
AcDb2dVertex
 10
5569.138766689706
 20
-2779.547910814149
 30
0.0
  0
VERTEX
  5
156
330
137
100
AcDbEntity
  8
Default
100
AcDbVertex
100
AcDb2dVertex
 10
5569.31197421699
 20
-2779.438487132399
 30
0.0
  0
VERTEX
  5
157
330
137
100
AcDbEntity
  8
Default
100
AcDbVertex
100
AcDb2dVertex
 10
5569.488816614135
 20
-2779.335040739481
 30
0.0
  0
VERTEX
  5
158
330
137
100
AcDbEntity
  8
Default
100
AcDbVertex
100
AcDb2dVertex
 10
5569.669087690815
 20
-2779.237692249264
 30
0.0
  0
VERTEX
  5
159
330
137
100
AcDbEntity
  8
Default
100
AcDbVertex
100
AcDb2dVertex
 10
5569.852577259022
 20
-2779.146555165731
 30
0.0
  0
VERTEX
  5
15A
330
137
100
AcDbEntity
  8
Default
100
AcDbVertex
100
AcDb2dVertex
 10
5570.039071378125
 20
-2779.061735750645
 30
0.0
  0
VERTEX
  5
15B
330
137
100
AcDbEntity
  8
Default
100
AcDbVertex
100
AcDb2dVertex
 10
5570.228352604324
 20
-2778.983332899651
 30
0.0
  0
VERTEX
  5
15C
330
137
100
AcDbEntity
  8
Default
100
AcDbVertex
100
AcDb2dVertex
 10
5570.420200244176
 20
-2778.911438026965
 30
0.0
  0
VERTEX
  5
15D
330
137
100
AcDbEntity
  8
Default
100
AcDbVertex
100
AcDb2dVertex
 10
5570.614390611916
 20
-2778.846134958793
 30
0.0
  0
VERTEX
  5
15E
330
137
100
AcDbEntity
  8
Default
100
AcDbVertex
100
AcDb2dVertex
 10
5570.810697290261
 20
-2778.787499835591
 30
0.0
  0
VERTEX
  5
15F
330
137
100
AcDbEntity
  8
Default
100
AcDbVertex
100
AcDb2dVertex
 10
5571.008891394404
 20
-2778.73560102329
 30
0.0
  0
VERTEX
  5
160
330
137
100
AcDbEntity
  8
Default
100
AcDbVertex
100
AcDb2dVertex
 10
5571.208741838886
 20
-2778.690499033584
 30
0.0
  0
VERTEX
  5
161
330
137
100
AcDbEntity
  8
Default
100
AcDbVertex
100
AcDb2dVertex
 10
5571.410015607031
 20
-2778.652246453375
 30
0.0
  0
VERTEX
  5
162
330
137
100
AcDbEntity
  8
Default
100
AcDbVertex
100
AcDb2dVertex
 10
5571.612478022625
 20
-2778.62088788346
 30
0.0
  0
VERTEX
  5
163
330
137
100
AcDbEntity
  8
Default
100
AcDbVertex
100
AcDb2dVertex
 10
5571.81589302355
 20
-2778.596459886529
 30
0.0
  0
VERTEX
  5
164
330
137
100
AcDbEntity
  8
Default
100
AcDbVertex
100
AcDb2dVertex
 10
5572.020023437014
 20
-2778.578990944534
 30
0.0
  0
VERTEX
  5
165
330
137
100
AcDbEntity
  8
Default
100
AcDbVertex
100
AcDb2dVertex
 10
5572.224631256086
 20
-2778.568501425481
 30
0.0
  0
VERTEX
  5
166
330
137
100
AcDbEntity
  8
Default
100
AcDbVertex
100
AcDb2dVertex
 10
5572.429477917202
 20
-2778.565003559678
 30
0.0
  0
VERTEX
  5
167
330
137
100
AcDbEntity
  8
Default
100
AcDbVertex
100
AcDb2dVertex
 10
5591.429477917201
 20
-2778.565003559678
 30
0.0
  0
VERTEX
  5
168
330
137
100
AcDbEntity
  8
Default
100
AcDbVertex
100
AcDb2dVertex
 10
5591.770889019062
 20
-2778.570833336016
 30
0.0
  0
VERTEX
  5
169
330
137
100
AcDbEntity
  8
Default
100
AcDbVertex
100
AcDb2dVertex
 10
5592.111902050849
 20
-2778.588315867773
 30
0.0
  0
VERTEX
  5
16A
330
137
100
AcDbEntity
  8
Default
100
AcDbVertex
100
AcDb2dVertex
 10
5592.452119406622
 20
-2778.617430771097
 30
0.0
  0
VERTEX
  5
16B
330
137
100
AcDbEntity
  8
Default
100
AcDbVertex
100
AcDb2dVertex
 10
5592.791144408164
 20
-2778.658144099315
 30
0.0
  0
VERTEX
  5
16C
330
137
100
AcDbEntity
  8
Default
100
AcDbVertex
100
AcDb2dVertex
 10
5593.128581767488
 20
-2778.710408382506
 30
0.0
  0
VERTEX
  5
16D
330
137
100
AcDbEntity
  8
Default
100
AcDbVertex
100
AcDb2dVertex
 10
5593.464038047728
 20
-2778.774162682855
 30
0.0
  0
VERTEX
  5
16E
330
137
100
AcDbEntity
  8
Default
100
AcDbVertex
100
AcDb2dVertex
 10
5593.797122121866
 20
-2778.849332665699
 30
0.0
  0
VERTEX
  5
16F
330
137
100
AcDbEntity
  8
Default
100
AcDbVertex
100
AcDb2dVertex
 10
5594.127445628772
 20
-2778.9358306862
 30
0.0
  0
VERTEX
  5
170
330
137
100
AcDbEntity
  8
Default
100
AcDbVertex
100
AcDb2dVertex
 10
5594.454623426012
 20
-2779.033555891536
 30
0.0
  0
VERTEX
  5
171
330
137
100
AcDbEntity
  8
Default
100
AcDbVertex
100
AcDb2dVertex
 10
5594.778274038911
 20
-2779.142394338489
 30
0.0
  0
VERTEX
  5
172
330
137
100
AcDbEntity
  8
Default
100
AcDbVertex
100
AcDb2dVertex
 10
5595.098020105332
 20
-2779.262219126299
 30
0.0
  0
VERTEX
  5
173
330
137
100
AcDbEntity
  8
Default
100
AcDbVertex
100
AcDb2dVertex
 10
5595.413488815664
 20
-2779.392890544623
 30
0.0
  0
VERTEX
  5
174
330
137
100
AcDbEntity
  8
Default
100
AcDbVertex
100
AcDb2dVertex
 10
5595.724312347502
 20
-2779.534256236433
 30
0.0
  0
VERTEX
  5
175
330
137
100
AcDbEntity
  8
Default
100
AcDbVertex
100
AcDb2dVertex
 10
5596.030128294513
 20
-2779.686151375654
 30
0.0
  0
VERTEX
  5
176
330
137
100
AcDbEntity
  8
Default
100
AcDbVertex
100
AcDb2dVertex
 10
5596.330580088981
 20
-2779.84839885935
 30
0.0
  0
VERTEX
  5
177
330
137
100
AcDbEntity
  8
Default
100
AcDbVertex
100
AcDb2dVertex
 10
5596.625317417555
 20
-2780.020809514213
 30
0.0
  0
VERTEX
  5
178
330
137
100
AcDbEntity
  8
Default
100
AcDbVertex
100
AcDb2dVertex
 10
5596.913996629694
 20
-2780.203182317131
 30
0.0
  0
VERTEX
  5
179
330
137
100
AcDbEntity
  8
Default
100
AcDbVertex
100
AcDb2dVertex
 10
5597.19628113835
 20
-2780.395304629573
 30
0.0
  0
VERTEX
  5
17A
330
137
100
AcDbEntity
  8
Default
100
AcDbVertex
100
AcDb2dVertex
 10
5597.471841812412
 20
-2780.596952445519
 30
0.0
  0
VERTEX
  5
17B
330
137
100
AcDbEntity
  8
Default
100
AcDbVertex
100
AcDb2dVertex
 10
5597.740357360462
 20
-2780.807890652633
 30
0.0
  0
VERTEX
  5
17C
330
137
100
AcDbEntity
  8
Default
100
AcDbVertex
100
AcDb2dVertex
 10
5598.001514705381
 20
-2781.027873306404
 30
0.0
  0
VERTEX
  5
17D
330
137
100
AcDbEntity
  8
Default
100
AcDbVertex
100
AcDb2dVertex
 10
5598.255009349388
 20
-2781.256643916896
 30
0.0
  0
VERTEX
  5
17E
330
137
100
AcDbEntity
  8
Default
100
AcDbVertex
100
AcDb2dVertex
 10
5598.500545729067
 20
-2781.493935747812
 30
0.0
  0
VERTEX
  5
17F
330
137
100
AcDbEntity
  8
Default
100
AcDbVertex
100
AcDb2dVertex
 10
5598.737837559983
 20
-2781.739472127491
 30
0.0
  0
VERTEX
  5
180
330
137
100
AcDbEntity
  8
Default
100
AcDbVertex
100
AcDb2dVertex
 10
5598.966608170475
 20
-2781.992966771498
 30
0.0
  0
VERTEX
  5
181
330
137
100
AcDbEntity
  8
Default
100
AcDbVertex
100
AcDb2dVertex
 10
5599.186590824245
 20
-2782.254124116417
 30
0.0
  0
VERTEX
  5
182
330
137
100
AcDbEntity
  8
Default
100
AcDbVertex
100
AcDb2dVertex
 10
5599.39752903136
 20
-2782.522639664467
 30
0.0
  0
VERTEX
  5
183
330
137
100
AcDbEntity
  8
Default
100
AcDbVertex
100
AcDb2dVertex
 10
5599.599176847306
 20
-2782.798200338529
 30
0.0
  0
VERTEX
  5
184
330
137
100
AcDbEntity
  8
Default
100
AcDbVertex
100
AcDb2dVertex
 10
5599.791299159749
 20
-2783.080484847184
 30
0.0
  0
VERTEX
  5
185
330
137
100
AcDbEntity
  8
Default
100
AcDbVertex
100
AcDb2dVertex
 10
5599.973671962666
 20
-2783.369164059323
 30
0.0
  0
VERTEX
  5
186
330
137
100
AcDbEntity
  8
Default
100
AcDbVertex
100
AcDb2dVertex
 10
5600.146082617529
 20
-2783.663901387898
 30
0.0
  0
VERTEX
  5
187
330
137
100
AcDbEntity
  8
Default
100
AcDbVertex
100
AcDb2dVertex
 10
5600.308330101225
 20
-2783.964353182366
 30
0.0
  0
VERTEX
  5
188
330
137
100
AcDbEntity
  8
Default
100
AcDbVertex
100
AcDb2dVertex
 10
5600.460225240447
 20
-2784.270169129377
 30
0.0
  0
VERTEX
  5
189
330
137
100
AcDbEntity
  8
Default
100
AcDbVertex
100
AcDb2dVertex
 10
5600.601590932256
 20
-2784.580992661216
 30
0.0
  0
VERTEX
  5
18A
330
137
100
AcDbEntity
  8
Default
100
AcDbVertex
100
AcDb2dVertex
 10
5600.73226235058
 20
-2784.896461371547
 30
0.0
  0
VERTEX
  5
18B
330
137
100
AcDbEntity
  8
Default
100
AcDbVertex
100
AcDb2dVertex
 10
5600.85208713839
 20
-2785.216207437968
 30
0.0
  0
VERTEX
  5
18C
330
137
100
AcDbEntity
  8
Default
100
AcDbVertex
100
AcDb2dVertex
 10
5600.960925585343
 20
-2785.539858050867
 30
0.0
  0
VERTEX
  5
18D
330
137
100
AcDbEntity
  8
Default
100
AcDbVertex
100
AcDb2dVertex
 10
5601.058650790679
 20
-2785.867035848108
 30
0.0
  0
VERTEX
  5
18E
330
137
100
AcDbEntity
  8
Default
100
AcDbVertex
100
AcDb2dVertex
 10
5601.145148811181
 20
-2786.197359355013
 30
0.0
  0
VERTEX
  5
18F
330
137
100
AcDbEntity
  8
Default
100
AcDbVertex
100
AcDb2dVertex
 10
5601.220318794025
 20
-2786.530443429152
 30
0.0
  0
VERTEX
  5
190
330
137
100
AcDbEntity
  8
Default
100
AcDbVertex
100
AcDb2dVertex
 10
5601.284073094374
 20
-2786.865899709391
 30
0.0
  0
VERTEX
  5
191
330
137
100
AcDbEntity
  8
Default
100
AcDbVertex
100
AcDb2dVertex
 10
5601.336337377565
 20
-2787.203337068715
 30
0.0
  0
VERTEX
  5
192
330
137
100
AcDbEntity
  8
Default
100
AcDbVertex
100
AcDb2dVertex
 10
5601.377050705782
 20
-2787.542362070257
 30
0.0
  0
VERTEX
  5
193
330
137
100
AcDbEntity
  8
Default
100
AcDbVertex
100
AcDb2dVertex
 10
5601.406165609107
 20
-2787.882579426031
 30
0.0
  0
VERTEX
  5
194
330
137
100
AcDbEntity
  8
Default
100
AcDbVertex
100
AcDb2dVertex
 10
5601.423648140863
 20
-2788.223592457818
 30
0.0
  0
VERTEX
  5
195
330
137
100
AcDbEntity
  8
Default
100
AcDbVertex
100
AcDb2dVertex
 10
5601.429477917201
 20
-2788.565003559678
 30
0.0
  0
VERTEX
  5
196
330
137
100
AcDbEntity
  8
Default
100
AcDbVertex
100
AcDb2dVertex
 10
5601.429477917202
 20
-2888.565003559678
 30
0.0
  0
VERTEX
  5
197
330
137
100
AcDbEntity
  8
Default
100
AcDbVertex
100
AcDb2dVertex
 10
5601.423648140864
 20
-2888.906414661537
 30
0.0
  0
VERTEX
  5
198
330
137
100
AcDbEntity
  8
Default
100
AcDbVertex
100
AcDb2dVertex
 10
5601.406165609108
 20
-2889.247427693324
 30
0.0
  0
VERTEX
  5
199
330
137
100
AcDbEntity
  8
Default
100
AcDbVertex
100
AcDb2dVertex
 10
5601.377050705783
 20
-2889.587645049098
 30
0.0
  0
VERTEX
  5
19A
330
137
100
AcDbEntity
  8
Default
100
AcDbVertex
100
AcDb2dVertex
 10
5601.336337377566
 20
-2889.92667005064
 30
0.0
  0
VERTEX
  5
19B
330
137
100
AcDbEntity
  8
Default
100
AcDbVertex
100
AcDb2dVertex
 10
5601.284073094374
 20
-2890.264107409964
 30
0.0
  0
VERTEX
  5
19C
330
137
100
AcDbEntity
  8
Default
100
AcDbVertex
100
AcDb2dVertex
 10
5601.220318794026
 20
-2890.599563690204
 30
0.0
  0
VERTEX
  5
19D
330
137
100
AcDbEntity
  8
Default
100
AcDbVertex
100
AcDb2dVertex
 10
5601.145148811182
 20
-2890.932647764342
 30
0.0
  0
VERTEX
  5
19E
330
137
100
AcDbEntity
  8
Default
100
AcDbVertex
100
AcDb2dVertex
 10
5601.05865079068
 20
-2891.262971271248
 30
0.0
  0
VERTEX
  5
19F
330
137
100
AcDbEntity
  8
Default
100
AcDbVertex
100
AcDb2dVertex
 10
5600.960925585344
 20
-2891.590149068488
 30
0.0
  0
VERTEX
  5
1A0
330
137
100
AcDbEntity
  8
Default
100
AcDbVertex
100
AcDb2dVertex
 10
5600.852087138391
 20
-2891.913799681387
 30
0.0
  0
VERTEX
  5
1A1
330
137
100
AcDbEntity
  8
Default
100
AcDbVertex
100
AcDb2dVertex
 10
5600.732262350581
 20
-2892.233545747808
 30
0.0
  0
VERTEX
  5
1A2
330
137
100
AcDbEntity
  8
Default
100
AcDbVertex
100
AcDb2dVertex
 10
5600.601590932257
 20
-2892.54901445814
 30
0.0
  0
VERTEX
  5
1A3
330
137
100
AcDbEntity
  8
Default
100
AcDbVertex
100
AcDb2dVertex
 10
5600.460225240447
 20
-2892.859837989979
 30
0.0
  0
VERTEX
  5
1A4
330
137
100
AcDbEntity
  8
Default
100
AcDbVertex
100
AcDb2dVertex
 10
5600.308330101226
 20
-2893.165653936989
 30
0.0
  0
VERTEX
  5
1A5
330
137
100
AcDbEntity
  8
Default
100
AcDbVertex
100
AcDb2dVertex
 10
5600.14608261753
 20
-2893.466105731458
 30
0.0
  0
VERTEX
  5
1A6
330
137
100
AcDbEntity
  8
Default
100
AcDbVertex
100
AcDb2dVertex
 10
5599.973671962667
 20
-2893.760843060032
 30
0.0
  0
VERTEX
  5
1A7
330
137
100
AcDbEntity
  8
Default
100
AcDbVertex
100
AcDb2dVertex
 10
5599.79129915975
 20
-2894.049522272171
 30
0.0
  0
VERTEX
  5
1A8
330
137
100
AcDbEntity
  8
Default
100
AcDbVertex
100
AcDb2dVertex
 10
5599.599176847307
 20
-2894.331806780826
 30
0.0
  0
VERTEX
  5
1A9
330
137
100
AcDbEntity
  8
Default
100
AcDbVertex
100
AcDb2dVertex
 10
5599.397529031361
 20
-2894.607367454889
 30
0.0
  0
VERTEX
  5
1AA
330
137
100
AcDbEntity
  8
Default
100
AcDbVertex
100
AcDb2dVertex
 10
5599.186590824246
 20
-2894.875883002938
 30
0.0
  0
VERTEX
  5
1AB
330
137
100
AcDbEntity
  8
Default
100
AcDbVertex
100
AcDb2dVertex
 10
5598.966608170476
 20
-2895.137040347858
 30
0.0
  0
VERTEX
  5
1AC
330
137
100
AcDbEntity
  8
Default
100
AcDbVertex
100
AcDb2dVertex
 10
5598.737837559984
 20
-2895.390534991864
 30
0.0
  0
VERTEX
  5
1AD
330
137
100
AcDbEntity
  8
Default
100
AcDbVertex
100
AcDb2dVertex
 10
5598.500545729068
 20
-2895.636071371543
 30
0.0
  0
VERTEX
  5
1AE
330
137
100
AcDbEntity
  8
Default
100
AcDbVertex
100
AcDb2dVertex
 10
5598.255009349389
 20
-2895.873363202459
 30
0.0
  0
VERTEX
  5
1AF
330
137
100
AcDbEntity
  8
Default
100
AcDbVertex
100
AcDb2dVertex
 10
5598.001514705382
 20
-2896.102133812951
 30
0.0
  0
VERTEX
  5
1B0
330
137
100
AcDbEntity
  8
Default
100
AcDbVertex
100
AcDb2dVertex
 10
5597.740357360462
 20
-2896.322116466722
 30
0.0
  0
VERTEX
  5
1B1
330
137
100
AcDbEntity
  8
Default
100
AcDbVertex
100
AcDb2dVertex
 10
5597.471841812413
 20
-2896.533054673837
 30
0.0
  0
VERTEX
  5
1B2
330
137
100
AcDbEntity
  8
Default
100
AcDbVertex
100
AcDb2dVertex
 10
5597.196281138351
 20
-2896.734702489782
 30
0.0
  0
VERTEX
  5
1B3
330
137
100
AcDbEntity
  8
Default
100
AcDbVertex
100
AcDb2dVertex
 10
5596.913996629695
 20
-2896.926824802225
 30
0.0
  0
VERTEX
  5
1B4
330
137
100
AcDbEntity
  8
Default
100
AcDbVertex
100
AcDb2dVertex
 10
5596.625317417556
 20
-2897.109197605143
 30
0.0
  0
VERTEX
  5
1B5
330
137
100
AcDbEntity
  8
Default
100
AcDbVertex
100
AcDb2dVertex
 10
5596.330580088983
 20
-2897.281608260005
 30
0.0
  0
VERTEX
  5
1B6
330
137
100
AcDbEntity
  8
Default
100
AcDbVertex
100
AcDb2dVertex
 10
5596.030128294514
 20
-2897.443855743702
 30
0.0
  0
VERTEX
  5
1B7
330
137
100
AcDbEntity
  8
Default
100
AcDbVertex
100
AcDb2dVertex
 10
5595.724312347503
 20
-2897.595750882923
 30
0.0
  0
VERTEX
  5
1B8
330
137
100
AcDbEntity
  8
Default
100
AcDbVertex
100
AcDb2dVertex
 10
5595.413488815665
 20
-2897.737116574732
 30
0.0
  0
VERTEX
  5
1B9
330
137
100
AcDbEntity
  8
Default
100
AcDbVertex
100
AcDb2dVertex
 10
5595.098020105333
 20
-2897.867787993056
 30
0.0
  0
VERTEX
  5
1BA
330
137
100
AcDbEntity
  8
Default
100
AcDbVertex
100
AcDb2dVertex
 10
5594.778274038912
 20
-2897.987612780866
 30
0.0
  0
VERTEX
  5
1BB
330
137
100
AcDbEntity
  8
Default
100
AcDbVertex
100
AcDb2dVertex
 10
5594.454623426013
 20
-2898.096451227819
 30
0.0
  0
VERTEX
  5
1BC
330
137
100
AcDbEntity
  8
Default
100
AcDbVertex
100
AcDb2dVertex
 10
5594.127445628773
 20
-2898.194176433156
 30
0.0
  0
VERTEX
  5
1BD
330
137
100
AcDbEntity
  8
Default
100
AcDbVertex
100
AcDb2dVertex
 10
5593.797122121867
 20
-2898.280674453657
 30
0.0
  0
VERTEX
  5
1BE
330
137
100
AcDbEntity
  8
Default
100
AcDbVertex
100
AcDb2dVertex
 10
5593.464038047729
 20
-2898.355844436501
 30
0.0
  0
VERTEX
  5
1BF
330
137
100
AcDbEntity
  8
Default
100
AcDbVertex
100
AcDb2dVertex
 10
5593.128581767489
 20
-2898.41959873685
 30
0.0
  0
VERTEX
  5
1C0
330
137
100
AcDbEntity
  8
Default
100
AcDbVertex
100
AcDb2dVertex
 10
5592.791144408165
 20
-2898.471863020041
 30
0.0
  0
VERTEX
  5
1C1
330
137
100
AcDbEntity
  8
Default
100
AcDbVertex
100
AcDb2dVertex
 10
5592.452119406623
 20
-2898.512576348259
 30
0.0
  0
VERTEX
  5
1C2
330
137
100
AcDbEntity
  8
Default
100
AcDbVertex
100
AcDb2dVertex
 10
5592.111902050849
 20
-2898.541691251583
 30
0.0
  0
VERTEX
  5
1C3
330
137
100
AcDbEntity
  8
Default
100
AcDbVertex
100
AcDb2dVertex
 10
5591.770889019062
 20
-2898.55917378334
 30
0.0
  0
VERTEX
  5
1C4
330
137
100
AcDbEntity
  8
Default
100
AcDbVertex
100
AcDb2dVertex
 10
5591.429477917202
 20
-2898.565003559678
 30
0.0
  0
VERTEX
  5
1C5
330
137
100
AcDbEntity
  8
Default
100
AcDbVertex
100
AcDb2dVertex
 10
5572.429479049691
 20
-2898.565003559677
 30
0.0
  0
VERTEX
  5
1C6
330
137
100
AcDbEntity
  8
Default
100
AcDbVertex
100
AcDb2dVertex
 10
5572.22463236331
 20
-2898.561505731698
 30
0.0
  0
VERTEX
  5
1C7
330
137
100
AcDbEntity
  8
Default
100
AcDbVertex
100
AcDb2dVertex
 10
5572.020024517738
 20
-2898.551016248744
 30
0.0
  0
VERTEX
  5
1C8
330
137
100
AcDbEntity
  8
Default
100
AcDbVertex
100
AcDb2dVertex
 10
5571.815894076631
 20
-2898.533547341085
 30
0.0
  0
VERTEX
  5
1C9
330
137
100
AcDbEntity
  8
Default
100
AcDbVertex
100
AcDb2dVertex
 10
5571.612479047005
 20
-2898.509119376693
 30
0.0
  0
VERTEX
  5
1CA
330
137
100
AcDbEntity
  8
Default
100
AcDbVertex
100
AcDb2dVertex
 10
5571.410016601745
 20
-2898.477760837486
 30
0.0
  0
VERTEX
  5
1CB
330
137
100
AcDbEntity
  8
Default
100
AcDbVertex
100
AcDb2dVertex
 10
5571.208742803062
 20
-2898.439508286128
 30
0.0
  0
VERTEX
  5
1CC
330
137
100
AcDbEntity
  8
Default
100
AcDbVertex
100
AcDb2dVertex
 10
5571.008892327257
 20
-2898.394406323394
 30
0.0
  0
VERTEX
  5
1CD
330
137
100
AcDbEntity
  8
Default
100
AcDbVertex
100
AcDb2dVertex
 10
5570.810698191102
 20
-2898.342507536167
 30
0.0
  0
VERTEX
  5
1CE
330
137
100
AcDbEntity
  8
Default
100
AcDbVertex
100
AcDb2dVertex
 10
5570.61439148015
 20
-2898.283872436127
 30
0.0
  0
VERTEX
  5
1CF
330
137
100
AcDbEntity
  8
Default
100
AcDbVertex
100
AcDb2dVertex
 10
5570.420201079298
 20
-2898.218569389192
 30
0.0
  0
VERTEX
  5
1D0
330
137
100
AcDbEntity
  8
Default
100
AcDbVertex
100
AcDb2dVertex
 10
5570.228353405922
 20
-2898.146674535813
 30
0.0
  0
VERTEX
  5
1D1
330
137
100
AcDbEntity
  8
Default
100
AcDbVertex
100
AcDb2dVertex
 10
5570.039072145883
 20
-2898.068271702194
 30
0.0
  0
VERTEX
  5
1D2
330
137
100
AcDbEntity
  8
Default
100
AcDbVertex
100
AcDb2dVertex
 10
5569.852577992713
 20
-2897.983452302552
 30
0.0
  0
VERTEX
  5
1D3
330
137
100
AcDbEntity
  8
Default
100
AcDbVertex
100
AcDb2dVertex
 10
5569.669088390307
 20
-2897.892315232538
 30
0.0
  0
VERTEX
  5
1D4
330
137
100
AcDbEntity
  8
Default
100
AcDbVertex
100
AcDb2dVertex
 10
5569.488817279384
 20
-2897.794966753925
 30
0.0
  0
VERTEX
  5
1D5
330
137
100
AcDbEntity
  8
Default
100
AcDbVertex
100
AcDb2dVertex
 10
5569.311974848047
 20
-2897.691520370709
 30
0.0
  0
VERTEX
  5
1D6
330
137
100
AcDbEntity
  8
Default
100
AcDbVertex
100
AcDb2dVertex
 10
5569.138767286707
 20
-2897.582096696778
 30
0.0
  0
VERTEX
  5
1D7
330
137
100
AcDbEntity
  8
Default
100
AcDbVertex
100
AcDb2dVertex
 10
5568.969396547684
 20
-2897.466823315269
 30
0.0
  0
VERTEX
  5
1D8
330
137
100
AcDbEntity
  8
Default
100
AcDbVertex
100
AcDb2dVertex
 10
5568.804060109729
 20
-2897.345834629821
 30
0.0
  0
VERTEX
  5
1D9
330
137
100
AcDbEntity
  8
Default
100
AcDbVertex
100
AcDb2dVertex
 10
5568.642950747781
 20
-2897.219271707864
 30
0.0
  0
VERTEX
  5
1DA
330
137
100
AcDbEntity
  8
Default
100
AcDbVertex
100
AcDb2dVertex
 10
5568.486256308192
 20
-2897.087282116138
 30
0.0
  0
VERTEX
  5
1DB
330
137
100
AcDbEntity
  8
Default
100
AcDbVertex
100
AcDb2dVertex
 10
5568.334159489715
 20
-2896.950019748641
 30
0.0
  0
VERTEX
  5
1DC
330
137
100
AcDbEntity
  8
Default
100
AcDbVertex
100
AcDb2dVertex
 10
5568.186837630478
 20
-2896.807644647191
 30
0.0
  0
VERTEX
  5
1DD
330
137
100
AcDbEntity
  8
Default
100
AcDbVertex
100
AcDb2dVertex
 10
5568.044462501221
 20
-2896.660322814827
 30
0.0
  0
VERTEX
  5
1DE
330
137
100
AcDbEntity
  8
Default
100
AcDbVertex
100
AcDb2dVertex
 10
5567.907200105016
 20
-2896.508226022258
 30
0.0
  0
VERTEX
  5
1DF
330
137
100
AcDbEntity
  8
Default
100
AcDbVertex
100
AcDb2dVertex
 10
5567.775210483715
 20
-2896.351531607583
 30
0.0
  0
VERTEX
  5
1E0
330
137
100
AcDbEntity
  8
Default
100
AcDbVertex
100
AcDb2dVertex
 10
5567.648647531349
 20
-2896.190422269523
 30
0.0
  0
VERTEX
  5
1E1
330
137
100
AcDbEntity
  8
Default
100
AcDbVertex
100
AcDb2dVertex
 10
5567.527658814694
 20
-2896.025085854404
 30
0.0
  0
VERTEX
  5
1E2
330
137
100
AcDbEntity
  8
Default
100
AcDbVertex
100
AcDb2dVertex
 10
5567.412385401217
 20
-2895.855715137139
 30
0.0
  0
VERTEX
  5
1E3
330
137
100
AcDbEntity
  8
Default
100
AcDbVertex
100
AcDb2dVertex
 10
5567.302961694592
 20
-2895.682507596453
 30
0.0
  0
VERTEX
  5
1E4
330
137
100
AcDbEntity
  8
Default
100
AcDbVertex
100
AcDb2dVertex
 10
5567.199515277998
 20
-2895.50566518464
 30
0.0
  0
VERTEX
  5
1E5
330
137
100
AcDbEntity
  8
Default
100
AcDbVertex
100
AcDb2dVertex
 10
5567.102166765359
 20
-2895.325394092091
 30
0.0
  0
VERTEX
  5
1E6
330
137
100
AcDbEntity
  8
Default
100
AcDbVertex
100
AcDb2dVertex
 10
5567.011029660712
 20
-2895.141904506887
 30
0.0
  0
VERTEX
  5
1E7
330
137
100
AcDbEntity
  8
Default
100
AcDbVertex
100
AcDb2dVertex
 10
5566.92621022587
 20
-2894.955410369728
 30
0.0
  0
VERTEX
  5
1E8
330
137
100
AcDbEntity
  8
Default
100
AcDbVertex
100
AcDb2dVertex
 10
5566.847807356524
 20
-2894.766129124486
 30
0.0
  0
VERTEX
  5
1E9
330
137
100
AcDbEntity
  8
Default
100
AcDbVertex
100
AcDb2dVertex
 10
5566.775912466935
 20
-2894.574281464681
 30
0.0
  0
VERTEX
  5
1EA
330
137
100
AcDbEntity
  8
Default
100
AcDbVertex
100
AcDb2dVertex
 10
5566.710609383346
 20
-2894.380091076155
 30
0.0
  0
VERTEX
  5
1EB
330
137
100
AcDbEntity
  8
Default
100
AcDbVertex
100
AcDb2dVertex
 10
5566.651974246253
 20
-2894.18378437627
 30
0.0
  0
VERTEX
  5
1EC
330
137
100
AcDbEntity
  8
Default
100
AcDbVertex
100
AcDb2dVertex
 10
5566.600075421617
 20
-2893.985590249911
 30
0.0
  0
VERTEX
  5
1ED
330
137
100
AcDbEntity
  8
Default
100
AcDbVertex
100
AcDb2dVertex
 10
5566.554973421162
 20
-2893.785739782619
 30
0.0
  0
VERTEX
  5
1EE
330
137
100
AcDbEntity
  8
Default
100
AcDbVertex
100
AcDb2dVertex
 10
5566.516720831814
 20
-2893.584465991155
 30
0.0
  0
VERTEX
  5
1EF
330
137
100
AcDbEntity
  8
Default
100
AcDbVertex
100
AcDb2dVertex
 10
5566.485362254393
 20
-2893.382003551814
 30
0.0
  0
VERTEX
  5
1F0
330
137
100
AcDbEntity
  8
Default
100
AcDbVertex
100
AcDb2dVertex
 10
5566.460934251607
 20
-2893.1785885268
 30
0.0
  0
VERTEX
  5
1F1
330
137
100
AcDbEntity
  8
Default
100
AcDbVertex
100
AcDb2dVertex
 10
5566.44346530542
 20
-2892.974458088989
 30
0.0
  0
VERTEX
  5
1F2
330
137
100
AcDbEntity
  8
Default
100
AcDbVertex
100
AcDb2dVertex
 10
5566.432975783846
 20
-2892.769850245398
 30
0.0
  0
VERTEX
  5
1F3
330
137
100
AcDbEntity
  8
Default
100
AcDbVertex
100
AcDb2dVertex
 10
5566.429477917202
 20
-2892.565003559677
 30
0.0
  0
SEQEND
  5
1F4
330
137
100
AcDbEntity
  8
Default
  0
POLYLINE
  5
1F5
330
1F
100
AcDbEntity
  8
Default
100
AcDb2dPolyline
 66
     1
 10
0.0
 20
0.0
 30
0.0
 70
     1
  0
VERTEX
  5
1F6
330
1F5
100
AcDbEntity
  8
Default
100
AcDbVertex
100
AcDb2dVertex
 10
6026.429477917202
 20
-2784.565003559678
 30
0.0
  0
VERTEX
  5
1F7
330
1F5
100
AcDbEntity
  8
Default
100
AcDbVertex
100
AcDb2dVertex
 10
6026.425980051399
 20
-2784.360156898562
 30
0.0
  0
VERTEX
  5
1F8
330
1F5
100
AcDbEntity
  8
Default
100
AcDbVertex
100
AcDb2dVertex
 10
6026.415490532346
 20
-2784.15554907949
 30
0.0
  0
VERTEX
  5
1F9
330
1F5
100
AcDbEntity
  8
Default
100
AcDbVertex
100
AcDb2dVertex
 10
6026.398021590351
 20
-2783.951418666025
 30
0.0
  0
VERTEX
  5
1FA
330
1F5
100
AcDbEntity
  8
Default
100
AcDbVertex
100
AcDb2dVertex
 10
6026.37359359342
 20
-2783.7480036651
 30
0.0
  0
VERTEX
  5
1FB
330
1F5
100
AcDbEntity
  8
Default
100
AcDbVertex
100
AcDb2dVertex
 10
6026.342235023506
 20
-2783.545541249506
 30
0.0
  0
VERTEX
  5
1FC
330
1F5
100
AcDbEntity
  8
Default
100
AcDbVertex
100
AcDb2dVertex
 10
6026.303982443296
 20
-2783.344267481362
 30
0.0
  0
VERTEX
  5
1FD
330
1F5
100
AcDbEntity
  8
Default
100
AcDbVertex
100
AcDb2dVertex
 10
6026.25888045359
 20
-2783.144417036879
 30
0.0
  0
VERTEX
  5
1FE
330
1F5
100
AcDbEntity
  8
Default
100
AcDbVertex
100
AcDb2dVertex
 10
6026.20698164129
 20
-2782.946222932736
 30
0.0
  0
VERTEX
  5
1FF
330
1F5
100
AcDbEntity
  8
Default
100
AcDbVertex
100
AcDb2dVertex
 10
6026.148346518087
 20
-2782.749916254391
 30
0.0
  0
VERTEX
  5
200
330
1F5
100
AcDbEntity
  8
Default
100
AcDbVertex
100
AcDb2dVertex
 10
6026.083043449915
 20
-2782.555725886652
 30
0.0
  0
VERTEX
  5
201
330
1F5
100
AcDbEntity
  8
Default
100
AcDbVertex
100
AcDb2dVertex
 10
6026.01114857723
 20
-2782.363878246799
 30
0.0
  0
VERTEX
  5
202
330
1F5
100
AcDbEntity
  8
Default
100
AcDbVertex
100
AcDb2dVertex
 10
6025.932745726235
 20
-2782.1745970206
 30
0.0
  0
VERTEX
  5
203
330
1F5
100
AcDbEntity
  8
Default
100
AcDbVertex
100
AcDb2dVertex
 10
6025.847926311149
 20
-2781.988102901497
 30
0.0
  0
VERTEX
  5
204
330
1F5
100
AcDbEntity
  8
Default
100
AcDbVertex
100
AcDb2dVertex
 10
6025.756789227617
 20
-2781.804613333291
 30
0.0
  0
VERTEX
  5
205
330
1F5
100
AcDbEntity
  8
Default
100
AcDbVertex
100
AcDb2dVertex
 10
6025.659440737399
 20
-2781.624342256609
 30
0.0
  0
VERTEX
  5
206
330
1F5
100
AcDbEntity
  8
Default
100
AcDbVertex
100
AcDb2dVertex
 10
6025.555994344481
 20
-2781.447499859465
 30
0.0
  0
VERTEX
  5
207
330
1F5
100
AcDbEntity
  8
Default
100
AcDbVertex
100
AcDb2dVertex
 10
6025.446570662731
 20
-2781.274292332182
 30
0.0
  0
VERTEX
  5
208
330
1F5
100
AcDbEntity
  8
Default
100
AcDbVertex
100
AcDb2dVertex
 10
6025.331297275265
 20
-2781.104921626988
 30
0.0
  0
VERTEX
  5
209
330
1F5
100
AcDbEntity
  8
Default
100
AcDbVertex
100
AcDb2dVertex
 10
6025.210308585698
 20
-2780.939585222551
 30
0.0
  0
VERTEX
  5
20A
330
1F5
100
AcDbEntity
  8
Default
100
AcDbVertex
100
AcDb2dVertex
 10
6025.083745661429
 20
-2780.778475893721
 30
0.0
  0
VERTEX
  5
20B
330
1F5
100
AcDbEntity
  8
Default
100
AcDbVertex
100
AcDb2dVertex
 10
6024.951756069167
 20
-2780.62178148677
 30
0.0
  0
VERTEX
  5
20C
330
1F5
100
AcDbEntity
  8
Default
100
AcDbVertex
100
AcDb2dVertex
 10
6024.814493702871
 20
-2780.469684700366
 30
0.0
  0
VERTEX
  5
20D
330
1F5
100
AcDbEntity
  8
Default
100
AcDbVertex
100
AcDb2dVertex
 10
6024.672118604321
 20
-2780.322362872559
 30
0.0
  0
VERTEX
  5
20E
330
1F5
100
AcDbEntity
  8
Default
100
AcDbVertex
100
AcDb2dVertex
 10
6024.524796776514
 20
-2780.179987774009
 30
0.0
  0
VERTEX
  5
20F
330
1F5
100
AcDbEntity
  8
Default
100
AcDbVertex
100
AcDb2dVertex
 10
6024.37269999011
 20
-2780.042725407714
 30
0.0
  0
VERTEX
  5
210
330
1F5
100
AcDbEntity
  8
Default
100
AcDbVertex
100
AcDb2dVertex
 10
6024.216005583158
 20
-2779.910735815451
 30
0.0
  0
VERTEX
  5
211
330
1F5
100
AcDbEntity
  8
Default
100
AcDbVertex
100
AcDb2dVertex
 10
6024.054896254329
 20
-2779.784172891182
 30
0.0
  0
VERTEX
  5
212
330
1F5
100
AcDbEntity
  8
Default
100
AcDbVertex
100
AcDb2dVertex
 10
6023.889559849891
 20
-2779.663184201615
 30
0.0
  0
VERTEX
  5
213
330
1F5
100
AcDbEntity
  8
Default
100
AcDbVertex
100
AcDb2dVertex
 10
6023.720189144698
 20
-2779.547910814149
 30
0.0
  0
VERTEX
  5
214
330
1F5
100
AcDbEntity
  8
Default
100
AcDbVertex
100
AcDb2dVertex
 10
6023.546981617415
 20
-2779.438487132399
 30
0.0
  0
VERTEX
  5
215
330
1F5
100
AcDbEntity
  8
Default
100
AcDbVertex
100
AcDb2dVertex
 10
6023.37013922027
 20
-2779.335040739481
 30
0.0
  0
VERTEX
  5
216
330
1F5
100
AcDbEntity
  8
Default
100
AcDbVertex
100
AcDb2dVertex
 10
6023.18986814359
 20
-2779.237692249264
 30
0.0
  0
VERTEX
  5
217
330
1F5
100
AcDbEntity
  8
Default
100
AcDbVertex
100
AcDb2dVertex
 10
6023.006378575383
 20
-2779.146555165731
 30
0.0
  0
VERTEX
  5
218
330
1F5
100
AcDbEntity
  8
Default
100
AcDbVertex
100
AcDb2dVertex
 10
6022.819884456279
 20
-2779.061735750645
 30
0.0
  0
VERTEX
  5
219
330
1F5
100
AcDbEntity
  8
Default
100
AcDbVertex
100
AcDb2dVertex
 10
6022.630603230081
 20
-2778.983332899651
 30
0.0
  0
VERTEX
  5
21A
330
1F5
100
AcDbEntity
  8
Default
100
AcDbVertex
100
AcDb2dVertex
 10
6022.438755590229
 20
-2778.911438026965
 30
0.0
  0
VERTEX
  5
21B
330
1F5
100
AcDbEntity
  8
Default
100
AcDbVertex
100
AcDb2dVertex
 10
6022.244565222489
 20
-2778.846134958793
 30
0.0
  0
VERTEX
  5
21C
330
1F5
100
AcDbEntity
  8
Default
100
AcDbVertex
100
AcDb2dVertex
 10
6022.048258544144
 20
-2778.787499835591
 30
0.0
  0
VERTEX
  5
21D
330
1F5
100
AcDbEntity
  8
Default
100
AcDbVertex
100
AcDb2dVertex
 10
6021.850064440001
 20
-2778.73560102329
 30
0.0
  0
VERTEX
  5
21E
330
1F5
100
AcDbEntity
  8
Default
100
AcDbVertex
100
AcDb2dVertex
 10
6021.650213995518
 20
-2778.690499033584
 30
0.0
  0
VERTEX
  5
21F
330
1F5
100
AcDbEntity
  8
Default
100
AcDbVertex
100
AcDb2dVertex
 10
6021.448940227374
 20
-2778.652246453375
 30
0.0
  0
VERTEX
  5
220
330
1F5
100
AcDbEntity
  8
Default
100
AcDbVertex
100
AcDb2dVertex
 10
6021.24647781178
 20
-2778.62088788346
 30
0.0
  0
VERTEX
  5
221
330
1F5
100
AcDbEntity
  8
Default
100
AcDbVertex
100
AcDb2dVertex
 10
6021.043062810854
 20
-2778.596459886529
 30
0.0
  0
VERTEX
  5
222
330
1F5
100
AcDbEntity
  8
Default
100
AcDbVertex
100
AcDb2dVertex
 10
6020.838932397391
 20
-2778.578990944534
 30
0.0
  0
VERTEX
  5
223
330
1F5
100
AcDbEntity
  8
Default
100
AcDbVertex
100
AcDb2dVertex
 10
6020.634324578318
 20
-2778.568501425481
 30
0.0
  0
VERTEX
  5
224
330
1F5
100
AcDbEntity
  8
Default
100
AcDbVertex
100
AcDb2dVertex
 10
6020.429477917202
 20
-2778.565003559678
 30
0.0
  0
VERTEX
  5
225
330
1F5
100
AcDbEntity
  8
Default
100
AcDbVertex
100
AcDb2dVertex
 10
6001.429477917203
 20
-2778.565003559678
 30
0.0
  0
VERTEX
  5
226
330
1F5
100
AcDbEntity
  8
Default
100
AcDbVertex
100
AcDb2dVertex
 10
6001.088066815343
 20
-2778.570833336016
 30
0.0
  0
VERTEX
  5
227
330
1F5
100
AcDbEntity
  8
Default
100
AcDbVertex
100
AcDb2dVertex
 10
6000.747053783556
 20
-2778.588315867773
 30
0.0
  0
VERTEX
  5
228
330
1F5
100
AcDbEntity
  8
Default
100
AcDbVertex
100
AcDb2dVertex
 10
6000.406836427783
 20
-2778.617430771097
 30
0.0
  0
VERTEX
  5
229
330
1F5
100
AcDbEntity
  8
Default
100
AcDbVertex
100
AcDb2dVertex
 10
6000.067811426241
 20
-2778.658144099315
 30
0.0
  0
VERTEX
  5
22A
330
1F5
100
AcDbEntity
  8
Default
100
AcDbVertex
100
AcDb2dVertex
 10
5999.730374066917
 20
-2778.710408382506
 30
0.0
  0
VERTEX
  5
22B
330
1F5
100
AcDbEntity
  8
Default
100
AcDbVertex
100
AcDb2dVertex
 10
5999.394917786677
 20
-2778.774162682855
 30
0.0
  0
VERTEX
  5
22C
330
1F5
100
AcDbEntity
  8
Default
100
AcDbVertex
100
AcDb2dVertex
 10
5999.061833712539
 20
-2778.849332665699
 30
0.0
  0
VERTEX
  5
22D
330
1F5
100
AcDbEntity
  8
Default
100
AcDbVertex
100
AcDb2dVertex
 10
5998.731510205633
 20
-2778.9358306862
 30
0.0
  0
VERTEX
  5
22E
330
1F5
100
AcDbEntity
  8
Default
100
AcDbVertex
100
AcDb2dVertex
 10
5998.404332408392
 20
-2779.033555891536
 30
0.0
  0
VERTEX
  5
22F
330
1F5
100
AcDbEntity
  8
Default
100
AcDbVertex
100
AcDb2dVertex
 10
5998.080681795494
 20
-2779.142394338489
 30
0.0
  0
VERTEX
  5
230
330
1F5
100
AcDbEntity
  8
Default
100
AcDbVertex
100
AcDb2dVertex
 10
5997.760935729073
 20
-2779.262219126299
 30
0.0
  0
VERTEX
  5
231
330
1F5
100
AcDbEntity
  8
Default
100
AcDbVertex
100
AcDb2dVertex
 10
5997.445467018741
 20
-2779.392890544623
 30
0.0
  0
VERTEX
  5
232
330
1F5
100
AcDbEntity
  8
Default
100
AcDbVertex
100
AcDb2dVertex
 10
5997.134643486903
 20
-2779.534256236433
 30
0.0
  0
VERTEX
  5
233
330
1F5
100
AcDbEntity
  8
Default
100
AcDbVertex
100
AcDb2dVertex
 10
5996.828827539892
 20
-2779.686151375654
 30
0.0
  0
VERTEX
  5
234
330
1F5
100
AcDbEntity
  8
Default
100
AcDbVertex
100
AcDb2dVertex
 10
5996.528375745424
 20
-2779.84839885935
 30
0.0
  0
VERTEX
  5
235
330
1F5
100
AcDbEntity
  8
Default
100
AcDbVertex
100
AcDb2dVertex
 10
5996.233638416849
 20
-2780.020809514213
 30
0.0
  0
VERTEX
  5
236
330
1F5
100
AcDbEntity
  8
Default
100
AcDbVertex
100
AcDb2dVertex
 10
5995.94495920471
 20
-2780.203182317131
 30
0.0
  0
VERTEX
  5
237
330
1F5
100
AcDbEntity
  8
Default
100
AcDbVertex
100
AcDb2dVertex
 10
5995.662674696055
 20
-2780.395304629573
 30
0.0
  0
VERTEX
  5
238
330
1F5
100
AcDbEntity
  8
Default
100
AcDbVertex
100
AcDb2dVertex
 10
5995.387114021993
 20
-2780.596952445519
 30
0.0
  0
VERTEX
  5
239
330
1F5
100
AcDbEntity
  8
Default
100
AcDbVertex
100
AcDb2dVertex
 10
5995.118598473942
 20
-2780.807890652633
 30
0.0
  0
VERTEX
  5
23A
330
1F5
100
AcDbEntity
  8
Default
100
AcDbVertex
100
AcDb2dVertex
 10
5994.857441129024
 20
-2781.027873306404
 30
0.0
  0
VERTEX
  5
23B
330
1F5
100
AcDbEntity
  8
Default
100
AcDbVertex
100
AcDb2dVertex
 10
5994.603946485016
 20
-2781.256643916896
 30
0.0
  0
VERTEX
  5
23C
330
1F5
100
AcDbEntity
  8
Default
100
AcDbVertex
100
AcDb2dVertex
 10
5994.358410105337
 20
-2781.493935747812
 30
0.0
  0
VERTEX
  5
23D
330
1F5
100
AcDbEntity
  8
Default
100
AcDbVertex
100
AcDb2dVertex
 10
5994.121118274422
 20
-2781.739472127491
 30
0.0
  0
VERTEX
  5
23E
330
1F5
100
AcDbEntity
  8
Default
100
AcDbVertex
100
AcDb2dVertex
 10
5993.892347663929
 20
-2781.992966771498
 30
0.0
  0
VERTEX
  5
23F
330
1F5
100
AcDbEntity
  8
Default
100
AcDbVertex
100
AcDb2dVertex
 10
5993.672365010159
 20
-2782.254124116417
 30
0.0
  0
VERTEX
  5
240
330
1F5
100
AcDbEntity
  8
Default
100
AcDbVertex
100
AcDb2dVertex
 10
5993.461426803045
 20
-2782.522639664467
 30
0.0
  0
VERTEX
  5
241
330
1F5
100
AcDbEntity
  8
Default
100
AcDbVertex
100
AcDb2dVertex
 10
5993.259778987099
 20
-2782.798200338529
 30
0.0
  0
VERTEX
  5
242
330
1F5
100
AcDbEntity
  8
Default
100
AcDbVertex
100
AcDb2dVertex
 10
5993.067656674656
 20
-2783.080484847184
 30
0.0
  0
VERTEX
  5
243
330
1F5
100
AcDbEntity
  8
Default
100
AcDbVertex
100
AcDb2dVertex
 10
5992.885283871738
 20
-2783.369164059323
 30
0.0
  0
VERTEX
  5
244
330
1F5
100
AcDbEntity
  8
Default
100
AcDbVertex
100
AcDb2dVertex
 10
5992.712873216876
 20
-2783.663901387898
 30
0.0
  0
VERTEX
  5
245
330
1F5
100
AcDbEntity
  8
Default
100
AcDbVertex
100
AcDb2dVertex
 10
5992.55062573318
 20
-2783.964353182366
 30
0.0
  0
VERTEX
  5
246
330
1F5
100
AcDbEntity
  8
Default
100
AcDbVertex
100
AcDb2dVertex
 10
5992.398730593958
 20
-2784.270169129377
 30
0.0
  0
VERTEX
  5
247
330
1F5
100
AcDbEntity
  8
Default
100
AcDbVertex
100
AcDb2dVertex
 10
5992.257364902149
 20
-2784.580992661216
 30
0.0
  0
VERTEX
  5
248
330
1F5
100
AcDbEntity
  8
Default
100
AcDbVertex
100
AcDb2dVertex
 10
5992.126693483825
 20
-2784.896461371547
 30
0.0
  0
VERTEX
  5
249
330
1F5
100
AcDbEntity
  8
Default
100
AcDbVertex
100
AcDb2dVertex
 10
5992.006868696015
 20
-2785.216207437968
 30
0.0
  0
VERTEX
  5
24A
330
1F5
100
AcDbEntity
  8
Default
100
AcDbVertex
100
AcDb2dVertex
 10
5991.898030249062
 20
-2785.539858050867
 30
0.0
  0
VERTEX
  5
24B
330
1F5
100
AcDbEntity
  8
Default
100
AcDbVertex
100
AcDb2dVertex
 10
5991.800305043726
 20
-2785.867035848108
 30
0.0
  0
VERTEX
  5
24C
330
1F5
100
AcDbEntity
  8
Default
100
AcDbVertex
100
AcDb2dVertex
 10
5991.713807023224
 20
-2786.197359355013
 30
0.0
  0
VERTEX
  5
24D
330
1F5
100
AcDbEntity
  8
Default
100
AcDbVertex
100
AcDb2dVertex
 10
5991.63863704038
 20
-2786.530443429152
 30
0.0
  0
VERTEX
  5
24E
330
1F5
100
AcDbEntity
  8
Default
100
AcDbVertex
100
AcDb2dVertex
 10
5991.574882740031
 20
-2786.865899709391
 30
0.0
  0
VERTEX
  5
24F
330
1F5
100
AcDbEntity
  8
Default
100
AcDbVertex
100
AcDb2dVertex
 10
5991.52261845684
 20
-2787.203337068715
 30
0.0
  0
VERTEX
  5
250
330
1F5
100
AcDbEntity
  8
Default
100
AcDbVertex
100
AcDb2dVertex
 10
5991.481905128622
 20
-2787.542362070257
 30
0.0
  0
VERTEX
  5
251
330
1F5
100
AcDbEntity
  8
Default
100
AcDbVertex
100
AcDb2dVertex
 10
5991.452790225298
 20
-2787.882579426031
 30
0.0
  0
VERTEX
  5
252
330
1F5
100
AcDbEntity
  8
Default
100
AcDbVertex
100
AcDb2dVertex
 10
5991.435307693541
 20
-2788.223592457818
 30
0.0
  0
VERTEX
  5
253
330
1F5
100
AcDbEntity
  8
Default
100
AcDbVertex
100
AcDb2dVertex
 10
5991.429477917203
 20
-2788.565003559678
 30
0.0
  0
VERTEX
  5
254
330
1F5
100
AcDbEntity
  8
Default
100
AcDbVertex
100
AcDb2dVertex
 10
5991.429477917202
 20
-2888.565003559678
 30
0.0
  0
VERTEX
  5
255
330
1F5
100
AcDbEntity
  8
Default
100
AcDbVertex
100
AcDb2dVertex
 10
5991.43530769354
 20
-2888.906414661537
 30
0.0
  0
VERTEX
  5
256
330
1F5
100
AcDbEntity
  8
Default
100
AcDbVertex
100
AcDb2dVertex
 10
5991.452790225297
 20
-2889.247427693324
 30
0.0
  0
VERTEX
  5
257
330
1F5
100
AcDbEntity
  8
Default
100
AcDbVertex
100
AcDb2dVertex
 10
5991.481905128621
 20
-2889.587645049098
 30
0.0
  0
VERTEX
  5
258
330
1F5
100
AcDbEntity
  8
Default
100
AcDbVertex
100
AcDb2dVertex
 10
5991.522618456839
 20
-2889.92667005064
 30
0.0
  0
VERTEX
  5
259
330
1F5
100
AcDbEntity
  8
Default
100
AcDbVertex
100
AcDb2dVertex
 10
5991.57488274003
 20
-2890.264107409964
 30
0.0
  0
VERTEX
  5
25A
330
1F5
100
AcDbEntity
  8
Default
100
AcDbVertex
100
AcDb2dVertex
 10
5991.638637040379
 20
-2890.599563690204
 30
0.0
  0
VERTEX
  5
25B
330
1F5
100
AcDbEntity
  8
Default
100
AcDbVertex
100
AcDb2dVertex
 10
5991.713807023223
 20
-2890.932647764342
 30
0.0
  0
VERTEX
  5
25C
330
1F5
100
AcDbEntity
  8
Default
100
AcDbVertex
100
AcDb2dVertex
 10
5991.800305043725
 20
-2891.262971271248
 30
0.0
  0
VERTEX
  5
25D
330
1F5
100
AcDbEntity
  8
Default
100
AcDbVertex
100
AcDb2dVertex
 10
5991.898030249061
 20
-2891.590149068488
 30
0.0
  0
VERTEX
  5
25E
330
1F5
100
AcDbEntity
  8
Default
100
AcDbVertex
100
AcDb2dVertex
 10
5992.006868696014
 20
-2891.913799681387
 30
0.0
  0
VERTEX
  5
25F
330
1F5
100
AcDbEntity
  8
Default
100
AcDbVertex
100
AcDb2dVertex
 10
5992.126693483824
 20
-2892.233545747808
 30
0.0
  0
VERTEX
  5
260
330
1F5
100
AcDbEntity
  8
Default
100
AcDbVertex
100
AcDb2dVertex
 10
5992.257364902148
 20
-2892.54901445814
 30
0.0
  0
VERTEX
  5
261
330
1F5
100
AcDbEntity
  8
Default
100
AcDbVertex
100
AcDb2dVertex
 10
5992.398730593957
 20
-2892.859837989979
 30
0.0
  0
VERTEX
  5
262
330
1F5
100
AcDbEntity
  8
Default
100
AcDbVertex
100
AcDb2dVertex
 10
5992.550625733179
 20
-2893.165653936989
 30
0.0
  0
VERTEX
  5
263
330
1F5
100
AcDbEntity
  8
Default
100
AcDbVertex
100
AcDb2dVertex
 10
5992.712873216875
 20
-2893.466105731458
 30
0.0
  0
VERTEX
  5
264
330
1F5
100
AcDbEntity
  8
Default
100
AcDbVertex
100
AcDb2dVertex
 10
5992.885283871738
 20
-2893.760843060032
 30
0.0
  0
VERTEX
  5
265
330
1F5
100
AcDbEntity
  8
Default
100
AcDbVertex
100
AcDb2dVertex
 10
5993.067656674655
 20
-2894.049522272171
 30
0.0
  0
VERTEX
  5
266
330
1F5
100
AcDbEntity
  8
Default
100
AcDbVertex
100
AcDb2dVertex
 10
5993.259778987098
 20
-2894.331806780826
 30
0.0
  0
VERTEX
  5
267
330
1F5
100
AcDbEntity
  8
Default
100
AcDbVertex
100
AcDb2dVertex
 10
5993.461426803044
 20
-2894.607367454889
 30
0.0
  0
VERTEX
  5
268
330
1F5
100
AcDbEntity
  8
Default
100
AcDbVertex
100
AcDb2dVertex
 10
5993.672365010159
 20
-2894.875883002938
 30
0.0
  0
VERTEX
  5
269
330
1F5
100
AcDbEntity
  8
Default
100
AcDbVertex
100
AcDb2dVertex
 10
5993.892347663928
 20
-2895.137040347858
 30
0.0
  0
VERTEX
  5
26A
330
1F5
100
AcDbEntity
  8
Default
100
AcDbVertex
100
AcDb2dVertex
 10
5994.121118274421
 20
-2895.390534991864
 30
0.0
  0
VERTEX
  5
26B
330
1F5
100
AcDbEntity
  8
Default
100
AcDbVertex
100
AcDb2dVertex
 10
5994.358410105337
 20
-2895.636071371543
 30
0.0
  0
VERTEX
  5
26C
330
1F5
100
AcDbEntity
  8
Default
100
AcDbVertex
100
AcDb2dVertex
 10
5994.603946485016
 20
-2895.873363202459
 30
0.0
  0
VERTEX
  5
26D
330
1F5
100
AcDbEntity
  8
Default
100
AcDbVertex
100
AcDb2dVertex
 10
5994.857441129023
 20
-2896.102133812951
 30
0.0
  0
VERTEX
  5
26E
330
1F5
100
AcDbEntity
  8
Default
100
AcDbVertex
100
AcDb2dVertex
 10
5995.118598473942
 20
-2896.322116466722
 30
0.0
  0
VERTEX
  5
26F
330
1F5
100
AcDbEntity
  8
Default
100
AcDbVertex
100
AcDb2dVertex
 10
5995.387114021992
 20
-2896.533054673837
 30
0.0
  0
VERTEX
  5
270
330
1F5
100
AcDbEntity
  8
Default
100
AcDbVertex
100
AcDb2dVertex
 10
5995.662674696054
 20
-2896.734702489782
 30
0.0
  0
VERTEX
  5
271
330
1F5
100
AcDbEntity
  8
Default
100
AcDbVertex
100
AcDb2dVertex
 10
5995.944959204709
 20
-2896.926824802225
 30
0.0
  0
VERTEX
  5
272
330
1F5
100
AcDbEntity
  8
Default
100
AcDbVertex
100
AcDb2dVertex
 10
5996.233638416848
 20
-2897.109197605143
 30
0.0
  0
VERTEX
  5
273
330
1F5
100
AcDbEntity
  8
Default
100
AcDbVertex
100
AcDb2dVertex
 10
5996.528375745422
 20
-2897.281608260005
 30
0.0
  0
VERTEX
  5
274
330
1F5
100
AcDbEntity
  8
Default
100
AcDbVertex
100
AcDb2dVertex
 10
5996.828827539891
 20
-2897.443855743702
 30
0.0
  0
VERTEX
  5
275
330
1F5
100
AcDbEntity
  8
Default
100
AcDbVertex
100
AcDb2dVertex
 10
5997.134643486902
 20
-2897.595750882923
 30
0.0
  0
VERTEX
  5
276
330
1F5
100
AcDbEntity
  8
Default
100
AcDbVertex
100
AcDb2dVertex
 10
5997.44546701874
 20
-2897.737116574732
 30
0.0
  0
VERTEX
  5
277
330
1F5
100
AcDbEntity
  8
Default
100
AcDbVertex
100
AcDb2dVertex
 10
5997.760935729072
 20
-2897.867787993056
 30
0.0
  0
VERTEX
  5
278
330
1F5
100
AcDbEntity
  8
Default
100
AcDbVertex
100
AcDb2dVertex
 10
5998.080681795493
 20
-2897.987612780866
 30
0.0
  0
VERTEX
  5
279
330
1F5
100
AcDbEntity
  8
Default
100
AcDbVertex
100
AcDb2dVertex
 10
5998.404332408391
 20
-2898.096451227819
 30
0.0
  0
VERTEX
  5
27A
330
1F5
100
AcDbEntity
  8
Default
100
AcDbVertex
100
AcDb2dVertex
 10
5998.731510205632
 20
-2898.194176433156
 30
0.0
  0
VERTEX
  5
27B
330
1F5
100
AcDbEntity
  8
Default
100
AcDbVertex
100
AcDb2dVertex
 10
5999.061833712538
 20
-2898.280674453657
 30
0.0
  0
VERTEX
  5
27C
330
1F5
100
AcDbEntity
  8
Default
100
AcDbVertex
100
AcDb2dVertex
 10
5999.394917786676
 20
-2898.355844436501
 30
0.0
  0
VERTEX
  5
27D
330
1F5
100
AcDbEntity
  8
Default
100
AcDbVertex
100
AcDb2dVertex
 10
5999.730374066916
 20
-2898.41959873685
 30
0.0
  0
VERTEX
  5
27E
330
1F5
100
AcDbEntity
  8
Default
100
AcDbVertex
100
AcDb2dVertex
 10
6000.06781142624
 20
-2898.471863020041
 30
0.0
  0
VERTEX
  5
27F
330
1F5
100
AcDbEntity
  8
Default
100
AcDbVertex
100
AcDb2dVertex
 10
6000.406836427782
 20
-2898.512576348259
 30
0.0
  0
VERTEX
  5
280
330
1F5
100
AcDbEntity
  8
Default
100
AcDbVertex
100
AcDb2dVertex
 10
6000.747053783555
 20
-2898.541691251583
 30
0.0
  0
VERTEX
  5
281
330
1F5
100
AcDbEntity
  8
Default
100
AcDbVertex
100
AcDb2dVertex
 10
6001.088066815342
 20
-2898.55917378334
 30
0.0
  0
VERTEX
  5
282
330
1F5
100
AcDbEntity
  8
Default
100
AcDbVertex
100
AcDb2dVertex
 10
6001.429477917202
 20
-2898.565003559678
 30
0.0
  0
VERTEX
  5
283
330
1F5
100
AcDbEntity
  8
Default
100
AcDbVertex
100
AcDb2dVertex
 10
6020.429476784714
 20
-2898.565003559677
 30
0.0
  0
VERTEX
  5
284
330
1F5
100
AcDbEntity
  8
Default
100
AcDbVertex
100
AcDb2dVertex
 10
6020.634323471095
 20
-2898.561505731698
 30
0.0
  0
VERTEX
  5
285
330
1F5
100
AcDbEntity
  8
Default
100
AcDbVertex
100
AcDb2dVertex
 10
6020.838931316666
 20
-2898.551016248744
 30
0.0
  0
VERTEX
  5
286
330
1F5
100
AcDbEntity
  8
Default
100
AcDbVertex
100
AcDb2dVertex
 10
6021.043061757774
 20
-2898.533547341085
 30
0.0
  0
VERTEX
  5
287
330
1F5
100
AcDbEntity
  8
Default
100
AcDbVertex
100
AcDb2dVertex
 10
6021.2464767874
 20
-2898.509119376693
 30
0.0
  0
VERTEX
  5
288
330
1F5
100
AcDbEntity
  8
Default
100
AcDbVertex
100
AcDb2dVertex
 10
6021.44893923266
 20
-2898.477760837486
 30
0.0
  0
VERTEX
  5
289
330
1F5
100
AcDbEntity
  8
Default
100
AcDbVertex
100
AcDb2dVertex
 10
6021.650213031343
 20
-2898.439508286128
 30
0.0
  0
VERTEX
  5
28A
330
1F5
100
AcDbEntity
  8
Default
100
AcDbVertex
100
AcDb2dVertex
 10
6021.850063507148
 20
-2898.394406323394
 30
0.0
  0
VERTEX
  5
28B
330
1F5
100
AcDbEntity
  8
Default
100
AcDbVertex
100
AcDb2dVertex
 10
6022.048257643302
 20
-2898.342507536167
 30
0.0
  0
VERTEX
  5
28C
330
1F5
100
AcDbEntity
  8
Default
100
AcDbVertex
100
AcDb2dVertex
 10
6022.244564354255
 20
-2898.283872436127
 30
0.0
  0
VERTEX
  5
28D
330
1F5
100
AcDbEntity
  8
Default
100
AcDbVertex
100
AcDb2dVertex
 10
6022.438754755107
 20
-2898.218569389192
 30
0.0
  0
VERTEX
  5
28E
330
1F5
100
AcDbEntity
  8
Default
100
AcDbVertex
100
AcDb2dVertex
 10
6022.630602428482
 20
-2898.146674535813
 30
0.0
  0
VERTEX
  5
28F
330
1F5
100
AcDbEntity
  8
Default
100
AcDbVertex
100
AcDb2dVertex
 10
6022.819883688522
 20
-2898.068271702194
 30
0.0
  0
VERTEX
  5
290
330
1F5
100
AcDbEntity
  8
Default
100
AcDbVertex
100
AcDb2dVertex
 10
6023.006377841692
 20
-2897.983452302552
 30
0.0
  0
VERTEX
  5
291
330
1F5
100
AcDbEntity
  8
Default
100
AcDbVertex
100
AcDb2dVertex
 10
6023.189867444097
 20
-2897.892315232538
 30
0.0
  0
VERTEX
  5
292
330
1F5
100
AcDbEntity
  8
Default
100
AcDbVertex
100
AcDb2dVertex
 10
6023.37013855502
 20
-2897.794966753925
 30
0.0
  0
VERTEX
  5
293
330
1F5
100
AcDbEntity
  8
Default
100
AcDbVertex
100
AcDb2dVertex
 10
6023.546980986358
 20
-2897.691520370709
 30
0.0
  0
VERTEX
  5
294
330
1F5
100
AcDbEntity
  8
Default
100
AcDbVertex
100
AcDb2dVertex
 10
6023.720188547698
 20
-2897.582096696778
 30
0.0
  0
VERTEX
  5
295
330
1F5
100
AcDbEntity
  8
Default
100
AcDbVertex
100
AcDb2dVertex
 10
6023.889559286721
 20
-2897.466823315269
 30
0.0
  0
VERTEX
  5
296
330
1F5
100
AcDbEntity
  8
Default
100
AcDbVertex
100
AcDb2dVertex
 10
6024.054895724676
 20
-2897.345834629821
 30
0.0
  0
VERTEX
  5
297
330
1F5
100
AcDbEntity
  8
Default
100
AcDbVertex
100
AcDb2dVertex
 10
6024.216005086624
 20
-2897.219271707864
 30
0.0
  0
VERTEX
  5
298
330
1F5
100
AcDbEntity
  8
Default
100
AcDbVertex
100
AcDb2dVertex
 10
6024.372699526213
 20
-2897.087282116138
 30
0.0
  0
VERTEX
  5
299
330
1F5
100
AcDbEntity
  8
Default
100
AcDbVertex
100
AcDb2dVertex
 10
6024.52479634469
 20
-2896.950019748641
 30
0.0
  0
VERTEX
  5
29A
330
1F5
100
AcDbEntity
  8
Default
100
AcDbVertex
100
AcDb2dVertex
 10
6024.672118203926
 20
-2896.807644647191
 30
0.0
  0
VERTEX
  5
29B
330
1F5
100
AcDbEntity
  8
Default
100
AcDbVertex
100
AcDb2dVertex
 10
6024.814493333183
 20
-2896.660322814827
 30
0.0
  0
VERTEX
  5
29C
330
1F5
100
AcDbEntity
  8
Default
100
AcDbVertex
100
AcDb2dVertex
 10
6024.951755729388
 20
-2896.508226022258
 30
0.0
  0
VERTEX
  5
29D
330
1F5
100
AcDbEntity
  8
Default
100
AcDbVertex
100
AcDb2dVertex
 10
6025.08374535069
 20
-2896.351531607583
 30
0.0
  0
VERTEX
  5
29E
330
1F5
100
AcDbEntity
  8
Default
100
AcDbVertex
100
AcDb2dVertex
 10
6025.210308303056
 20
-2896.190422269523
 30
0.0
  0
VERTEX
  5
29F
330
1F5
100
AcDbEntity
  8
Default
100
AcDbVertex
100
AcDb2dVertex
 10
6025.33129701971
 20
-2896.025085854404
 30
0.0
  0
VERTEX
  5
2A0
330
1F5
100
AcDbEntity
  8
Default
100
AcDbVertex
100
AcDb2dVertex
 10
6025.446570433188
 20
-2895.855715137139
 30
0.0
  0
VERTEX
  5
2A1
330
1F5
100
AcDbEntity
  8
Default
100
AcDbVertex
100
AcDb2dVertex
 10
6025.555994139812
 20
-2895.682507596453
 30
0.0
  0
VERTEX
  5
2A2
330
1F5
100
AcDbEntity
  8
Default
100
AcDbVertex
100
AcDb2dVertex
 10
6025.659440556406
 20
-2895.50566518464
 30
0.0
  0
VERTEX
  5
2A3
330
1F5
100
AcDbEntity
  8
Default
100
AcDbVertex
100
AcDb2dVertex
 10
6025.756789069046
 20
-2895.325394092091
 30
0.0
  0
VERTEX
  5
2A4
330
1F5
100
AcDbEntity
  8
Default
100
AcDbVertex
100
AcDb2dVertex
 10
6025.847926173693
 20
-2895.141904506887
 30
0.0
  0
VERTEX
  5
2A5
330
1F5
100
AcDbEntity
  8
Default
100
AcDbVertex
100
AcDb2dVertex
 10
6025.932745608535
 20
-2894.955410369728
 30
0.0
  0
VERTEX
  5
2A6
330
1F5
100
AcDbEntity
  8
Default
100
AcDbVertex
100
AcDb2dVertex
 10
6026.011148477881
 20
-2894.766129124486
 30
0.0
  0
VERTEX
  5
2A7
330
1F5
100
AcDbEntity
  8
Default
100
AcDbVertex
100
AcDb2dVertex
 10
6026.08304336747
 20
-2894.574281464681
 30
0.0
  0
VERTEX
  5
2A8
330
1F5
100
AcDbEntity
  8
Default
100
AcDbVertex
100
AcDb2dVertex
 10
6026.148346451058
 20
-2894.380091076155
 30
0.0
  0
VERTEX
  5
2A9
330
1F5
100
AcDbEntity
  8
Default
100
AcDbVertex
100
AcDb2dVertex
 10
6026.206981588151
 20
-2894.18378437627
 30
0.0
  0
VERTEX
  5
2AA
330
1F5
100
AcDbEntity
  8
Default
100
AcDbVertex
100
AcDb2dVertex
 10
6026.258880412787
 20
-2893.985590249911
 30
0.0
  0
VERTEX
  5
2AB
330
1F5
100
AcDbEntity
  8
Default
100
AcDbVertex
100
AcDb2dVertex
 10
6026.303982413243
 20
-2893.785739782619
 30
0.0
  0
VERTEX
  5
2AC
330
1F5
100
AcDbEntity
  8
Default
100
AcDbVertex
100
AcDb2dVertex
 10
6026.34223500259
 20
-2893.584465991155
 30
0.0
  0
VERTEX
  5
2AD
330
1F5
100
AcDbEntity
  8
Default
100
AcDbVertex
100
AcDb2dVertex
 10
6026.373593580011
 20
-2893.382003551814
 30
0.0
  0
VERTEX
  5
2AE
330
1F5
100
AcDbEntity
  8
Default
100
AcDbVertex
100
AcDb2dVertex
 10
6026.398021582798
 20
-2893.1785885268
 30
0.0
  0
VERTEX
  5
2AF
330
1F5
100
AcDbEntity
  8
Default
100
AcDbVertex
100
AcDb2dVertex
 10
6026.415490528985
 20
-2892.974458088989
 30
0.0
  0
VERTEX
  5
2B0
330
1F5
100
AcDbEntity
  8
Default
100
AcDbVertex
100
AcDb2dVertex
 10
6026.425980050559
 20
-2892.769850245398
 30
0.0
  0
VERTEX
  5
2B1
330
1F5
100
AcDbEntity
  8
Default
100
AcDbVertex
100
AcDb2dVertex
 10
6026.429477917202
 20
-2892.565003559677
 30
0.0
  0
SEQEND
  5
2B2
330
1F5
100
AcDbEntity
  8
Default
  0
POLYLINE
  5
2B4
330
1F
100
AcDbEntity
  8
Layer 03
100
AcDb2dPolyline
 66
     1
 10
0.0
 20
0.0
 30
0.0
 70
     1
  0
VERTEX
  5
2B5
330
2B4
100
AcDbEntity
  8
Layer 03
100
AcDbVertex
100
AcDb2dVertex
 10
6056.429477917225
 20
-2632.565003559669
 30
0.0
  0
VERTEX
  5
2B6
330
2B4
100
AcDbEntity
  8
Layer 03
100
AcDbVertex
100
AcDb2dVertex
 10
5536.429477917209
 20
-2632.565003559678
 30
0.0
  0
VERTEX
  5
2B7
330
2B4
100
AcDbEntity
  8
Layer 03
100
AcDbVertex
100
AcDb2dVertex
 10
5536.327054586651
 20
-2632.566752492579
 30
0.0
  0
VERTEX
  5
2B8
330
2B4
100
AcDbEntity
  8
Layer 03
100
AcDbVertex
100
AcDb2dVertex
 10
5536.224750677115
 20
-2632.571997252106
 30
0.0
  0
VERTEX
  5
2B9
330
2B4
100
AcDbEntity
  8
Layer 03
100
AcDbVertex
100
AcDb2dVertex
 10
5536.122685470383
 20
-2632.580731723103
 30
0.0
  0
VERTEX
  5
2BA
330
2B4
100
AcDbEntity
  8
Layer 03
100
AcDbVertex
100
AcDb2dVertex
 10
5536.02097796992
 20
-2632.592945721569
 30
0.0
  0
VERTEX
  5
2BB
330
2B4
100
AcDbEntity
  8
Layer 03
100
AcDbVertex
100
AcDb2dVertex
 10
5535.919746762122
 20
-2632.608625006526
 30
0.0
  0
VERTEX
  5
2BC
330
2B4
100
AcDbEntity
  8
Layer 03
100
AcDbVertex
100
AcDb2dVertex
 10
5535.819109878051
 20
-2632.627751296631
 30
0.0
  0
VERTEX
  5
2BD
330
2B4
100
AcDbEntity
  8
Layer 03
100
AcDbVertex
100
AcDb2dVertex
 10
5535.719184655809
 20
-2632.650302291484
 30
0.0
  0
VERTEX
  5
2BE
330
2B4
100
AcDbEntity
  8
Layer 03
100
AcDbVertex
100
AcDb2dVertex
 10
5535.620087603737
 20
-2632.676251697634
 30
0.0
  0
VERTEX
  5
2BF
330
2B4
100
AcDbEntity
  8
Layer 03
100
AcDbVertex
100
AcDb2dVertex
 10
5535.521934264565
 20
-2632.705569259235
 30
0.0
  0
VERTEX
  5
2C0
330
2B4
100
AcDbEntity
  8
Layer 03
100
AcDbVertex
100
AcDb2dVertex
 10
5535.424839080696
 20
-2632.738220793321
 30
0.0
  0
VERTEX
  5
2C1
330
2B4
100
AcDbEntity
  8
Layer 03
100
AcDbVertex
100
AcDb2dVertex
 10
5535.328915260769
 20
-2632.774168229664
 30
0.0
  0
VERTEX
  5
2C2
330
2B4
100
AcDbEntity
  8
Layer 03
100
AcDbVertex
100
AcDb2dVertex
 10
5535.23427464767
 20
-2632.813369655161
 30
0.0
  0
VERTEX
  5
2C3
330
2B4
100
AcDbEntity
  8
Layer 03
100
AcDbVertex
100
AcDb2dVertex
 10
5535.141027588118
 20
-2632.855779362704
 30
0.0
  0
VERTEX
  5
2C4
330
2B4
100
AcDbEntity
  8
Layer 03
100
AcDbVertex
100
AcDb2dVertex
 10
5535.049282804015
 20
-2632.901347904471
 30
0.0
  0
VERTEX
  5
2C5
330
2B4
100
AcDbEntity
  8
Layer 03
100
AcDbVertex
100
AcDb2dVertex
 10
5534.959147265675
 20
-2632.95002214958
 30
0.0
  0
VERTEX
  5
2C6
330
2B4
100
AcDbEntity
  8
Layer 03
100
AcDbVertex
100
AcDb2dVertex
 10
5534.870726067103
 20
-2633.001745346038
 30
0.0
  0
VERTEX
  5
2C7
330
2B4
100
AcDbEntity
  8
Layer 03
100
AcDbVertex
100
AcDb2dVertex
 10
5534.78412230346
 20
-2633.056457186914
 30
0.0
  0
VERTEX
  5
2C8
330
2B4
100
AcDbEntity
  8
Layer 03
100
AcDbVertex
100
AcDb2dVertex
 10
5534.699436950864
 20
-2633.114093880647
 30
0.0
  0
VERTEX
  5
2C9
330
2B4
100
AcDbEntity
  8
Layer 03
100
AcDbVertex
100
AcDb2dVertex
 10
5534.616768748645
 20
-2633.17458822543
 30
0.0
  0
VERTEX
  5
2CA
330
2B4
100
AcDbEntity
  8
Layer 03
100
AcDbVertex
100
AcDb2dVertex
 10
5534.536214084231
 20
-2633.237869687564
 30
0.0
  0
VERTEX
  5
2CB
330
2B4
100
AcDbEntity
  8
Layer 03
100
AcDbVertex
100
AcDb2dVertex
 10
5534.457866880754
 20
-2633.303864483696
 30
0.0
  0
VERTEX
  5
2CC
330
2B4
100
AcDbEntity
  8
Layer 03
100
AcDbVertex
100
AcDb2dVertex
 10
5534.381818487553
 20
-2633.372495666843
 30
0.0
  0
VERTEX
  5
2CD
330
2B4
100
AcDbEntity
  8
Layer 03
100
AcDbVertex
100
AcDb2dVertex
 10
5534.308157573649
 20
-2633.443683216118
 30
0.0
  0
VERTEX
  5
2CE
330
2B4
100
AcDbEntity
  8
Layer 03
100
AcDbVertex
100
AcDb2dVertex
 10
5534.236970024374
 20
-2633.517344130022
 30
0.0
  0
VERTEX
  5
2CF
330
2B4
100
AcDbEntity
  8
Layer 03
100
AcDbVertex
100
AcDb2dVertex
 10
5534.168338841227
 20
-2633.593392523224
 30
0.0
  0
VERTEX
  5
2D0
330
2B4
100
AcDbEntity
  8
Layer 03
100
AcDbVertex
100
AcDb2dVertex
 10
5534.102344045095
 20
-2633.6717397267
 30
0.0
  0
VERTEX
  5
2D1
330
2B4
100
AcDbEntity
  8
Layer 03
100
AcDbVertex
100
AcDb2dVertex
 10
5534.03906258296
 20
-2633.752294391114
 30
0.0
  0
VERTEX
  5
2D2
330
2B4
100
AcDbEntity
  8
Layer 03
100
AcDbVertex
100
AcDb2dVertex
 10
5533.978568238177
 20
-2633.834962593333
 30
0.0
  0
VERTEX
  5
2D3
330
2B4
100
AcDbEntity
  8
Layer 03
100
AcDbVertex
100
AcDb2dVertex
 10
5533.920931544444
 20
-2633.91964794593
 30
0.0
  0
VERTEX
  5
2D4
330
2B4
100
AcDbEntity
  8
Layer 03
100
AcDbVertex
100
AcDb2dVertex
 10
5533.866219703569
 20
-2634.006251709572
 30
0.0
  0
VERTEX
  5
2D5
330
2B4
100
AcDbEntity
  8
Layer 03
100
AcDbVertex
100
AcDb2dVertex
 10
5533.814496507111
 20
-2634.094672908144
 30
0.0
  0
VERTEX
  5
2D6
330
2B4
100
AcDbEntity
  8
Layer 03
100
AcDbVertex
100
AcDb2dVertex
 10
5533.765822262001
 20
-2634.184808446485
 30
0.0
  0
VERTEX
  5
2D7
330
2B4
100
AcDbEntity
  8
Layer 03
100
AcDbVertex
100
AcDb2dVertex
 10
5533.720253720235
 20
-2634.276553230588
 30
0.0
  0
VERTEX
  5
2D8
330
2B4
100
AcDbEntity
  8
Layer 03
100
AcDbVertex
100
AcDb2dVertex
 10
5533.677844012692
 20
-2634.369800290139
 30
0.0
  0
VERTEX
  5
2D9
330
2B4
100
AcDbEntity
  8
Layer 03
100
AcDbVertex
100
AcDb2dVertex
 10
5533.638642587195
 20
-2634.464440903239
 30
0.0
  0
VERTEX
  5
2DA
330
2B4
100
AcDbEntity
  8
Layer 03
100
AcDbVertex
100
AcDb2dVertex
 10
5533.602695150852
 20
-2634.560364723165
 30
0.0
  0
VERTEX
  5
2DB
330
2B4
100
AcDbEntity
  8
Layer 03
100
AcDbVertex
100
AcDb2dVertex
 10
5533.570043616766
 20
-2634.657459907035
 30
0.0
  0
VERTEX
  5
2DC
330
2B4
100
AcDbEntity
  8
Layer 03
100
AcDbVertex
100
AcDb2dVertex
 10
5533.540726055166
 20
-2634.755613246207
 30
0.0
  0
VERTEX
  5
2DD
330
2B4
100
AcDbEntity
  8
Layer 03
100
AcDbVertex
100
AcDb2dVertex
 10
5533.514776649014
 20
-2634.854710298279
 30
0.0
  0
VERTEX
  5
2DE
330
2B4
100
AcDbEntity
  8
Layer 03
100
AcDbVertex
100
AcDb2dVertex
 10
5533.492225654161
 20
-2634.95463552052
 30
0.0
  0
VERTEX
  5
2DF
330
2B4
100
AcDbEntity
  8
Layer 03
100
AcDbVertex
100
AcDb2dVertex
 10
5533.473099364057
 20
-2635.055272404592
 30
0.0
  0
VERTEX
  5
2E0
330
2B4
100
AcDbEntity
  8
Layer 03
100
AcDbVertex
100
AcDb2dVertex
 10
5533.457420079099
 20
-2635.156503612389
 30
0.0
  0
VERTEX
  5
2E1
330
2B4
100
AcDbEntity
  8
Layer 03
100
AcDbVertex
100
AcDb2dVertex
 10
5533.445206080634
 20
-2635.258211112852
 30
0.0
  0
VERTEX
  5
2E2
330
2B4
100
AcDbEntity
  8
Layer 03
100
AcDbVertex
100
AcDb2dVertex
 10
5533.436471609637
 20
-2635.360276319584
 30
0.0
  0
VERTEX
  5
2E3
330
2B4
100
AcDbEntity
  8
Layer 03
100
AcDbVertex
100
AcDb2dVertex
 10
5533.43122685011
 20
-2635.46258022912
 30
0.0
  0
VERTEX
  5
2E4
330
2B4
100
AcDbEntity
  8
Layer 03
100
AcDbVertex
100
AcDb2dVertex
 10
5533.429477917209
 20
-2635.565003559678
 30
0.0
  0
VERTEX
  5
2E5
330
2B4
100
AcDbEntity
  8
Layer 03
100
AcDbVertex
100
AcDb2dVertex
 10
5533.429477917202
 20
-2972.565003559677
 30
0.0
  0
VERTEX
  5
2E6
330
2B4
100
AcDbEntity
  8
Layer 03
100
AcDbVertex
100
AcDb2dVertex
 10
5533.431226850103
 20
-2972.667426890235
 30
0.0
  0
VERTEX
  5
2E7
330
2B4
100
AcDbEntity
  8
Layer 03
100
AcDbVertex
100
AcDb2dVertex
 10
5533.436471609631
 20
-2972.769730799771
 30
0.0
  0
VERTEX
  5
2E8
330
2B4
100
AcDbEntity
  8
Layer 03
100
AcDbVertex
100
AcDb2dVertex
 10
5533.445206080628
 20
-2972.871796006503
 30
0.0
  0
VERTEX
  5
2E9
330
2B4
100
AcDbEntity
  8
Layer 03
100
AcDbVertex
100
AcDb2dVertex
 10
5533.457420079093
 20
-2972.973503506966
 30
0.0
  0
VERTEX
  5
2EA
330
2B4
100
AcDbEntity
  8
Layer 03
100
AcDbVertex
100
AcDb2dVertex
 10
5533.473099364051
 20
-2973.074734714763
 30
0.0
  0
VERTEX
  5
2EB
330
2B4
100
AcDbEntity
  8
Layer 03
100
AcDbVertex
100
AcDb2dVertex
 10
5533.492225654156
 20
-2973.175371598835
 30
0.0
  0
VERTEX
  5
2EC
330
2B4
100
AcDbEntity
  8
Layer 03
100
AcDbVertex
100
AcDb2dVertex
 10
5533.514776649008
 20
-2973.275296821076
 30
0.0
  0
VERTEX
  5
2ED
330
2B4
100
AcDbEntity
  8
Layer 03
100
AcDbVertex
100
AcDb2dVertex
 10
5533.540726055159
 20
-2973.374393873148
 30
0.0
  0
VERTEX
  5
2EE
330
2B4
100
AcDbEntity
  8
Layer 03
100
AcDbVertex
100
AcDb2dVertex
 10
5533.57004361676
 20
-2973.47254721232
 30
0.0
  0
VERTEX
  5
2EF
330
2B4
100
AcDbEntity
  8
Layer 03
100
AcDbVertex
100
AcDb2dVertex
 10
5533.602695150846
 20
-2973.56964239619
 30
0.0
  0
VERTEX
  5
2F0
330
2B4
100
AcDbEntity
  8
Layer 03
100
AcDbVertex
100
AcDb2dVertex
 10
5533.638642587189
 20
-2973.665566216116
 30
0.0
  0
VERTEX
  5
2F1
330
2B4
100
AcDbEntity
  8
Layer 03
100
AcDbVertex
100
AcDb2dVertex
 10
5533.677844012686
 20
-2973.760206829216
 30
0.0
  0
VERTEX
  5
2F2
330
2B4
100
AcDbEntity
  8
Layer 03
100
AcDbVertex
100
AcDb2dVertex
 10
5533.720253720229
 20
-2973.853453888767
 30
0.0
  0
VERTEX
  5
2F3
330
2B4
100
AcDbEntity
  8
Layer 03
100
AcDbVertex
100
AcDb2dVertex
 10
5533.765822261996
 20
-2973.94519867287
 30
0.0
  0
VERTEX
  5
2F4
330
2B4
100
AcDbEntity
  8
Layer 03
100
AcDbVertex
100
AcDb2dVertex
 10
5533.814496507104
 20
-2974.035334211211
 30
0.0
  0
VERTEX
  5
2F5
330
2B4
100
AcDbEntity
  8
Layer 03
100
AcDbVertex
100
AcDb2dVertex
 10
5533.866219703563
 20
-2974.123755409783
 30
0.0
  0
VERTEX
  5
2F6
330
2B4
100
AcDbEntity
  8
Layer 03
100
AcDbVertex
100
AcDb2dVertex
 10
5533.920931544439
 20
-2974.210359173425
 30
0.0
  0
VERTEX
  5
2F7
330
2B4
100
AcDbEntity
  8
Layer 03
100
AcDbVertex
100
AcDb2dVertex
 10
5533.978568238172
 20
-2974.295044526022
 30
0.0
  0
VERTEX
  5
2F8
330
2B4
100
AcDbEntity
  8
Layer 03
100
AcDbVertex
100
AcDb2dVertex
 10
5534.039062582955
 20
-2974.377712728241
 30
0.0
  0
VERTEX
  5
2F9
330
2B4
100
AcDbEntity
  8
Layer 03
100
AcDbVertex
100
AcDb2dVertex
 10
5534.102344045089
 20
-2974.458267392655
 30
0.0
  0
VERTEX
  5
2FA
330
2B4
100
AcDbEntity
  8
Layer 03
100
AcDbVertex
100
AcDb2dVertex
 10
5534.16833884122
 20
-2974.536614596131
 30
0.0
  0
VERTEX
  5
2FB
330
2B4
100
AcDbEntity
  8
Layer 03
100
AcDbVertex
100
AcDb2dVertex
 10
5534.236970024368
 20
-2974.612662989333
 30
0.0
  0
VERTEX
  5
2FC
330
2B4
100
AcDbEntity
  8
Layer 03
100
AcDbVertex
100
AcDb2dVertex
 10
5534.308157573643
 20
-2974.686323903237
 30
0.0
  0
VERTEX
  5
2FD
330
2B4
100
AcDbEntity
  8
Layer 03
100
AcDbVertex
100
AcDb2dVertex
 10
5534.381818487546
 20
-2974.757511452512
 30
0.0
  0
VERTEX
  5
2FE
330
2B4
100
AcDbEntity
  8
Layer 03
100
AcDbVertex
100
AcDb2dVertex
 10
5534.457866880749
 20
-2974.826142635659
 30
0.0
  0
VERTEX
  5
2FF
330
2B4
100
AcDbEntity
  8
Layer 03
100
AcDbVertex
100
AcDb2dVertex
 10
5534.536214084224
 20
-2974.892137431791
 30
0.0
  0
VERTEX
  5
300
330
2B4
100
AcDbEntity
  8
Layer 03
100
AcDbVertex
100
AcDb2dVertex
 10
5534.61676874864
 20
-2974.955418893925
 30
0.0
  0
VERTEX
  5
301
330
2B4
100
AcDbEntity
  8
Layer 03
100
AcDbVertex
100
AcDb2dVertex
 10
5534.699436950858
 20
-2975.015913238708
 30
0.0
  0
VERTEX
  5
302
330
2B4
100
AcDbEntity
  8
Layer 03
100
AcDbVertex
100
AcDb2dVertex
 10
5534.784122303455
 20
-2975.073549932441
 30
0.0
  0
VERTEX
  5
303
330
2B4
100
AcDbEntity
  8
Layer 03
100
AcDbVertex
100
AcDb2dVertex
 10
5534.870726067096
 20
-2975.128261773317
 30
0.0
  0
VERTEX
  5
304
330
2B4
100
AcDbEntity
  8
Layer 03
100
AcDbVertex
100
AcDb2dVertex
 10
5534.959147265668
 20
-2975.179984969775
 30
0.0
  0
VERTEX
  5
305
330
2B4
100
AcDbEntity
  8
Layer 03
100
AcDbVertex
100
AcDb2dVertex
 10
5535.04928280401
 20
-2975.228659214884
 30
0.0
  0
VERTEX
  5
306
330
2B4
100
AcDbEntity
  8
Layer 03
100
AcDbVertex
100
AcDb2dVertex
 10
5535.141027588113
 20
-2975.274227756651
 30
0.0
  0
VERTEX
  5
307
330
2B4
100
AcDbEntity
  8
Layer 03
100
AcDbVertex
100
AcDb2dVertex
 10
5535.234274647664
 20
-2975.316637464193
 30
0.0
  0
VERTEX
  5
308
330
2B4
100
AcDbEntity
  8
Layer 03
100
AcDbVertex
100
AcDb2dVertex
 10
5535.328915260764
 20
-2975.35583888969
 30
0.0
  0
VERTEX
  5
309
330
2B4
100
AcDbEntity
  8
Layer 03
100
AcDbVertex
100
AcDb2dVertex
 10
5535.42483908069
 20
-2975.391786326034
 30
0.0
  0
VERTEX
  5
30A
330
2B4
100
AcDbEntity
  8
Layer 03
100
AcDbVertex
100
AcDb2dVertex
 10
5535.52193426456
 20
-2975.42443786012
 30
0.0
  0
VERTEX
  5
30B
330
2B4
100
AcDbEntity
  8
Layer 03
100
AcDbVertex
100
AcDb2dVertex
 10
5535.620087603732
 20
-2975.45375542172
 30
0.0
  0
VERTEX
  5
30C
330
2B4
100
AcDbEntity
  8
Layer 03
100
AcDbVertex
100
AcDb2dVertex
 10
5535.719184655803
 20
-2975.479704827871
 30
0.0
  0
VERTEX
  5
30D
330
2B4
100
AcDbEntity
  8
Layer 03
100
AcDbVertex
100
AcDb2dVertex
 10
5535.819109878045
 20
-2975.502255822724
 30
0.0
  0
VERTEX
  5
30E
330
2B4
100
AcDbEntity
  8
Layer 03
100
AcDbVertex
100
AcDb2dVertex
 10
5535.919746762117
 20
-2975.521382112829
 30
0.0
  0
VERTEX
  5
30F
330
2B4
100
AcDbEntity
  8
Layer 03
100
AcDbVertex
100
AcDb2dVertex
 10
5536.020977969914
 20
-2975.537061397786
 30
0.0
  0
VERTEX
  5
310
330
2B4
100
AcDbEntity
  8
Layer 03
100
AcDbVertex
100
AcDb2dVertex
 10
5536.122685470377
 20
-2975.549275396251
 30
0.0
  0
VERTEX
  5
311
330
2B4
100
AcDbEntity
  8
Layer 03
100
AcDbVertex
100
AcDb2dVertex
 10
5536.224750677109
 20
-2975.558009867249
 30
0.0
  0
VERTEX
  5
312
330
2B4
100
AcDbEntity
  8
Layer 03
100
AcDbVertex
100
AcDb2dVertex
 10
5536.327054586645
 20
-2975.563254626775
 30
0.0
  0
VERTEX
  5
313
330
2B4
100
AcDbEntity
  8
Layer 03
100
AcDbVertex
100
AcDb2dVertex
 10
5536.429477917203
 20
-2975.565003559677
 30
0.0
  0
VERTEX
  5
314
330
2B4
100
AcDbEntity
  8
Layer 03
100
AcDbVertex
100
AcDb2dVertex
 10
6056.429477917202
 20
-2975.565003559679
 30
0.0
  0
VERTEX
  5
315
330
2B4
100
AcDbEntity
  8
Layer 03
100
AcDbVertex
100
AcDb2dVertex
 10
6056.53190124776
 20
-2975.563254626777
 30
0.0
  0
VERTEX
  5
316
330
2B4
100
AcDbEntity
  8
Layer 03
100
AcDbVertex
100
AcDb2dVertex
 10
6056.634205157296
 20
-2975.55800986725
 30
0.0
  0
VERTEX
  5
317
330
2B4
100
AcDbEntity
  8
Layer 03
100
AcDbVertex
100
AcDb2dVertex
 10
6056.736270364027
 20
-2975.549275396253
 30
0.0
  0
VERTEX
  5
318
330
2B4
100
AcDbEntity
  8
Layer 03
100
AcDbVertex
100
AcDb2dVertex
 10
6056.837977864489
 20
-2975.537061397788
 30
0.0
  0
VERTEX
  5
319
330
2B4
100
AcDbEntity
  8
Layer 03
100
AcDbVertex
100
AcDb2dVertex
 10
6056.939209072287
 20
-2975.52138211283
 30
0.0
  0
VERTEX
  5
31A
330
2B4
100
AcDbEntity
  8
Layer 03
100
AcDbVertex
100
AcDb2dVertex
 10
6057.039845956358
 20
-2975.502255822726
 30
0.0
  0
VERTEX
  5
31B
330
2B4
100
AcDbEntity
  8
Layer 03
100
AcDbVertex
100
AcDb2dVertex
 10
6057.139771178599
 20
-2975.479704827873
 30
0.0
  0
VERTEX
  5
31C
330
2B4
100
AcDbEntity
  8
Layer 03
100
AcDbVertex
100
AcDb2dVertex
 10
6057.23886823067
 20
-2975.453755421723
 30
0.0
  0
VERTEX
  5
31D
330
2B4
100
AcDbEntity
  8
Layer 03
100
AcDbVertex
100
AcDb2dVertex
 10
6057.337021569842
 20
-2975.424437860122
 30
0.0
  0
VERTEX
  5
31E
330
2B4
100
AcDbEntity
  8
Layer 03
100
AcDbVertex
100
AcDb2dVertex
 10
6057.434116753711
 20
-2975.391786326036
 30
0.0
  0
VERTEX
  5
31F
330
2B4
100
AcDbEntity
  8
Layer 03
100
AcDbVertex
100
AcDb2dVertex
 10
6057.530040573637
 20
-2975.355838889694
 30
0.0
  0
VERTEX
  5
320
330
2B4
100
AcDbEntity
  8
Layer 03
100
AcDbVertex
100
AcDb2dVertex
 10
6057.624681186737
 20
-2975.316637464197
 30
0.0
  0
VERTEX
  5
321
330
2B4
100
AcDbEntity
  8
Layer 03
100
AcDbVertex
100
AcDb2dVertex
 10
6057.717928246288
 20
-2975.274227756654
 30
0.0
  0
VERTEX
  5
322
330
2B4
100
AcDbEntity
  8
Layer 03
100
AcDbVertex
100
AcDb2dVertex
 10
6057.809673030391
 20
-2975.228659214888
 30
0.0
  0
VERTEX
  5
323
330
2B4
100
AcDbEntity
  8
Layer 03
100
AcDbVertex
100
AcDb2dVertex
 10
6057.899808568731
 20
-2975.17998496978
 30
0.0
  0
VERTEX
  5
324
330
2B4
100
AcDbEntity
  8
Layer 03
100
AcDbVertex
100
AcDb2dVertex
 10
6057.988229767303
 20
-2975.128261773321
 30
0.0
  0
VERTEX
  5
325
330
2B4
100
AcDbEntity
  8
Layer 03
100
AcDbVertex
100
AcDb2dVertex
 10
6058.074833530944
 20
-2975.073549932446
 30
0.0
  0
VERTEX
  5
326
330
2B4
100
AcDbEntity
  8
Layer 03
100
AcDbVertex
100
AcDb2dVertex
 10
6058.159518883541
 20
-2975.015913238714
 30
0.0
  0
VERTEX
  5
327
330
2B4
100
AcDbEntity
  8
Layer 03
100
AcDbVertex
100
AcDb2dVertex
 10
6058.24218708576
 20
-2974.955418893931
 30
0.0
  0
VERTEX
  5
328
330
2B4
100
AcDbEntity
  8
Layer 03
100
AcDbVertex
100
AcDb2dVertex
 10
6058.322741750174
 20
-2974.892137431797
 30
0.0
  0
VERTEX
  5
329
330
2B4
100
AcDbEntity
  8
Layer 03
100
AcDbVertex
100
AcDb2dVertex
 10
6058.40108895365
 20
-2974.826142635666
 30
0.0
  0
VERTEX
  5
32A
330
2B4
100
AcDbEntity
  8
Layer 03
100
AcDbVertex
100
AcDb2dVertex
 10
6058.477137346852
 20
-2974.757511452519
 30
0.0
  0
VERTEX
  5
32B
330
2B4
100
AcDbEntity
  8
Layer 03
100
AcDbVertex
100
AcDb2dVertex
 10
6058.550798260756
 20
-2974.686323903245
 30
0.0
  0
VERTEX
  5
32C
330
2B4
100
AcDbEntity
  8
Layer 03
100
AcDbVertex
100
AcDb2dVertex
 10
6058.62198581003
 20
-2974.612662989342
 30
0.0
  0
VERTEX
  5
32D
330
2B4
100
AcDbEntity
  8
Layer 03
100
AcDbVertex
100
AcDb2dVertex
 10
6058.690616993178
 20
-2974.53661459614
 30
0.0
  0
VERTEX
  5
32E
330
2B4
100
AcDbEntity
  8
Layer 03
100
AcDbVertex
100
AcDb2dVertex
 10
6058.756611789309
 20
-2974.458267392665
 30
0.0
  0
VERTEX
  5
32F
330
2B4
100
AcDbEntity
  8
Layer 03
100
AcDbVertex
100
AcDb2dVertex
 10
6058.819893251443
 20
-2974.377712728251
 30
0.0
  0
VERTEX
  5
330
330
2B4
100
AcDbEntity
  8
Layer 03
100
AcDbVertex
100
AcDb2dVertex
 10
6058.880387596228
 20
-2974.295044526032
 30
0.0
  0
VERTEX
  5
331
330
2B4
100
AcDbEntity
  8
Layer 03
100
AcDbVertex
100
AcDb2dVertex
 10
6058.938024289961
 20
-2974.210359173436
 30
0.0
  0
VERTEX
  5
332
330
2B4
100
AcDbEntity
  8
Layer 03
100
AcDbVertex
100
AcDb2dVertex
 10
6058.992736130836
 20
-2974.123755409795
 30
0.0
  0
VERTEX
  5
333
330
2B4
100
AcDbEntity
  8
Layer 03
100
AcDbVertex
100
AcDb2dVertex
 10
6059.044459327295
 20
-2974.035334211223
 30
0.0
  0
VERTEX
  5
334
330
2B4
100
AcDbEntity
  8
Layer 03
100
AcDbVertex
100
AcDb2dVertex
 10
6059.093133572404
 20
-2973.945198672883
 30
0.0
  0
VERTEX
  5
335
330
2B4
100
AcDbEntity
  8
Layer 03
100
AcDbVertex
100
AcDb2dVertex
 10
6059.13870211417
 20
-2973.853453888781
 30
0.0
  0
VERTEX
  5
336
330
2B4
100
AcDbEntity
  8
Layer 03
100
AcDbVertex
100
AcDb2dVertex
 10
6059.181111821714
 20
-2973.76020682923
 30
0.0
  0
VERTEX
  5
337
330
2B4
100
AcDbEntity
  8
Layer 03
100
AcDbVertex
100
AcDb2dVertex
 10
6059.22031324721
 20
-2973.665566216131
 30
0.0
  0
VERTEX
  5
338
330
2B4
100
AcDbEntity
  8
Layer 03
100
AcDbVertex
100
AcDb2dVertex
 10
6059.256260683554
 20
-2973.569642396205
 30
0.0
  0
VERTEX
  5
339
330
2B4
100
AcDbEntity
  8
Layer 03
100
AcDbVertex
100
AcDb2dVertex
 10
6059.28891221764
 20
-2973.472547212336
 30
0.0
  0
VERTEX
  5
33A
330
2B4
100
AcDbEntity
  8
Layer 03
100
AcDbVertex
100
AcDb2dVertex
 10
6059.318229779242
 20
-2973.374393873164
 30
0.0
  0
VERTEX
  5
33B
330
2B4
100
AcDbEntity
  8
Layer 03
100
AcDbVertex
100
AcDb2dVertex
 10
6059.344179185393
 20
-2973.275296821093
 30
0.0
  0
VERTEX
  5
33C
330
2B4
100
AcDbEntity
  8
Layer 03
100
AcDbVertex
100
AcDb2dVertex
 10
6059.366730180246
 20
-2973.175371598852
 30
0.0
  0
VERTEX
  5
33D
330
2B4
100
AcDbEntity
  8
Layer 03
100
AcDbVertex
100
AcDb2dVertex
 10
6059.385856470351
 20
-2973.074734714781
 30
0.0
  0
VERTEX
  5
33E
330
2B4
100
AcDbEntity
  8
Layer 03
100
AcDbVertex
100
AcDb2dVertex
 10
6059.401535755309
 20
-2972.973503506984
 30
0.0
  0
VERTEX
  5
33F
330
2B4
100
AcDbEntity
  8
Layer 03
100
AcDbVertex
100
AcDb2dVertex
 10
6059.413749753775
 20
-2972.871796006521
 30
0.0
  0
VERTEX
  5
340
330
2B4
100
AcDbEntity
  8
Layer 03
100
AcDbVertex
100
AcDb2dVertex
 10
6059.422484224773
 20
-2972.76973079979
 30
0.0
  0
VERTEX
  5
341
330
2B4
100
AcDbEntity
  8
Layer 03
100
AcDbVertex
100
AcDb2dVertex
 10
6059.4277289843
 20
-2972.667426890254
 30
0.0
  0
VERTEX
  5
342
330
2B4
100
AcDbEntity
  8
Layer 03
100
AcDbVertex
100
AcDb2dVertex
 10
6059.429477917202
 20
-2972.565003559697
 30
0.0
  0
VERTEX
  5
343
330
2B4
100
AcDbEntity
  8
Layer 03
100
AcDbVertex
100
AcDb2dVertex
 10
6059.429477917202
 20
-2635.565003559679
 30
0.0
  0
VERTEX
  5
344
330
2B4
100
AcDbEntity
  8
Layer 03
100
AcDbVertex
100
AcDb2dVertex
 10
6059.427728984301
 20
-2635.462580229121
 30
0.0
  0
VERTEX
  5
345
330
2B4
100
AcDbEntity
  8
Layer 03
100
AcDbVertex
100
AcDb2dVertex
 10
6059.422484224775
 20
-2635.360276319585
 30
0.0
  0
VERTEX
  5
346
330
2B4
100
AcDbEntity
  8
Layer 03
100
AcDbVertex
100
AcDb2dVertex
 10
6059.413749753778
 20
-2635.258211112854
 30
0.0
  0
VERTEX
  5
347
330
2B4
100
AcDbEntity
  8
Layer 03
100
AcDbVertex
100
AcDb2dVertex
 10
6059.401535755313
 20
-2635.156503612391
 30
0.0
  0
VERTEX
  5
348
330
2B4
100
AcDbEntity
  8
Layer 03
100
AcDbVertex
100
AcDb2dVertex
 10
6059.385856470356
 20
-2635.055272404594
 30
0.0
  0
VERTEX
  5
349
330
2B4
100
AcDbEntity
  8
Layer 03
100
AcDbVertex
100
AcDb2dVertex
 10
6059.366730180252
 20
-2634.954635520523
 30
0.0
  0
VERTEX
  5
34A
330
2B4
100
AcDbEntity
  8
Layer 03
100
AcDbVertex
100
AcDb2dVertex
 10
6059.344179185398
 20
-2634.854710298281
 30
0.0
  0
VERTEX
  5
34B
330
2B4
100
AcDbEntity
  8
Layer 03
100
AcDbVertex
100
AcDb2dVertex
 10
6059.318229779249
 20
-2634.75561324621
 30
0.0
  0
VERTEX
  5
34C
330
2B4
100
AcDbEntity
  8
Layer 03
100
AcDbVertex
100
AcDb2dVertex
 10
6059.288912217648
 20
-2634.657459907038
 30
0.0
  0
VERTEX
  5
34D
330
2B4
100
AcDbEntity
  8
Layer 03
100
AcDbVertex
100
AcDb2dVertex
 10
6059.256260683564
 20
-2634.560364723168
 30
0.0
  0
VERTEX
  5
34E
330
2B4
100
AcDbEntity
  8
Layer 03
100
AcDbVertex
100
AcDb2dVertex
 10
6059.22031324722
 20
-2634.464440903242
 30
0.0
  0
VERTEX
  5
34F
330
2B4
100
AcDbEntity
  8
Layer 03
100
AcDbVertex
100
AcDb2dVertex
 10
6059.181111821724
 20
-2634.369800290142
 30
0.0
  0
VERTEX
  5
350
330
2B4
100
AcDbEntity
  8
Layer 03
100
AcDbVertex
100
AcDb2dVertex
 10
6059.138702114182
 20
-2634.276553230591
 30
0.0
  0
VERTEX
  5
351
330
2B4
100
AcDbEntity
  8
Layer 03
100
AcDbVertex
100
AcDb2dVertex
 10
6059.093133572416
 20
-2634.184808446488
 30
0.0
  0
VERTEX
  5
352
330
2B4
100
AcDbEntity
  8
Layer 03
100
AcDbVertex
100
AcDb2dVertex
 10
6059.044459327308
 20
-2634.094672908147
 30
0.0
  0
VERTEX
  5
353
330
2B4
100
AcDbEntity
  8
Layer 03
100
AcDbVertex
100
AcDb2dVertex
 10
6058.992736130849
 20
-2634.006251709575
 30
0.0
  0
VERTEX
  5
354
330
2B4
100
AcDbEntity
  8
Layer 03
100
AcDbVertex
100
AcDb2dVertex
 10
6058.938024289975
 20
-2633.919647945934
 30
0.0
  0
VERTEX
  5
355
330
2B4
100
AcDbEntity
  8
Layer 03
100
AcDbVertex
100
AcDb2dVertex
 10
6058.880387596242
 20
-2633.834962593337
 30
0.0
  0
VERTEX
  5
356
330
2B4
100
AcDbEntity
  8
Layer 03
100
AcDbVertex
100
AcDb2dVertex
 10
6058.819893251459
 20
-2633.752294391118
 30
0.0
  0
VERTEX
  5
357
330
2B4
100
AcDbEntity
  8
Layer 03
100
AcDbVertex
100
AcDb2dVertex
 10
6058.756611789326
 20
-2633.671739726703
 30
0.0
  0
VERTEX
  5
358
330
2B4
100
AcDbEntity
  8
Layer 03
100
AcDbVertex
100
AcDb2dVertex
 10
6058.690616993195
 20
-2633.593392523228
 30
0.0
  0
VERTEX
  5
359
330
2B4
100
AcDbEntity
  8
Layer 03
100
AcDbVertex
100
AcDb2dVertex
 10
6058.621985810048
 20
-2633.517344130025
 30
0.0
  0
VERTEX
  5
35A
330
2B4
100
AcDbEntity
  8
Layer 03
100
AcDbVertex
100
AcDb2dVertex
 10
6058.550798260773
 20
-2633.443683216121
 30
0.0
  0
VERTEX
  5
35B
330
2B4
100
AcDbEntity
  8
Layer 03
100
AcDbVertex
100
AcDb2dVertex
 10
6058.477137346871
 20
-2633.372495666846
 30
0.0
  0
VERTEX
  5
35C
330
2B4
100
AcDbEntity
  8
Layer 03
100
AcDbVertex
100
AcDb2dVertex
 10
6058.401088953669
 20
-2633.303864483698
 30
0.0
  0
VERTEX
  5
35D
330
2B4
100
AcDbEntity
  8
Layer 03
100
AcDbVertex
100
AcDb2dVertex
 10
6058.322741750194
 20
-2633.237869687567
 30
0.0
  0
VERTEX
  5
35E
330
2B4
100
AcDbEntity
  8
Layer 03
100
AcDbVertex
100
AcDb2dVertex
 10
6058.24218708578
 20
-2633.174588225432
 30
0.0
  0
VERTEX
  5
35F
330
2B4
100
AcDbEntity
  8
Layer 03
100
AcDbVertex
100
AcDb2dVertex
 10
6058.159518883562
 20
-2633.114093880648
 30
0.0
  0
VERTEX
  5
360
330
2B4
100
AcDbEntity
  8
Layer 03
100
AcDbVertex
100
AcDb2dVertex
 10
6058.074833530966
 20
-2633.056457186915
 30
0.0
  0
VERTEX
  5
361
330
2B4
100
AcDbEntity
  8
Layer 03
100
AcDbVertex
100
AcDb2dVertex
 10
6057.988229767325
 20
-2633.00174534604
 30
0.0
  0
VERTEX
  5
362
330
2B4
100
AcDbEntity
  8
Layer 03
100
AcDbVertex
100
AcDb2dVertex
 10
6057.899808568753
 20
-2632.95002214958
 30
0.0
  0
VERTEX
  5
363
330
2B4
100
AcDbEntity
  8
Layer 03
100
AcDbVertex
100
AcDb2dVertex
 10
6057.809673030412
 20
-2632.901347904471
 30
0.0
  0
VERTEX
  5
364
330
2B4
100
AcDbEntity
  8
Layer 03
100
AcDbVertex
100
AcDb2dVertex
 10
6057.71792824631
 20
-2632.855779362704
 30
0.0
  0
VERTEX
  5
365
330
2B4
100
AcDbEntity
  8
Layer 03
100
AcDbVertex
100
AcDb2dVertex
 10
6057.62468118676
 20
-2632.81336965516
 30
0.0
  0
VERTEX
  5
366
330
2B4
100
AcDbEntity
  8
Layer 03
100
AcDbVertex
100
AcDb2dVertex
 10
6057.530040573661
 20
-2632.774168229663
 30
0.0
  0
VERTEX
  5
367
330
2B4
100
AcDbEntity
  8
Layer 03
100
AcDbVertex
100
AcDb2dVertex
 10
6057.434116753735
 20
-2632.73822079332
 30
0.0
  0
VERTEX
  5
368
330
2B4
100
AcDbEntity
  8
Layer 03
100
AcDbVertex
100
AcDb2dVertex
 10
6057.337021569865
 20
-2632.705569259233
 30
0.0
  0
VERTEX
  5
369
330
2B4
100
AcDbEntity
  8
Layer 03
100
AcDbVertex
100
AcDb2dVertex
 10
6057.238868230694
 20
-2632.676251697631
 30
0.0
  0
VERTEX
  5
36A
330
2B4
100
AcDbEntity
  8
Layer 03
100
AcDbVertex
100
AcDb2dVertex
 10
6057.139771178622
 20
-2632.65030229148
 30
0.0
  0
VERTEX
  5
36B
330
2B4
100
AcDbEntity
  8
Layer 03
100
AcDbVertex
100
AcDb2dVertex
 10
6057.039845956381
 20
-2632.627751296626
 30
0.0
  0
VERTEX
  5
36C
330
2B4
100
AcDbEntity
  8
Layer 03
100
AcDbVertex
100
AcDb2dVertex
 10
6056.939209072309
 20
-2632.608625006521
 30
0.0
  0
VERTEX
  5
36D
330
2B4
100
AcDbEntity
  8
Layer 03
100
AcDbVertex
100
AcDb2dVertex
 10
6056.837977864513
 20
-2632.592945721563
 30
0.0
  0
VERTEX
  5
36E
330
2B4
100
AcDbEntity
  8
Layer 03
100
AcDbVertex
100
AcDb2dVertex
 10
6056.736270364051
 20
-2632.580731723097
 30
0.0
  0
VERTEX
  5
36F
330
2B4
100
AcDbEntity
  8
Layer 03
100
AcDbVertex
100
AcDb2dVertex
 10
6056.634205157319
 20
-2632.571997252099
 30
0.0
  0
VERTEX
  5
370
330
2B4
100
AcDbEntity
  8
Layer 03
100
AcDbVertex
100
AcDb2dVertex
 10
6056.531901247783
 20
-2632.566752492572
 30
0.0
  0
SEQEND
  5
371
330
2B4
100
AcDbEntity
  8
Layer 03
  0
POLYLINE
  5
372
330
1F
100
AcDbEntity
  8
Default
  6
Continuous
100
AcDb2dPolyline
 66
     1
 10
0.0
 20
0.0
 30
0.0
 70
     1
  0
VERTEX
  5
373
330
372
100
AcDbEntity
  8
Default
  6
Continuous
100
AcDbVertex
100
AcDb2dVertex
 10
5759.717669207867
 20
-2426.912303286105
 30
0.0
  0
VERTEX
  5
374
330
372
100
AcDbEntity
  8
Default
  6
Continuous
100
AcDbVertex
100
AcDb2dVertex
 10
5758.416165727548
 20
-2426.934895575716
 30
0.0
  0
VERTEX
  5
375
330
372
100
AcDbEntity
  8
Default
  6
Continuous
100
AcDbVertex
100
AcDb2dVertex
 10
5757.116230457552
 20
-2427.0026452226
 30
0.0
  0
VERTEX
  5
376
330
372
100
AcDbEntity
  8
Default
  6
Continuous
100
AcDbVertex
100
AcDb2dVertex
 10
5755.81942971863
 20
-2427.11547059371
 30
0.0
  0
VERTEX
  5
377
330
372
100
AcDbEntity
  8
Default
  6
Continuous
100
AcDbVertex
100
AcDb2dVertex
 10
5754.52732605467
 20
-2427.27323574326
 30
0.0
  0
VERTEX
  5
378
330
372
100
AcDbEntity
  8
Default
  6
Continuous
100
AcDbVertex
100
AcDb2dVertex
 10
5753.241476349946
 20
-2427.475750576533
 30
0.0
  0
VERTEX
  5
379
330
372
100
AcDbEntity
  8
Default
  6
Continuous
100
AcDbVertex
100
AcDb2dVertex
 10
5751.963429953203
 20
-2427.722771078929
 30
0.0
  0
VERTEX
  5
37A
330
372
100
AcDbEntity
  8
Default
  6
Continuous
100
AcDbVertex
100
AcDb2dVertex
 10
5750.694726810803
 20
-2428.013999609982
 30
0.0
  0
VERTEX
  5
37B
330
372
100
AcDbEntity
  8
Default
  6
Continuous
100
AcDbVertex
100
AcDb2dVertex
 10
5749.436895611219
 20
-2428.349085261996
 30
0.0
  0
VERTEX
  5
37C
330
372
100
AcDbEntity
  8
Default
  6
Continuous
100
AcDbVertex
100
AcDb2dVertex
 10
5748.191451943076
 20
-2428.727624282858
 30
0.0
  0
VERTEX
  5
37D
330
372
100
AcDbEntity
  8
Default
  6
Continuous
100
AcDbVertex
100
AcDb2dVertex
 10
5746.959896468989
 20
-2429.149160562532
 30
0.0
  0
VERTEX
  5
37E
330
372
100
AcDbEntity
  8
Default
  6
Continuous
100
AcDbVertex
100
AcDb2dVertex
 10
5745.743713117384
 20
-2429.613186182632
 30
0.0
  0
VERTEX
  5
37F
330
372
100
AcDbEntity
  8
Default
  6
Continuous
100
AcDbVertex
100
AcDb2dVertex
 10
5744.544367294471
 20
-2430.11914202843
 30
0.0
  0
VERTEX
  5
380
330
372
100
AcDbEntity
  8
Default
  6
Continuous
100
AcDbVertex
100
AcDb2dVertex
 10
5743.363304118556
 20
-2430.666418462537
 30
0.0
  0
VERTEX
  5
381
330
372
100
AcDbEntity
  8
Default
  6
Continuous
100
AcDbVertex
100
AcDb2dVertex
 10
5742.201946678774
 20
-2431.254356059478
 30
0.0
  0
VERTEX
  5
382
330
372
100
AcDbEntity
  8
Default
  6
Continuous
100
AcDbVertex
100
AcDb2dVertex
 10
5741.061694320385
 20
-2431.88224640024
 30
0.0
  0
VERTEX
  5
383
330
372
100
AcDbEntity
  8
Default
  6
Continuous
100
AcDbVertex
100
AcDb2dVertex
 10
5739.943920958671
 20
-2432.549332925867
 30
0.0
  0
VERTEX
  5
384
330
372
100
AcDbEntity
  8
Default
  6
Continuous
100
AcDbVertex
100
AcDb2dVertex
 10
5738.84997342347
 20
-2433.254811849055
 30
0.0
  0
VERTEX
  5
385
330
372
100
AcDbEntity
  8
Default
  6
Continuous
100
AcDbVertex
100
AcDb2dVertex
 10
5737.781169836359
 20
-2433.997833122648
 30
0.0
  0
VERTEX
  5
386
330
372
100
AcDbEntity
  8
Default
  6
Continuous
100
AcDbVertex
100
AcDb2dVertex
 10
5736.738798022414
 20
-2434.777501463884
 30
0.0
  0
VERTEX
  5
387
330
372
100
AcDbEntity
  8
Default
  6
Continuous
100
AcDbVertex
100
AcDb2dVertex
 10
5735.724113958482
 20
-2435.592877433138
 30
0.0
  0
VERTEX
  5
388
330
372
100
AcDbEntity
  8
Default
  6
Continuous
100
AcDbVertex
100
AcDb2dVertex
 10
5734.73834025983
 20
-2436.442978565874
 30
0.0
  0
VERTEX
  5
389
330
372
100
AcDbEntity
  8
Default
  6
Continuous
100
AcDbVertex
100
AcDb2dVertex
 10
5733.782664706985
 20
-2437.32678055644
 30
0.0
  0
VERTEX
  5
38A
330
372
100
AcDbEntity
  8
Default
  6
Continuous
100
AcDbVertex
100
AcDb2dVertex
 10
5732.858238814554
 20
-2438.243218492274
 30
0.0
  0
VERTEX
  5
38B
330
372
100
AcDbEntity
  8
Default
  6
Continuous
100
AcDbVertex
100
AcDb2dVertex
 10
5731.966176443735
 20
-2439.191188137042
 30
0.0
  0
VERTEX
  5
38C
330
372
100
AcDbEntity
  8
Default
  6
Continuous
100
AcDbVertex
100
AcDb2dVertex
 10
5731.107552460205
 20
-2440.169547261158
 30
0.0
  0
VERTEX
  5
38D
330
372
100
AcDbEntity
  8
Default
  6
Continuous
100
AcDbVertex
100
AcDb2dVertex
 10
5730.283401438988
 20
-2441.177117018078
 30
0.0
  0
VERTEX
  5
38E
330
372
100
AcDbEntity
  8
Default
  6
Continuous
100
AcDbVertex
100
AcDb2dVertex
 10
5729.494716417874
 20
-2442.212683364723
 30
0.0
  0
VERTEX
  5
38F
330
372
100
AcDbEntity
  8
Default
  6
Continuous
100
AcDbVertex
100
AcDb2dVertex
 10
5728.742447700884
 20
-2443.274998524302
 30
0.0
  0
VERTEX
  5
390
330
372
100
AcDbEntity
  8
Default
  6
Continuous
100
AcDbVertex
100
AcDb2dVertex
 10
5728.027501713231
 20
-2444.362782489789
 30
0.0
  0
VERTEX
  5
391
330
372
100
AcDbEntity
  8
Default
  6
Continuous
100
AcDbVertex
100
AcDb2dVertex
 10
5727.350739909144
 20
-2445.474724566231
 30
0.0
  0
VERTEX
  5
392
330
372
100
AcDbEntity
  8
Default
  6
Continuous
100
AcDbVertex
100
AcDb2dVertex
 10
5726.712977733885
 20
-2446.609484950031
 30
0.0
  0
VERTEX
  5
393
330
372
100
AcDbEntity
  8
Default
  6
Continuous
100
AcDbVertex
100
AcDb2dVertex
 10
5726.114983641203
 20
-2447.765696343311
 30
0.0
  0
VERTEX
  5
394
330
372
100
AcDbEntity
  8
Default
  6
Continuous
100
AcDbVertex
100
AcDb2dVertex
 10
5725.557478167402
 20
-2448.941965601397
 30
0.0
  0
VERTEX
  5
395
330
372
100
AcDbEntity
  8
Default
  6
Continuous
100
AcDbVertex
100
AcDb2dVertex
 10
5725.041133063157
 20
-2450.136875411447
 30
0.0
  0
VERTEX
  5
396
330
372
100
AcDbEntity
  8
Default
  6
Continuous
100
AcDbVertex
100
AcDb2dVertex
 10
5724.5665704841
 20
-2451.34898600021
 30
0.0
  0
VERTEX
  5
397
330
372
100
AcDbEntity
  8
Default
  6
Continuous
100
AcDbVertex
100
AcDb2dVertex
 10
5724.134362241178
 20
-2452.576836868835
 30
0.0
  0
VERTEX
  5
398
330
372
100
AcDbEntity
  8
Default
  6
Continuous
100
AcDbVertex
100
AcDb2dVertex
 10
5723.745029111658
 20
-2453.818948552659
 30
0.0
  0
VERTEX
  5
399
330
372
100
AcDbEntity
  8
Default
  6
Continuous
100
AcDbVertex
100
AcDb2dVertex
 10
5723.39904021164
 20
-2455.073824403848
 30
0.0
  0
VERTEX
  5
39A
330
372
100
AcDbEntity
  8
Default
  6
Continuous
100
AcDbVertex
100
AcDb2dVertex
 10
5723.096812430797
 20
-2456.33995239474
 30
0.0
  0
VERTEX
  5
39B
330
372
100
AcDbEntity
  8
Default
  6
Continuous
100
AcDbVertex
100
AcDb2dVertex
 10
5722.838709930068
 20
-2457.615806939722
 30
0.0
  0
VERTEX
  5
39C
330
372
100
AcDbEntity
  8
Default
  6
Continuous
100
AcDbVertex
100
AcDb2dVertex
 10
5722.625043702862
 20
-2458.899850733439
 30
0.0
  0
VERTEX
  5
39D
330
372
100
AcDbEntity
  8
Default
  6
Continuous
100
AcDbVertex
100
AcDb2dVertex
 10
5722.45607120034
 20
-2460.190536603132
 30
0.0
  0
VERTEX
  5
39E
330
372
100
AcDbEntity
  8
Default
  6
Continuous
100
AcDbVertex
100
AcDb2dVertex
 10
5722.331996021209
 20
-2461.486309372855
 30
0.0
  0
VERTEX
  5
39F
330
372
100
AcDbEntity
  8
Default
  6
Continuous
100
AcDbVertex
100
AcDb2dVertex
 10
5722.252967666394
 20
-2462.785607737346
 30
0.0
  0
VERTEX
  5
3A0
330
372
100
AcDbEntity
  8
Default
  6
Continuous
100
AcDbVertex
100
AcDb2dVertex
 10
5722.219081358909
 20
-2464.086866143274
 30
0.0
  0
VERTEX
  5
3A1
330
372
100
AcDbEntity
  8
Default
  6
Continuous
100
AcDbVertex
100
AcDb2dVertex
 10
5722.230377929113
 20
-2465.388516675612
 30
0.0
  0
VERTEX
  5
3A2
330
372
100
AcDbEntity
  8
Default
  6
Continuous
100
AcDbVertex
100
AcDb2dVertex
 10
5722.286843765521
 20
-2466.68899094685
 30
0.0
  0
VERTEX
  5
3A3
330
372
100
AcDbEntity
  8
Default
  6
Continuous
100
AcDbVertex
100
AcDb2dVertex
 10
5722.388410831197
 20
-2467.986721986782
 30
0.0
  0
VERTEX
  5
3A4
330
372
100
AcDbEntity
  8
Default
  6
Continuous
100
AcDbVertex
100
AcDb2dVertex
 10
5722.534956745737
 20
-2469.280146130582
 30
0.0
  0
VERTEX
  5
3A5
330
372
100
AcDbEntity
  8
Default
  6
Continuous
100
AcDbVertex
100
AcDb2dVertex
 10
5722.726304932729
 20
-2470.567704902898
 30
0.0
  0
VERTEX
  5
3A6
330
372
100
AcDbEntity
  8
Default
  6
Continuous
100
AcDbVertex
100
AcDb2dVertex
 10
5722.962224832511
 20
-2471.847846895694
 30
0.0
  0
VERTEX
  5
3A7
330
372
100
AcDbEntity
  8
Default
  6
Continuous
100
AcDbVertex
100
AcDb2dVertex
 10
5723.24243217998
 20
-2473.119029637576
 30
0.0
  0
VERTEX
  5
3A8
330
372
100
AcDbEntity
  8
Default
  6
Continuous
100
AcDbVertex
100
AcDb2dVertex
 10
5723.566589347105
 20
-2474.379721452348
 30
0.0
  0
VERTEX
  5
3A9
330
372
100
AcDbEntity
  8
Default
  6
Continuous
100
AcDbVertex
100
AcDb2dVertex
 10
5723.934305749748
 20
-2475.628403304567
 30
0.0
  0
VERTEX
  5
3AA
330
372
100
AcDbEntity
  8
Default
  6
Continuous
100
AcDbVertex
100
AcDb2dVertex
 10
5724.345138318286
 20
-2476.863570629856
 30
0.0
  0
VERTEX
  5
3AB
330
372
100
AcDbEntity
  8
Default
  6
Continuous
100
AcDbVertex
100
AcDb2dVertex
 10
5724.79859203147
 20
-2478.083735147794
 30
0.0
  0
VERTEX
  5
3AC
330
372
100
AcDbEntity
  8
Default
  6
Continuous
100
AcDbVertex
100
AcDb2dVertex
 10
5725.294120512895
 20
-2479.287426655169
 30
0.0
  0
VERTEX
  5
3AD
330
372
100
AcDbEntity
  8
Default
  6
Continuous
100
AcDbVertex
100
AcDb2dVertex
 10
5725.831126689337
 20
-2480.473194797471
 30
0.0
  0
VERTEX
  5
3AE
330
372
100
AcDbEntity
  8
Default
  6
Continuous
100
AcDbVertex
100
AcDb2dVertex
 10
5726.408963510179
 20
-2481.639610816442
 30
0.0
  0
VERTEX
  5
3AF
330
372
100
AcDbEntity
  8
Default
  6
Continuous
100
AcDbVertex
100
AcDb2dVertex
 10
5727.026934727058
 20
-2482.785269271629
 30
0.0
  0
VERTEX
  5
3B0
330
372
100
AcDbEntity
  8
Default
  6
Continuous
100
AcDbVertex
100
AcDb2dVertex
 10
5727.68429573279
 20
-2483.908789733827
 30
0.0
  0
VERTEX
  5
3B1
330
372
100
AcDbEntity
  8
Default
  6
Continuous
100
AcDbVertex
100
AcDb2dVertex
 10
5728.380254458562
 20
-2485.008818448386
 30
0.0
  0
VERTEX
  5
3B2
330
372
100
AcDbEntity
  8
Default
  6
Continuous
100
AcDbVertex
100
AcDb2dVertex
 10
5729.113972328318
 20
-2486.084029966383
 30
0.0
  0
VERTEX
  5
3B3
330
372
100
AcDbEntity
  8
Default
  6
Continuous
100
AcDbVertex
100
AcDb2dVertex
 10
5729.884565269171
 20
-2487.133128741686
 30
0.0
  0
VERTEX
  5
3B4
330
372
100
AcDbEntity
  8
Default
  6
Continuous
100
AcDbVertex
100
AcDb2dVertex
 10
5730.691104776647
 20
-2488.15485069198
 30
0.0
  0
VERTEX
  5
3B5
330
372
100
AcDbEntity
  8
Default
  6
Continuous
100
AcDbVertex
100
AcDb2dVertex
 10
5731.532619033459
 20
-2489.147964721896
 30
0.0
  0
VERTEX
  5
3B6
330
372
100
AcDbEntity
  8
Default
  6
Continuous
100
AcDbVertex
100
AcDb2dVertex
 10
5732.40809408047
 20
-2490.111274206378
 30
0.0
  0
VERTEX
  5
3B7
330
372
100
AcDbEntity
  8
Default
  6
Continuous
100
AcDbVertex
100
AcDb2dVertex
 10
5733.316475038438
 20
-2491.043618432528
 30
0.0
  0
VERTEX
  5
3B8
330
372
100
AcDbEntity
  8
Default
  6
Continuous
100
AcDbVertex
100
AcDb2dVertex
 10
5734.25666737906
 20
-2491.94387399817
 30
0.0
  0
VERTEX
  5
3B9
330
372
100
AcDbEntity
  8
Default
  6
Continuous
100
AcDbVertex
100
AcDb2dVertex
 10
5735.227538243793
 20
-2492.810956165467
 30
0.0
  0
VERTEX
  5
3BA
330
372
100
AcDbEntity
  8
Default
  6
Continuous
100
AcDbVertex
100
AcDb2dVertex
 10
5736.227917808866
 20
-2493.643820167942
 30
0.0
  0
VERTEX
  5
3BB
330
372
100
AcDbEntity
  8
Default
  6
Continuous
100
AcDbVertex
100
AcDb2dVertex
 10
5737.256600694818
 20
-2494.441462469341
 30
0.0
  0
VERTEX
  5
3BC
330
372
100
AcDbEntity
  8
Default
  6
Continuous
100
AcDbVertex
100
AcDb2dVertex
 10
5738.312347418895
 20
-2495.202921972818
 30
0.0
  0
VERTEX
  5
3BD
330
372
100
AcDbEntity
  8
Default
  6
Continuous
100
AcDbVertex
100
AcDb2dVertex
 10
5739.393885888522
 20
-2495.927281178979
 30
0.0
  0
VERTEX
  5
3BE
330
372
100
AcDbEntity
  8
Default
  6
Continuous
100
AcDbVertex
100
AcDb2dVertex
 10
5740.499912934082
 20
-2496.613667291398
 30
0.0
  0
VERTEX
  5
3BF
330
372
100
AcDbEntity
  8
Default
  6
Continuous
100
AcDbVertex
100
AcDb2dVertex
 10
5741.629095879131
 20
-2497.261253268272
 30
0.0
  0
VERTEX
  5
3C0
330
372
100
AcDbEntity
  8
Default
  6
Continuous
100
AcDbVertex
100
AcDb2dVertex
 10
5742.780074146169
 20
-2497.869258818937
 30
0.0
  0
VERTEX
  5
3C1
330
372
100
AcDbEntity
  8
Default
  6
Continuous
100
AcDbVertex
100
AcDb2dVertex
 10
5743.951460896031
 20
-2498.436951344061
 30
0.0
  0
VERTEX
  5
3C2
330
372
100
AcDbEntity
  8
Default
  6
Continuous
100
AcDbVertex
100
AcDb2dVertex
 10
5745.141844698919
 20
-2498.963646818367
 30
0.0
  0
VERTEX
  5
3C3
330
372
100
AcDbEntity
  8
Default
  6
Continuous
100
AcDbVertex
100
AcDb2dVertex
 10
5746.349791235068
 20
-2499.44871061483
 30
0.0
  0
VERTEX
  5
3C4
330
372
100
AcDbEntity
  8
Default
  6
Continuous
100
AcDbVertex
100
AcDb2dVertex
 10
5747.573845022985
 20
-2499.891558269358
 30
0.0
  0
VERTEX
  5
3C5
330
372
100
AcDbEntity
  8
Default
  6
Continuous
100
AcDbVertex
100
AcDb2dVertex
 10
5748.812531173193
 20
-2500.291656185017
 30
0.0
  0
VERTEX
  5
3C6
330
372
100
AcDbEntity
  8
Default
  6
Continuous
100
AcDbVertex
100
AcDb2dVertex
 10
5750.06435716536
 20
-2500.648522274984
 30
0.0
  0
VERTEX
  5
3C7
330
372
100
AcDbEntity
  8
Default
  6
Continuous
100
AcDbVertex
100
AcDb2dVertex
 10
5751.327814646666
 20
-2500.961726543414
 30
0.0
  0
VERTEX
  5
3C8
330
372
100
AcDbEntity
  8
Default
  6
Continuous
100
AcDbVertex
100
AcDb2dVertex
 10
5752.601381249256
 20
-2501.230891603559
 30
0.0
  0
VERTEX
  5
3C9
330
372
100
AcDbEntity
  8
Default
  6
Continuous
100
AcDbVertex
100
AcDb2dVertex
 10
5753.883522424566
 20
-2501.455693132486
 30
0.0
  0
VERTEX
  5
3CA
330
372
100
AcDbEntity
  8
Default
  6
Continuous
100
AcDbVertex
100
AcDb2dVertex
 10
5755.172693292343
 20
-2501.635860261861
 30
0.0
  0
VERTEX
  5
3CB
330
372
100
AcDbEntity
  8
Default
  6
Continuous
100
AcDbVertex
100
AcDb2dVertex
 10
5756.467340502102
 20
-2501.771175904326
 30
0.0
  0
VERTEX
  5
3CC
330
372
100
AcDbEntity
  8
Default
  6
Continuous
100
AcDbVertex
100
AcDb2dVertex
 10
5757.765904104793
 20
-2501.861477015073
 30
0.0
  0
VERTEX
  5
3CD
330
372
100
AcDbEntity
  8
Default
  6
Continuous
100
AcDbVertex
100
AcDb2dVertex
 10
5759.066819432413
 20
-2501.906654788295
 30
0.0
  0
VERTEX
  5
3CE
330
372
100
AcDbEntity
  8
Default
  6
Continuous
100
AcDbVertex
100
AcDb2dVertex
 10
5760.368518983321
 20
-2501.906654788295
 30
0.0
  0
VERTEX
  5
3CF
330
372
100
AcDbEntity
  8
Default
  6
Continuous
100
AcDbVertex
100
AcDb2dVertex
 10
5761.669434310942
 20
-2501.861477015073
 30
0.0
  0
VERTEX
  5
3D0
330
372
100
AcDbEntity
  8
Default
  6
Continuous
100
AcDbVertex
100
AcDb2dVertex
 10
5762.967997913633
 20
-2501.771175904326
 30
0.0
  0
VERTEX
  5
3D1
330
372
100
AcDbEntity
  8
Default
  6
Continuous
100
AcDbVertex
100
AcDb2dVertex
 10
5764.262645123392
 20
-2501.635860261861
 30
0.0
  0
VERTEX
  5
3D2
330
372
100
AcDbEntity
  8
Default
  6
Continuous
100
AcDbVertex
100
AcDb2dVertex
 10
5765.551815991169
 20
-2501.455693132486
 30
0.0
  0
VERTEX
  5
3D3
330
372
100
AcDbEntity
  8
Default
  6
Continuous
100
AcDbVertex
100
AcDb2dVertex
 10
5766.833957166479
 20
-2501.230891603559
 30
0.0
  0
VERTEX
  5
3D4
330
372
100
AcDbEntity
  8
Default
  6
Continuous
100
AcDbVertex
100
AcDb2dVertex
 10
5768.107523769068
 20
-2500.961726543414
 30
0.0
  0
VERTEX
  5
3D5
330
372
100
AcDbEntity
  8
Default
  6
Continuous
100
AcDbVertex
100
AcDb2dVertex
 10
5769.370981250375
 20
-2500.648522274984
 30
0.0
  0
VERTEX
  5
3D6
330
372
100
AcDbEntity
  8
Default
  6
Continuous
100
AcDbVertex
100
AcDb2dVertex
 10
5770.622807242542
 20
-2500.291656185017
 30
0.0
  0
VERTEX
  5
3D7
330
372
100
AcDbEntity
  8
Default
  6
Continuous
100
AcDbVertex
100
AcDb2dVertex
 10
5771.86149339275
 20
-2499.891558269358
 30
0.0
  0
VERTEX
  5
3D8
330
372
100
AcDbEntity
  8
Default
  6
Continuous
100
AcDbVertex
100
AcDb2dVertex
 10
5773.085547180667
 20
-2499.44871061483
 30
0.0
  0
VERTEX
  5
3D9
330
372
100
AcDbEntity
  8
Default
  6
Continuous
100
AcDbVertex
100
AcDb2dVertex
 10
5774.293493716816
 20
-2498.963646818367
 30
0.0
  0
VERTEX
  5
3DA
330
372
100
AcDbEntity
  8
Default
  6
Continuous
100
AcDbVertex
100
AcDb2dVertex
 10
5775.483877519704
 20
-2498.436951344061
 30
0.0
  0
VERTEX
  5
3DB
330
372
100
AcDbEntity
  8
Default
  6
Continuous
100
AcDbVertex
100
AcDb2dVertex
 10
5776.655264269566
 20
-2497.869258818938
 30
0.0
  0
VERTEX
  5
3DC
330
372
100
AcDbEntity
  8
Default
  6
Continuous
100
AcDbVertex
100
AcDb2dVertex
 10
5777.806242536604
 20
-2497.261253268272
 30
0.0
  0
VERTEX
  5
3DD
330
372
100
AcDbEntity
  8
Default
  6
Continuous
100
AcDbVertex
100
AcDb2dVertex
 10
5778.935425481653
 20
-2496.613667291399
 30
0.0
  0
VERTEX
  5
3DE
330
372
100
AcDbEntity
  8
Default
  6
Continuous
100
AcDbVertex
100
AcDb2dVertex
 10
5780.041452527213
 20
-2495.927281178979
 30
0.0
  0
VERTEX
  5
3DF
330
372
100
AcDbEntity
  8
Default
  6
Continuous
100
AcDbVertex
100
AcDb2dVertex
 10
5781.12299099684
 20
-2495.202921972818
 30
0.0
  0
VERTEX
  5
3E0
330
372
100
AcDbEntity
  8
Default
  6
Continuous
100
AcDbVertex
100
AcDb2dVertex
 10
5782.178737720917
 20
-2494.441462469341
 30
0.0
  0
VERTEX
  5
3E1
330
372
100
AcDbEntity
  8
Default
  6
Continuous
100
AcDbVertex
100
AcDb2dVertex
 10
5783.207420606869
 20
-2493.643820167942
 30
0.0
  0
VERTEX
  5
3E2
330
372
100
AcDbEntity
  8
Default
  6
Continuous
100
AcDbVertex
100
AcDb2dVertex
 10
5784.207800171942
 20
-2492.810956165467
 30
0.0
  0
VERTEX
  5
3E3
330
372
100
AcDbEntity
  8
Default
  6
Continuous
100
AcDbVertex
100
AcDb2dVertex
 10
5785.178671036675
 20
-2491.94387399817
 30
0.0
  0
VERTEX
  5
3E4
330
372
100
AcDbEntity
  8
Default
  6
Continuous
100
AcDbVertex
100
AcDb2dVertex
 10
5786.118863377297
 20
-2491.043618432528
 30
0.0
  0
VERTEX
  5
3E5
330
372
100
AcDbEntity
  8
Default
  6
Continuous
100
AcDbVertex
100
AcDb2dVertex
 10
5787.027244335265
 20
-2490.111274206378
 30
0.0
  0
VERTEX
  5
3E6
330
372
100
AcDbEntity
  8
Default
  6
Continuous
100
AcDbVertex
100
AcDb2dVertex
 10
5787.902719382276
 20
-2489.147964721896
 30
0.0
  0
VERTEX
  5
3E7
330
372
100
AcDbEntity
  8
Default
  6
Continuous
100
AcDbVertex
100
AcDb2dVertex
 10
5788.744233639088
 20
-2488.15485069198
 30
0.0
  0
VERTEX
  5
3E8
330
372
100
AcDbEntity
  8
Default
  6
Continuous
100
AcDbVertex
100
AcDb2dVertex
 10
5789.550773146564
 20
-2487.133128741686
 30
0.0
  0
VERTEX
  5
3E9
330
372
100
AcDbEntity
  8
Default
  6
Continuous
100
AcDbVertex
100
AcDb2dVertex
 10
5790.321366087417
 20
-2486.084029966383
 30
0.0
  0
VERTEX
  5
3EA
330
372
100
AcDbEntity
  8
Default
  6
Continuous
100
AcDbVertex
100
AcDb2dVertex
 10
5791.055083957172
 20
-2485.008818448386
 30
0.0
  0
VERTEX
  5
3EB
330
372
100
AcDbEntity
  8
Default
  6
Continuous
100
AcDbVertex
100
AcDb2dVertex
 10
5791.751042682945
 20
-2483.908789733827
 30
0.0
  0
VERTEX
  5
3EC
330
372
100
AcDbEntity
  8
Default
  6
Continuous
100
AcDbVertex
100
AcDb2dVertex
 10
5792.408403688677
 20
-2482.785269271629
 30
0.0
  0
VERTEX
  5
3ED
330
372
100
AcDbEntity
  8
Default
  6
Continuous
100
AcDbVertex
100
AcDb2dVertex
 10
5793.026374905556
 20
-2481.639610816442
 30
0.0
  0
VERTEX
  5
3EE
330
372
100
AcDbEntity
  8
Default
  6
Continuous
100
AcDbVertex
100
AcDb2dVertex
 10
5793.604211726398
 20
-2480.473194797471
 30
0.0
  0
VERTEX
  5
3EF
330
372
100
AcDbEntity
  8
Default
  6
Continuous
100
AcDbVertex
100
AcDb2dVertex
 10
5794.141217902839
 20
-2479.287426655169
 30
0.0
  0
VERTEX
  5
3F0
330
372
100
AcDbEntity
  8
Default
  6
Continuous
100
AcDbVertex
100
AcDb2dVertex
 10
5794.636746384265
 20
-2478.083735147794
 30
0.0
  0
VERTEX
  5
3F1
330
372
100
AcDbEntity
  8
Default
  6
Continuous
100
AcDbVertex
100
AcDb2dVertex
 10
5795.090200097449
 20
-2476.863570629856
 30
0.0
  0
VERTEX
  5
3F2
330
372
100
AcDbEntity
  8
Default
  6
Continuous
100
AcDbVertex
100
AcDb2dVertex
 10
5795.501032665987
 20
-2475.628403304567
 30
0.0
  0
VERTEX
  5
3F3
330
372
100
AcDbEntity
  8
Default
  6
Continuous
100
AcDbVertex
100
AcDb2dVertex
 10
5795.86874906863
 20
-2474.379721452348
 30
0.0
  0
VERTEX
  5
3F4
330
372
100
AcDbEntity
  8
Default
  6
Continuous
100
AcDbVertex
100
AcDb2dVertex
 10
5796.192906235755
 20
-2473.119029637576
 30
0.0
  0
VERTEX
  5
3F5
330
372
100
AcDbEntity
  8
Default
  6
Continuous
100
AcDbVertex
100
AcDb2dVertex
 10
5796.473113583223
 20
-2471.847846895694
 30
0.0
  0
VERTEX
  5
3F6
330
372
100
AcDbEntity
  8
Default
  6
Continuous
100
AcDbVertex
100
AcDb2dVertex
 10
5796.709033483005
 20
-2470.567704902898
 30
0.0
  0
VERTEX
  5
3F7
330
372
100
AcDbEntity
  8
Default
  6
Continuous
100
AcDbVertex
100
AcDb2dVertex
 10
5796.900381669998
 20
-2469.280146130582
 30
0.0
  0
VERTEX
  5
3F8
330
372
100
AcDbEntity
  8
Default
  6
Continuous
100
AcDbVertex
100
AcDb2dVertex
 10
5797.046927584538
 20
-2467.986721986782
 30
0.0
  0
VERTEX
  5
3F9
330
372
100
AcDbEntity
  8
Default
  6
Continuous
100
AcDbVertex
100
AcDb2dVertex
 10
5797.148494650214
 20
-2466.68899094685
 30
0.0
  0
VERTEX
  5
3FA
330
372
100
AcDbEntity
  8
Default
  6
Continuous
100
AcDbVertex
100
AcDb2dVertex
 10
5797.204960486622
 20
-2465.388516675612
 30
0.0
  0
VERTEX
  5
3FB
330
372
100
AcDbEntity
  8
Default
  6
Continuous
100
AcDbVertex
100
AcDb2dVertex
 10
5797.216257056826
 20
-2464.086866143274
 30
0.0
  0
VERTEX
  5
3FC
330
372
100
AcDbEntity
  8
Default
  6
Continuous
100
AcDbVertex
100
AcDb2dVertex
 10
5797.18237074934
 20
-2462.785607737346
 30
0.0
  0
VERTEX
  5
3FD
330
372
100
AcDbEntity
  8
Default
  6
Continuous
100
AcDbVertex
100
AcDb2dVertex
 10
5797.103342394525
 20
-2461.486309372855
 30
0.0
  0
VERTEX
  5
3FE
330
372
100
AcDbEntity
  8
Default
  6
Continuous
100
AcDbVertex
100
AcDb2dVertex
 10
5796.979267215394
 20
-2460.190536603132
 30
0.0
  0
VERTEX
  5
3FF
330
372
100
AcDbEntity
  8
Default
  6
Continuous
100
AcDbVertex
100
AcDb2dVertex
 10
5796.810294712873
 20
-2458.899850733439
 30
0.0
  0
VERTEX
  5
400
330
372
100
AcDbEntity
  8
Default
  6
Continuous
100
AcDbVertex
100
AcDb2dVertex
 10
5796.596628485667
 20
-2457.615806939722
 30
0.0
  0
VERTEX
  5
401
330
372
100
AcDbEntity
  8
Default
  6
Continuous
100
AcDbVertex
100
AcDb2dVertex
 10
5796.338525984937
 20
-2456.33995239474
 30
0.0
  0
VERTEX
  5
402
330
372
100
AcDbEntity
  8
Default
  6
Continuous
100
AcDbVertex
100
AcDb2dVertex
 10
5796.036298204095
 20
-2455.073824403848
 30
0.0
  0
VERTEX
  5
403
330
372
100
AcDbEntity
  8
Default
  6
Continuous
100
AcDbVertex
100
AcDb2dVertex
 10
5795.690309304076
 20
-2453.818948552659
 30
0.0
  0
VERTEX
  5
404
330
372
100
AcDbEntity
  8
Default
  6
Continuous
100
AcDbVertex
100
AcDb2dVertex
 10
5795.300976174557
 20
-2452.576836868835
 30
0.0
  0
VERTEX
  5
405
330
372
100
AcDbEntity
  8
Default
  6
Continuous
100
AcDbVertex
100
AcDb2dVertex
 10
5794.868767931634
 20
-2451.34898600021
 30
0.0
  0
VERTEX
  5
406
330
372
100
AcDbEntity
  8
Default
  6
Continuous
100
AcDbVertex
100
AcDb2dVertex
 10
5794.394205352578
 20
-2450.136875411447
 30
0.0
  0
VERTEX
  5
407
330
372
100
AcDbEntity
  8
Default
  6
Continuous
100
AcDbVertex
100
AcDb2dVertex
 10
5793.877860248333
 20
-2448.941965601397
 30
0.0
  0
VERTEX
  5
408
330
372
100
AcDbEntity
  8
Default
  6
Continuous
100
AcDbVertex
100
AcDb2dVertex
 10
5793.320354774532
 20
-2447.765696343311
 30
0.0
  0
VERTEX
  5
409
330
372
100
AcDbEntity
  8
Default
  6
Continuous
100
AcDbVertex
100
AcDb2dVertex
 10
5792.72236068185
 20
-2446.609484950031
 30
0.0
  0
VERTEX
  5
40A
330
372
100
AcDbEntity
  8
Default
  6
Continuous
100
AcDbVertex
100
AcDb2dVertex
 10
5792.084598506591
 20
-2445.474724566231
 30
0.0
  0
VERTEX
  5
40B
330
372
100
AcDbEntity
  8
Default
  6
Continuous
100
AcDbVertex
100
AcDb2dVertex
 10
5791.407836702504
 20
-2444.362782489789
 30
0.0
  0
VERTEX
  5
40C
330
372
100
AcDbEntity
  8
Default
  6
Continuous
100
AcDbVertex
100
AcDb2dVertex
 10
5790.69289071485
 20
-2443.274998524302
 30
0.0
  0
VERTEX
  5
40D
330
372
100
AcDbEntity
  8
Default
  6
Continuous
100
AcDbVertex
100
AcDb2dVertex
 10
5789.940621997861
 20
-2442.212683364723
 30
0.0
  0
VERTEX
  5
40E
330
372
100
AcDbEntity
  8
Default
  6
Continuous
100
AcDbVertex
100
AcDb2dVertex
 10
5789.151936976747
 20
-2441.177117018078
 30
0.0
  0
VERTEX
  5
40F
330
372
100
AcDbEntity
  8
Default
  6
Continuous
100
AcDbVertex
100
AcDb2dVertex
 10
5788.32778595553
 20
-2440.169547261158
 30
0.0
  0
VERTEX
  5
410
330
372
100
AcDbEntity
  8
Default
  6
Continuous
100
AcDbVertex
100
AcDb2dVertex
 10
5787.469161972
 20
-2439.191188137042
 30
0.0
  0
VERTEX
  5
411
330
372
100
AcDbEntity
  8
Default
  6
Continuous
100
AcDbVertex
100
AcDb2dVertex
 10
5786.577099601181
 20
-2438.243218492274
 30
0.0
  0
VERTEX
  5
412
330
372
100
AcDbEntity
  8
Default
  6
Continuous
100
AcDbVertex
100
AcDb2dVertex
 10
5785.65267370875
 20
-2437.32678055644
 30
0.0
  0
VERTEX
  5
413
330
372
100
AcDbEntity
  8
Default
  6
Continuous
100
AcDbVertex
100
AcDb2dVertex
 10
5784.696998155905
 20
-2436.442978565874
 30
0.0
  0
VERTEX
  5
414
330
372
100
AcDbEntity
  8
Default
  6
Continuous
100
AcDbVertex
100
AcDb2dVertex
 10
5783.711224457253
 20
-2435.592877433138
 30
0.0
  0
VERTEX
  5
415
330
372
100
AcDbEntity
  8
Default
  6
Continuous
100
AcDbVertex
100
AcDb2dVertex
 10
5782.696540393321
 20
-2434.777501463884
 30
0.0
  0
VERTEX
  5
416
330
372
100
AcDbEntity
  8
Default
  6
Continuous
100
AcDbVertex
100
AcDb2dVertex
 10
5781.654168579375
 20
-2433.997833122648
 30
0.0
  0
VERTEX
  5
417
330
372
100
AcDbEntity
  8
Default
  6
Continuous
100
AcDbVertex
100
AcDb2dVertex
 10
5780.585364992265
 20
-2433.254811849055
 30
0.0
  0
VERTEX
  5
418
330
372
100
AcDbEntity
  8
Default
  6
Continuous
100
AcDbVertex
100
AcDb2dVertex
 10
5779.491417457064
 20
-2432.549332925867
 30
0.0
  0
VERTEX
  5
419
330
372
100
AcDbEntity
  8
Default
  6
Continuous
100
AcDbVertex
100
AcDb2dVertex
 10
5778.37364409535
 20
-2431.88224640024
 30
0.0
  0
VERTEX
  5
41A
330
372
100
AcDbEntity
  8
Default
  6
Continuous
100
AcDbVertex
100
AcDb2dVertex
 10
5777.233391736961
 20
-2431.254356059478
 30
0.0
  0
VERTEX
  5
41B
330
372
100
AcDbEntity
  8
Default
  6
Continuous
100
AcDbVertex
100
AcDb2dVertex
 10
5776.072034297179
 20
-2430.666418462537
 30
0.0
  0
VERTEX
  5
41C
330
372
100
AcDbEntity
  8
Default
  6
Continuous
100
AcDbVertex
100
AcDb2dVertex
 10
5774.890971121264
 20
-2430.11914202843
 30
0.0
  0
VERTEX
  5
41D
330
372
100
AcDbEntity
  8
Default
  6
Continuous
100
AcDbVertex
100
AcDb2dVertex
 10
5773.691625298351
 20
-2429.613186182632
 30
0.0
  0
VERTEX
  5
41E
330
372
100
AcDbEntity
  8
Default
  6
Continuous
100
AcDbVertex
100
AcDb2dVertex
 10
5772.475441946745
 20
-2429.149160562532
 30
0.0
  0
VERTEX
  5
41F
330
372
100
AcDbEntity
  8
Default
  6
Continuous
100
AcDbVertex
100
AcDb2dVertex
 10
5771.243886472659
 20
-2428.727624282858
 30
0.0
  0
VERTEX
  5
420
330
372
100
AcDbEntity
  8
Default
  6
Continuous
100
AcDbVertex
100
AcDb2dVertex
 10
5769.998442804515
 20
-2428.349085261996
 30
0.0
  0
VERTEX
  5
421
330
372
100
AcDbEntity
  8
Default
  6
Continuous
100
AcDbVertex
100
AcDb2dVertex
 10
5768.740611604931
 20
-2428.013999609982
 30
0.0
  0
VERTEX
  5
422
330
372
100
AcDbEntity
  8
Default
  6
Continuous
100
AcDbVertex
100
AcDb2dVertex
 10
5767.471908462532
 20
-2427.722771078929
 30
0.0
  0
VERTEX
  5
423
330
372
100
AcDbEntity
  8
Default
  6
Continuous
100
AcDbVertex
100
AcDb2dVertex
 10
5766.193862065788
 20
-2427.475750576533
 30
0.0
  0
VERTEX
  5
424
330
372
100
AcDbEntity
  8
Default
  6
Continuous
100
AcDbVertex
100
AcDb2dVertex
 10
5764.908012361065
 20
-2427.27323574326
 30
0.0
  0
VERTEX
  5
425
330
372
100
AcDbEntity
  8
Default
  6
Continuous
100
AcDbVertex
100
AcDb2dVertex
 10
5763.615908697105
 20
-2427.11547059371
 30
0.0
  0
VERTEX
  5
426
330
372
100
AcDbEntity
  8
Default
  6
Continuous
100
AcDbVertex
100
AcDb2dVertex
 10
5762.319107958183
 20
-2427.0026452226
 30
0.0
  0
VERTEX
  5
427
330
372
100
AcDbEntity
  8
Default
  6
Continuous
100
AcDbVertex
100
AcDb2dVertex
 10
5761.019172688187
 20
-2426.934895575716
 30
0.0
  0
SEQEND
  5
428
330
372
100
AcDbEntity
  8
Default
  6
Continuous
  0
POLYLINE
  5
42A
330
1F
100
AcDbEntity
  8
Over
  6
Continuous
100
AcDb2dPolyline
 66
     1
 10
0.0
 20
0.0
 30
0.0
 70
     1
  0
VERTEX
  5
42B
330
42A
100
AcDbEntity
  8
Over
  6
Continuous
100
AcDbVertex
100
AcDb2dVertex
 10
5759.717669207867
 20
-2423.912303286105
 30
0.0
  0
VERTEX
  5
42C
330
42A
100
AcDbEntity
  8
Over
  6
Continuous
100
AcDbVertex
100
AcDb2dVertex
 10
5758.312045449123
 20
-2423.936702958885
 30
0.0
  0
VERTEX
  5
42D
330
42A
100
AcDbEntity
  8
Over
  6
Continuous
100
AcDbVertex
100
AcDb2dVertex
 10
5756.908115357526
 20
-2424.00987257752
 30
0.0
  0
VERTEX
  5
42E
330
42A
100
AcDbEntity
  8
Over
  6
Continuous
100
AcDbVertex
100
AcDb2dVertex
 10
5755.507570559492
 20
-2424.131723978318
 30
0.0
  0
VERTEX
  5
42F
330
42A
100
AcDbEntity
  8
Over
  6
Continuous
100
AcDbVertex
100
AcDb2dVertex
 10
5754.112098602413
 20
-2424.302110339832
 30
0.0
  0
VERTEX
  5
430
330
42A
100
AcDbEntity
  8
Over
  6
Continuous
100
AcDbVertex
100
AcDb2dVertex
 10
5752.723380921312
 20
-2424.520826359767
 30
0.0
  0
VERTEX
  5
431
330
42A
100
AcDbEntity
  8
Over
  6
Continuous
100
AcDbVertex
100
AcDb2dVertex
 10
5751.343090812829
 20
-2424.787608502355
 30
0.0
  0
VERTEX
  5
432
330
42A
100
AcDbEntity
  8
Over
  6
Continuous
100
AcDbVertex
100
AcDb2dVertex
 10
5749.972891419038
 20
-2425.102135315893
 30
0.0
  0
VERTEX
  5
433
330
42A
100
AcDbEntity
  8
Over
  6
Continuous
100
AcDbVertex
100
AcDb2dVertex
 10
5748.614433723487
 20
-2425.464027820067
 30
0.0
  0
VERTEX
  5
434
330
42A
100
AcDbEntity
  8
Over
  6
Continuous
100
AcDbVertex
100
AcDb2dVertex
 10
5747.269354561892
 20
-2425.872849962598
 30
0.0
  0
VERTEX
  5
435
330
42A
100
AcDbEntity
  8
Over
  6
Continuous
100
AcDbVertex
100
AcDb2dVertex
 10
5745.939274649879
 20
-2426.328109144646
 30
0.0
  0
VERTEX
  5
436
330
42A
100
AcDbEntity
  8
Over
  6
Continuous
100
AcDbVertex
100
AcDb2dVertex
 10
5744.625796630145
 20
-2426.829256814354
 30
0.0
  0
VERTEX
  5
437
330
42A
100
AcDbEntity
  8
Over
  6
Continuous
100
AcDbVertex
100
AcDb2dVertex
 10
5743.3305031414
 20
-2427.375689127816
 30
0.0
  0
VERTEX
  5
438
330
42A
100
AcDbEntity
  8
Over
  6
Continuous
100
AcDbVertex
100
AcDb2dVertex
 10
5742.054954911411
 20
-2427.966747676652
 30
0.0
  0
VERTEX
  5
439
330
42A
100
AcDbEntity
  8
Over
  6
Continuous
100
AcDbVertex
100
AcDb2dVertex
 10
5740.800688876447
 20
-2428.601720281348
 30
0.0
  0
VERTEX
  5
43A
330
42A
100
AcDbEntity
  8
Over
  6
Continuous
100
AcDbVertex
100
AcDb2dVertex
 10
5739.569216329387
 20
-2429.279841849371
 30
0.0
  0
VERTEX
  5
43B
330
42A
100
AcDbEntity
  8
Over
  6
Continuous
100
AcDbVertex
100
AcDb2dVertex
 10
5738.362021098735
 20
-2430.000295297049
 30
0.0
  0
VERTEX
  5
43C
330
42A
100
AcDbEntity
  8
Over
  6
Continuous
100
AcDbVertex
100
AcDb2dVertex
 10
5737.180557760718
 20
-2430.762212534091
 30
0.0
  0
VERTEX
  5
43D
330
42A
100
AcDbEntity
  8
Over
  6
Continuous
100
AcDbVertex
100
AcDb2dVertex
 10
5736.026249886639
 20
-2431.564675509572
 30
0.0
  0
VERTEX
  5
43E
330
42A
100
AcDbEntity
  8
Over
  6
Continuous
100
AcDbVertex
100
AcDb2dVertex
 10
5734.900488327577
 20
-2432.406717318107
 30
0.0
  0
VERTEX
  5
43F
330
42A
100
AcDbEntity
  8
Over
  6
Continuous
100
AcDbVertex
100
AcDb2dVertex
 10
5733.804629538531
 20
-2433.2873233649
 30
0.0
  0
VERTEX
  5
440
330
42A
100
AcDbEntity
  8
Over
  6
Continuous
100
AcDbVertex
100
AcDb2dVertex
 10
5732.739993943987
 20
-2434.205432588255
 30
0.0
  0
VERTEX
  5
441
330
42A
100
AcDbEntity
  8
Over
  6
Continuous
100
AcDbVertex
100
AcDb2dVertex
 10
5731.707864346915
 20
-2435.159938738067
 30
0.0
  0
VERTEX
  5
442
330
42A
100
AcDbEntity
  8
Over
  6
Continuous
100
AcDbVertex
100
AcDb2dVertex
 10
5730.709484383089
 20
-2436.149691708767
 30
0.0
  0
VERTEX
  5
443
330
42A
100
AcDbEntity
  8
Over
  6
Continuous
100
AcDbVertex
100
AcDb2dVertex
 10
5729.746057022605
 20
-2437.173498925117
 30
0.0
  0
VERTEX
  5
444
330
42A
100
AcDbEntity
  8
Over
  6
Continuous
100
AcDbVertex
100
AcDb2dVertex
 10
5728.818743120392
 20
-2438.230126779162
 30
0.0
  0
VERTEX
  5
445
330
42A
100
AcDbEntity
  8
Over
  6
Continuous
100
AcDbVertex
100
AcDb2dVertex
 10
5727.928660017478
 20
-2439.318302116636
 30
0.0
  0
VERTEX
  5
446
330
42A
100
AcDbEntity
  8
Over
  6
Continuous
100
AcDbVertex
100
AcDb2dVertex
 10
5727.076880194675
 20
-2440.436713771012
 30
0.0
  0
VERTEX
  5
447
330
42A
100
AcDbEntity
  8
Over
  6
Continuous
100
AcDbVertex
100
AcDb2dVertex
 10
5726.264429980326
 20
-2441.584014143358
 30
0.0
  0
VERTEX
  5
448
330
42A
100
AcDbEntity
  8
Over
  6
Continuous
100
AcDbVertex
100
AcDb2dVertex
 10
5725.492288313661
 20
-2442.758820826084
 30
0.0
  0
VERTEX
  5
449
330
42A
100
AcDbEntity
  8
Over
  6
Continuous
100
AcDbVertex
100
AcDb2dVertex
 10
5724.761385565246
 20
-2443.959718268641
 30
0.0
  0
VERTEX
  5
44A
330
42A
100
AcDbEntity
  8
Over
  6
Continuous
100
AcDbVertex
100
AcDb2dVertex
 10
5724.072602415967
 20
-2445.185259483146
 30
0.0
  0
VERTEX
  5
44B
330
42A
100
AcDbEntity
  8
Over
  6
Continuous
100
AcDbVertex
100
AcDb2dVertex
 10
5723.42676879587
 20
-2446.433967787888
 30
0.0
  0
VERTEX
  5
44C
330
42A
100
AcDbEntity
  8
Over
  6
Continuous
100
AcDbVertex
100
AcDb2dVertex
 10
5722.824662884165
 20
-2447.70433858662
 30
0.0
  0
VERTEX
  5
44D
330
42A
100
AcDbEntity
  8
Over
  6
Continuous
100
AcDbVertex
100
AcDb2dVertex
 10
5722.26701017158
 20
-2448.994841181474
 30
0.0
  0
VERTEX
  5
44E
330
42A
100
AcDbEntity
  8
Over
  6
Continuous
100
AcDbVertex
100
AcDb2dVertex
 10
5721.754482586199
 20
-2450.303920617338
 30
0.0
  0
VERTEX
  5
44F
330
42A
100
AcDbEntity
  8
Over
  6
Continuous
100
AcDbVertex
100
AcDb2dVertex
 10
5721.287697683842
 20
-2451.629999555454
 30
0.0
  0
VERTEX
  5
450
330
42A
100
AcDbEntity
  8
Over
  6
Continuous
100
AcDbVertex
100
AcDb2dVertex
 10
5720.867217903962
 20
-2452.971480173983
 30
0.0
  0
VERTEX
  5
451
330
42A
100
AcDbEntity
  8
Over
  6
Continuous
100
AcDbVertex
100
AcDb2dVertex
 10
5720.493549891941
 20
-2454.326746093268
 30
0.0
  0
VERTEX
  5
452
330
42A
100
AcDbEntity
  8
Over
  6
Continuous
100
AcDbVertex
100
AcDb2dVertex
 10
5720.167143888631
 20
-2455.694164323431
 30
0.0
  0
VERTEX
  5
453
330
42A
100
AcDbEntity
  8
Over
  6
Continuous
100
AcDbVertex
100
AcDb2dVertex
 10
5719.888393187844
 20
-2457.072087232011
 30
0.0
  0
VERTEX
  5
454
330
42A
100
AcDbEntity
  8
Over
  6
Continuous
100
AcDbVertex
100
AcDb2dVertex
 10
5719.657633662461
 20
-2458.458854529226
 30
0.0
  0
VERTEX
  5
455
330
42A
100
AcDbEntity
  8
Over
  6
Continuous
100
AcDbVertex
100
AcDb2dVertex
 10
5719.475143359738
 20
-2459.852795268494
 30
0.0
  0
VERTEX
  5
456
330
42A
100
AcDbEntity
  8
Over
  6
Continuous
100
AcDbVertex
100
AcDb2dVertex
 10
5719.341142166277
 20
-2461.252229859796
 30
0.0
  0
VERTEX
  5
457
330
42A
100
AcDbEntity
  8
Over
  6
Continuous
100
AcDbVertex
100
AcDb2dVertex
 10
5719.255791543077
 20
-2462.655472093445
 30
0.0
  0
VERTEX
  5
458
330
42A
100
AcDbEntity
  8
Over
  6
Continuous
100
AcDbVertex
100
AcDb2dVertex
 10
5719.219194330992
 20
-2464.060831171848
 30
0.0
  0
VERTEX
  5
459
330
42A
100
AcDbEntity
  8
Over
  6
Continuous
100
AcDbVertex
100
AcDb2dVertex
 10
5719.231394626813
 20
-2465.466613746773
 30
0.0
  0
VERTEX
  5
45A
330
42A
100
AcDbEntity
  8
Over
  6
Continuous
100
AcDbVertex
100
AcDb2dVertex
 10
5719.292377730133
 20
-2466.871125959709
 30
0.0
  0
VERTEX
  5
45B
330
42A
100
AcDbEntity
  8
Over
  6
Continuous
100
AcDbVertex
100
AcDb2dVertex
 10
5719.402070161063
 20
-2468.272675482836
 30
0.0
  0
VERTEX
  5
45C
330
42A
100
AcDbEntity
  8
Over
  6
Continuous
100
AcDbVertex
100
AcDb2dVertex
 10
5719.560339748767
 20
-2469.66957355814
 30
0.0
  0
VERTEX
  5
45D
330
42A
100
AcDbEntity
  8
Over
  6
Continuous
100
AcDbVertex
100
AcDb2dVertex
 10
5719.766995790718
 20
-2471.060137032242
 30
0.0
  0
VERTEX
  5
45E
330
42A
100
AcDbEntity
  8
Over
  6
Continuous
100
AcDbVertex
100
AcDb2dVertex
 10
5720.021789282483
 20
-2472.442690384461
 30
0.0
  0
VERTEX
  5
45F
330
42A
100
AcDbEntity
  8
Over
  6
Continuous
100
AcDbVertex
100
AcDb2dVertex
 10
5720.324413217749
 20
-2473.815567745693
 30
0.0
  0
VERTEX
  5
460
330
42A
100
AcDbEntity
  8
Over
  6
Continuous
100
AcDbVertex
100
AcDb2dVertex
 10
5720.674502958243
 20
-2475.177114905648
 30
0.0
  0
VERTEX
  5
461
330
42A
100
AcDbEntity
  8
Over
  6
Continuous
100
AcDbVertex
100
AcDb2dVertex
 10
5721.071636673099
 20
-2476.525691306044
 30
0.0
  0
VERTEX
  5
462
330
42A
100
AcDbEntity
  8
Over
  6
Continuous
100
AcDbVertex
100
AcDb2dVertex
 10
5721.515335847119
 20
-2477.859672017356
 30
0.0
  0
VERTEX
  5
463
330
42A
100
AcDbEntity
  8
Over
  6
Continuous
100
AcDbVertex
100
AcDb2dVertex
 10
5722.005065857358
 20
-2479.177449696729
 30
0.0
  0
VERTEX
  5
464
330
42A
100
AcDbEntity
  8
Over
  6
Continuous
100
AcDbVertex
100
AcDb2dVertex
 10
5722.540236617298
 20
-2480.477436524694
 30
0.0
  0
VERTEX
  5
465
330
42A
100
AcDbEntity
  8
Over
  6
Continuous
100
AcDbVertex
100
AcDb2dVertex
 10
5723.120203287855
 20
-2481.75806611838
 30
0.0
  0
VERTEX
  5
466
330
42A
100
AcDbEntity
  8
Over
  6
Continuous
100
AcDbVertex
100
AcDb2dVertex
 10
5723.744267054364
 20
-2483.017795418869
 30
0.0
  0
VERTEX
  5
467
330
42A
100
AcDbEntity
  8
Over
  6
Continuous
100
AcDbVertex
100
AcDb2dVertex
 10
5724.411675968593
 20
-2484.255106550471
 30
0.0
  0
VERTEX
  5
468
330
42A
100
AcDbEntity
  8
Over
  6
Continuous
100
AcDbVertex
100
AcDb2dVertex
 10
5725.121625854784
 20
-2485.468508649645
 30
0.0
  0
VERTEX
  5
469
330
42A
100
AcDbEntity
  8
Over
  6
Continuous
100
AcDbVertex
100
AcDb2dVertex
 10
5725.873261278618
 20
-2486.656539661368
 30
0.0
  0
VERTEX
  5
46A
330
42A
100
AcDbEntity
  8
Over
  6
Continuous
100
AcDbVertex
100
AcDb2dVertex
 10
5726.665676577954
 20
-2487.817768100805
 30
0.0
  0
VERTEX
  5
46B
330
42A
100
AcDbEntity
  8
Over
  6
Continuous
100
AcDbVertex
100
AcDb2dVertex
 10
5727.497916954076
 20
-2488.950794778132
 30
0.0
  0
VERTEX
  5
46C
330
42A
100
AcDbEntity
  8
Over
  6
Continuous
100
AcDbVertex
100
AcDb2dVertex
 10
5728.36897962215
 20
-2490.05425448445
 30
0.0
  0
VERTEX
  5
46D
330
42A
100
AcDbEntity
  8
Over
  6
Continuous
100
AcDbVertex
100
AcDb2dVertex
 10
5729.277815019506
 20
-2491.126817636759
 30
0.0
  0
VERTEX
  5
46E
330
42A
100
AcDbEntity
  8
Over
  6
Continuous
100
AcDbVertex
100
AcDb2dVertex
 10
5730.223328070279
 20
-2492.16719188
 30
0.0
  0
VERTEX
  5
46F
330
42A
100
AcDbEntity
  8
Over
  6
Continuous
100
AcDbVertex
100
AcDb2dVertex
 10
5731.204379504884
 20
-2493.174123644242
 30
0.0
  0
VERTEX
  5
470
330
42A
100
AcDbEntity
  8
Over
  6
Continuous
100
AcDbVertex
100
AcDb2dVertex
 10
5732.219787232755
 20
-2494.146399655135
 30
0.0
  0
VERTEX
  5
471
330
42A
100
AcDbEntity
  8
Over
  6
Continuous
100
AcDbVertex
100
AcDb2dVertex
 10
5733.268327766667
 20
-2495.082848395816
 30
0.0
  0
VERTEX
  5
472
330
42A
100
AcDbEntity
  8
Over
  6
Continuous
100
AcDbVertex
100
AcDb2dVertex
 10
5734.348737696946
 20
-2495.982341518489
 30
0.0
  0
VERTEX
  5
473
330
42A
100
AcDbEntity
  8
Over
  6
Continuous
100
AcDbVertex
100
AcDb2dVertex
 10
5735.459715213775
 20
-2496.843795204
 30
0.0
  0
VERTEX
  5
474
330
42A
100
AcDbEntity
  8
Over
  6
Continuous
100
AcDbVertex
100
AcDb2dVertex
 10
5736.599921675777
 20
-2497.666171467755
 30
0.0
  0
VERTEX
  5
475
330
42A
100
AcDbEntity
  8
Over
  6
Continuous
100
AcDbVertex
100
AcDb2dVertex
 10
5737.767983222974
 20
-2498.448479410408
 30
0.0
  0
VERTEX
  5
476
330
42A
100
AcDbEntity
  8
Over
  6
Continuous
100
AcDbVertex
100
AcDb2dVertex
 10
5738.962492432179
 20
-2499.189776411822
 30
0.0
  0
VERTEX
  5
477
330
42A
100
AcDbEntity
  8
Over
  6
Continuous
100
AcDbVertex
100
AcDb2dVertex
 10
5740.182010012832
 20
-2499.889169266846
 30
0.0
  0
VERTEX
  5
478
330
42A
100
AcDbEntity
  8
Over
  6
Continuous
100
AcDbVertex
100
AcDb2dVertex
 10
5741.425066541233
 20
-2500.545815261564
 30
0.0
  0
VERTEX
  5
479
330
42A
100
AcDbEntity
  8
Over
  6
Continuous
100
AcDbVertex
100
AcDb2dVertex
 10
5742.690164231084
 20
-2501.158923188698
 30
0.0
  0
VERTEX
  5
47A
330
42A
100
AcDbEntity
  8
Over
  6
Continuous
100
AcDbVertex
100
AcDb2dVertex
 10
5743.975778738203
 20
-2501.727754300948
 30
0.0
  0
VERTEX
  5
47B
330
42A
100
AcDbEntity
  8
Over
  6
Continuous
100
AcDbVertex
100
AcDb2dVertex
 10
5745.280360997243
 20
-2502.251623201128
 30
0.0
  0
VERTEX
  5
47C
330
42A
100
AcDbEntity
  8
Over
  6
Continuous
100
AcDbVertex
100
AcDb2dVertex
 10
5746.602339088194
 20
-2502.729898668018
 30
0.0
  0
VERTEX
  5
47D
330
42A
100
AcDbEntity
  8
Over
  6
Continuous
100
AcDbVertex
100
AcDb2dVertex
 10
5747.940120130419
 20
-2503.16200441693
 30
0.0
  0
VERTEX
  5
47E
330
42A
100
AcDbEntity
  8
Over
  6
Continuous
100
AcDbVertex
100
AcDb2dVertex
 10
5749.292092201959
 20
-2503.547419794094
 30
0.0
  0
VERTEX
  5
47F
330
42A
100
AcDbEntity
  8
Over
  6
Continuous
100
AcDbVertex
100
AcDb2dVertex
 10
5750.656626281771
 20
-2503.885680403999
 30
0.0
  0
VERTEX
  5
480
330
42A
100
AcDbEntity
  8
Over
  6
Continuous
100
AcDbVertex
100
AcDb2dVertex
 10
5752.032078212567
 20
-2504.176378668955
 30
0.0
  0
VERTEX
  5
481
330
42A
100
AcDbEntity
  8
Over
  6
Continuous
100
AcDbVertex
100
AcDb2dVertex
 10
5753.416790681902
 20
-2504.419164320196
 30
0.0
  0
VERTEX
  5
482
330
42A
100
AcDbEntity
  8
Over
  6
Continuous
100
AcDbVertex
100
AcDb2dVertex
 10
5754.809095219101
 20
-2504.613744819921
 30
0.0
  0
VERTEX
  5
483
330
42A
100
AcDbEntity
  8
Over
  6
Continuous
100
AcDbVertex
100
AcDb2dVertex
 10
5756.207314205642
 20
-2504.759885713784
 30
0.0
  0
VERTEX
  5
484
330
42A
100
AcDbEntity
  8
Over
  6
Continuous
100
AcDbVertex
100
AcDb2dVertex
 10
5757.609762896546
 20
-2504.857410913391
 30
0.0
  0
VERTEX
  5
485
330
42A
100
AcDbEntity
  8
Over
  6
Continuous
100
AcDbVertex
100
AcDb2dVertex
 10
5759.014751450377
 20
-2504.906202908471
 30
0.0
  0
VERTEX
  5
486
330
42A
100
AcDbEntity
  8
Over
  6
Continuous
100
AcDbVertex
100
AcDb2dVertex
 10
5760.420586965358
 20
-2504.906202908471
 30
0.0
  0
VERTEX
  5
487
330
42A
100
AcDbEntity
  8
Over
  6
Continuous
100
AcDbVertex
100
AcDb2dVertex
 10
5761.825575519189
 20
-2504.857410913391
 30
0.0
  0
VERTEX
  5
488
330
42A
100
AcDbEntity
  8
Over
  6
Continuous
100
AcDbVertex
100
AcDb2dVertex
 10
5763.228024210093
 20
-2504.759885713784
 30
0.0
  0
VERTEX
  5
489
330
42A
100
AcDbEntity
  8
Over
  6
Continuous
100
AcDbVertex
100
AcDb2dVertex
 10
5764.626243196633
 20
-2504.613744819921
 30
0.0
  0
VERTEX
  5
48A
330
42A
100
AcDbEntity
  8
Over
  6
Continuous
100
AcDbVertex
100
AcDb2dVertex
 10
5766.018547733833
 20
-2504.419164320196
 30
0.0
  0
VERTEX
  5
48B
330
42A
100
AcDbEntity
  8
Over
  6
Continuous
100
AcDbVertex
100
AcDb2dVertex
 10
5767.403260203168
 20
-2504.176378668955
 30
0.0
  0
VERTEX
  5
48C
330
42A
100
AcDbEntity
  8
Over
  6
Continuous
100
AcDbVertex
100
AcDb2dVertex
 10
5768.778712133964
 20
-2503.885680403999
 30
0.0
  0
VERTEX
  5
48D
330
42A
100
AcDbEntity
  8
Over
  6
Continuous
100
AcDbVertex
100
AcDb2dVertex
 10
5770.143246213775
 20
-2503.547419794094
 30
0.0
  0
VERTEX
  5
48E
330
42A
100
AcDbEntity
  8
Over
  6
Continuous
100
AcDbVertex
100
AcDb2dVertex
 10
5771.495218285316
 20
-2503.16200441693
 30
0.0
  0
VERTEX
  5
48F
330
42A
100
AcDbEntity
  8
Over
  6
Continuous
100
AcDbVertex
100
AcDb2dVertex
 10
5772.832999327541
 20
-2502.729898668018
 30
0.0
  0
VERTEX
  5
490
330
42A
100
AcDbEntity
  8
Over
  6
Continuous
100
AcDbVertex
100
AcDb2dVertex
 10
5774.154977418491
 20
-2502.251623201128
 30
0.0
  0
VERTEX
  5
491
330
42A
100
AcDbEntity
  8
Over
  6
Continuous
100
AcDbVertex
100
AcDb2dVertex
 10
5775.459559677532
 20
-2501.727754300948
 30
0.0
  0
VERTEX
  5
492
330
42A
100
AcDbEntity
  8
Over
  6
Continuous
100
AcDbVertex
100
AcDb2dVertex
 10
5776.745174184651
 20
-2501.158923188698
 30
0.0
  0
VERTEX
  5
493
330
42A
100
AcDbEntity
  8
Over
  6
Continuous
100
AcDbVertex
100
AcDb2dVertex
 10
5778.010271874502
 20
-2500.545815261564
 30
0.0
  0
VERTEX
  5
494
330
42A
100
AcDbEntity
  8
Over
  6
Continuous
100
AcDbVertex
100
AcDb2dVertex
 10
5779.253328402903
 20
-2499.889169266846
 30
0.0
  0
VERTEX
  5
495
330
42A
100
AcDbEntity
  8
Over
  6
Continuous
100
AcDbVertex
100
AcDb2dVertex
 10
5780.472845983556
 20
-2499.189776411822
 30
0.0
  0
VERTEX
  5
496
330
42A
100
AcDbEntity
  8
Over
  6
Continuous
100
AcDbVertex
100
AcDb2dVertex
 10
5781.667355192761
 20
-2498.448479410408
 30
0.0
  0
VERTEX
  5
497
330
42A
100
AcDbEntity
  8
Over
  6
Continuous
100
AcDbVertex
100
AcDb2dVertex
 10
5782.835416739958
 20
-2497.666171467755
 30
0.0
  0
VERTEX
  5
498
330
42A
100
AcDbEntity
  8
Over
  6
Continuous
100
AcDbVertex
100
AcDb2dVertex
 10
5783.97562320196
 20
-2496.843795204
 30
0.0
  0
VERTEX
  5
499
330
42A
100
AcDbEntity
  8
Over
  6
Continuous
100
AcDbVertex
100
AcDb2dVertex
 10
5785.086600718789
 20
-2495.982341518489
 30
0.0
  0
VERTEX
  5
49A
330
42A
100
AcDbEntity
  8
Over
  6
Continuous
100
AcDbVertex
100
AcDb2dVertex
 10
5786.167010649067
 20
-2495.082848395816
 30
0.0
  0
VERTEX
  5
49B
330
42A
100
AcDbEntity
  8
Over
  6
Continuous
100
AcDbVertex
100
AcDb2dVertex
 10
5787.21555118298
 20
-2494.146399655135
 30
0.0
  0
VERTEX
  5
49C
330
42A
100
AcDbEntity
  8
Over
  6
Continuous
100
AcDbVertex
100
AcDb2dVertex
 10
5788.230958910851
 20
-2493.174123644242
 30
0.0
  0
VERTEX
  5
49D
330
42A
100
AcDbEntity
  8
Over
  6
Continuous
100
AcDbVertex
100
AcDb2dVertex
 10
5789.212010345456
 20
-2492.16719188
 30
0.0
  0
VERTEX
  5
49E
330
42A
100
AcDbEntity
  8
Over
  6
Continuous
100
AcDbVertex
100
AcDb2dVertex
 10
5790.157523396228
 20
-2491.126817636759
 30
0.0
  0
VERTEX
  5
49F
330
42A
100
AcDbEntity
  8
Over
  6
Continuous
100
AcDbVertex
100
AcDb2dVertex
 10
5791.066358793585
 20
-2490.05425448445
 30
0.0
  0
VERTEX
  5
4A0
330
42A
100
AcDbEntity
  8
Over
  6
Continuous
100
AcDbVertex
100
AcDb2dVertex
 10
5791.937421461659
 20
-2488.950794778132
 30
0.0
  0
VERTEX
  5
4A1
330
42A
100
AcDbEntity
  8
Over
  6
Continuous
100
AcDbVertex
100
AcDb2dVertex
 10
5792.76966183778
 20
-2487.817768100805
 30
0.0
  0
VERTEX
  5
4A2
330
42A
100
AcDbEntity
  8
Over
  6
Continuous
100
AcDbVertex
100
AcDb2dVertex
 10
5793.562077137117
 20
-2486.656539661368
 30
0.0
  0
VERTEX
  5
4A3
330
42A
100
AcDbEntity
  8
Over
  6
Continuous
100
AcDbVertex
100
AcDb2dVertex
 10
5794.313712560951
 20
-2485.468508649645
 30
0.0
  0
VERTEX
  5
4A4
330
42A
100
AcDbEntity
  8
Over
  6
Continuous
100
AcDbVertex
100
AcDb2dVertex
 10
5795.023662447142
 20
-2484.255106550471
 30
0.0
  0
VERTEX
  5
4A5
330
42A
100
AcDbEntity
  8
Over
  6
Continuous
100
AcDbVertex
100
AcDb2dVertex
 10
5795.691071361371
 20
-2483.017795418869
 30
0.0
  0
VERTEX
  5
4A6
330
42A
100
AcDbEntity
  8
Over
  6
Continuous
100
AcDbVertex
100
AcDb2dVertex
 10
5796.31513512788
 20
-2481.75806611838
 30
0.0
  0
VERTEX
  5
4A7
330
42A
100
AcDbEntity
  8
Over
  6
Continuous
100
AcDbVertex
100
AcDb2dVertex
 10
5796.895101798437
 20
-2480.477436524694
 30
0.0
  0
VERTEX
  5
4A8
330
42A
100
AcDbEntity
  8
Over
  6
Continuous
100
AcDbVertex
100
AcDb2dVertex
 10
5797.430272558377
 20
-2479.177449696729
 30
0.0
  0
VERTEX
  5
4A9
330
42A
100
AcDbEntity
  8
Over
  6
Continuous
100
AcDbVertex
100
AcDb2dVertex
 10
5797.920002568616
 20
-2477.859672017356
 30
0.0
  0
VERTEX
  5
4AA
330
42A
100
AcDbEntity
  8
Over
  6
Continuous
100
AcDbVertex
100
AcDb2dVertex
 10
5798.363701742636
 20
-2476.525691306044
 30
0.0
  0
VERTEX
  5
4AB
330
42A
100
AcDbEntity
  8
Over
  6
Continuous
100
AcDbVertex
100
AcDb2dVertex
 10
5798.760835457491
 20
-2475.177114905648
 30
0.0
  0
VERTEX
  5
4AC
330
42A
100
AcDbEntity
  8
Over
  6
Continuous
100
AcDbVertex
100
AcDb2dVertex
 10
5799.110925197986
 20
-2473.815567745693
 30
0.0
  0
VERTEX
  5
4AD
330
42A
100
AcDbEntity
  8
Over
  6
Continuous
100
AcDbVertex
100
AcDb2dVertex
 10
5799.413549133252
 20
-2472.442690384461
 30
0.0
  0
VERTEX
  5
4AE
330
42A
100
AcDbEntity
  8
Over
  6
Continuous
100
AcDbVertex
100
AcDb2dVertex
 10
5799.668342625017
 20
-2471.060137032242
 30
0.0
  0
VERTEX
  5
4AF
330
42A
100
AcDbEntity
  8
Over
  6
Continuous
100
AcDbVertex
100
AcDb2dVertex
 10
5799.874998666968
 20
-2469.66957355814
 30
0.0
  0
VERTEX
  5
4B0
330
42A
100
AcDbEntity
  8
Over
  6
Continuous
100
AcDbVertex
100
AcDb2dVertex
 10
5800.033268254672
 20
-2468.272675482836
 30
0.0
  0
VERTEX
  5
4B1
330
42A
100
AcDbEntity
  8
Over
  6
Continuous
100
AcDbVertex
100
AcDb2dVertex
 10
5800.142960685602
 20
-2466.871125959709
 30
0.0
  0
VERTEX
  5
4B2
330
42A
100
AcDbEntity
  8
Over
  6
Continuous
100
AcDbVertex
100
AcDb2dVertex
 10
5800.203943788922
 20
-2465.466613746773
 30
0.0
  0
VERTEX
  5
4B3
330
42A
100
AcDbEntity
  8
Over
  6
Continuous
100
AcDbVertex
100
AcDb2dVertex
 10
5800.216144084743
 20
-2464.060831171848
 30
0.0
  0
VERTEX
  5
4B4
330
42A
100
AcDbEntity
  8
Over
  6
Continuous
100
AcDbVertex
100
AcDb2dVertex
 10
5800.179546872658
 20
-2462.655472093445
 30
0.0
  0
VERTEX
  5
4B5
330
42A
100
AcDbEntity
  8
Over
  6
Continuous
100
AcDbVertex
100
AcDb2dVertex
 10
5800.094196249458
 20
-2461.252229859796
 30
0.0
  0
VERTEX
  5
4B6
330
42A
100
AcDbEntity
  8
Over
  6
Continuous
100
AcDbVertex
100
AcDb2dVertex
 10
5799.960195055996
 20
-2459.852795268494
 30
0.0
  0
VERTEX
  5
4B7
330
42A
100
AcDbEntity
  8
Over
  6
Continuous
100
AcDbVertex
100
AcDb2dVertex
 10
5799.777704753274
 20
-2458.458854529226
 30
0.0
  0
VERTEX
  5
4B8
330
42A
100
AcDbEntity
  8
Over
  6
Continuous
100
AcDbVertex
100
AcDb2dVertex
 10
5799.546945227891
 20
-2457.072087232011
 30
0.0
  0
VERTEX
  5
4B9
330
42A
100
AcDbEntity
  8
Over
  6
Continuous
100
AcDbVertex
100
AcDb2dVertex
 10
5799.268194527103
 20
-2455.694164323431
 30
0.0
  0
VERTEX
  5
4BA
330
42A
100
AcDbEntity
  8
Over
  6
Continuous
100
AcDbVertex
100
AcDb2dVertex
 10
5798.941788523794
 20
-2454.326746093268
 30
0.0
  0
VERTEX
  5
4BB
330
42A
100
AcDbEntity
  8
Over
  6
Continuous
100
AcDbVertex
100
AcDb2dVertex
 10
5798.568120511773
 20
-2452.971480173983
 30
0.0
  0
VERTEX
  5
4BC
330
42A
100
AcDbEntity
  8
Over
  6
Continuous
100
AcDbVertex
100
AcDb2dVertex
 10
5798.147640731892
 20
-2451.629999555454
 30
0.0
  0
VERTEX
  5
4BD
330
42A
100
AcDbEntity
  8
Over
  6
Continuous
100
AcDbVertex
100
AcDb2dVertex
 10
5797.680855829536
 20
-2450.303920617338
 30
0.0
  0
VERTEX
  5
4BE
330
42A
100
AcDbEntity
  8
Over
  6
Continuous
100
AcDbVertex
100
AcDb2dVertex
 10
5797.168328244155
 20
-2448.994841181474
 30
0.0
  0
VERTEX
  5
4BF
330
42A
100
AcDbEntity
  8
Over
  6
Continuous
100
AcDbVertex
100
AcDb2dVertex
 10
5796.61067553157
 20
-2447.70433858662
 30
0.0
  0
VERTEX
  5
4C0
330
42A
100
AcDbEntity
  8
Over
  6
Continuous
100
AcDbVertex
100
AcDb2dVertex
 10
5796.008569619865
 20
-2446.433967787888
 30
0.0
  0
VERTEX
  5
4C1
330
42A
100
AcDbEntity
  8
Over
  6
Continuous
100
AcDbVertex
100
AcDb2dVertex
 10
5795.362735999768
 20
-2445.185259483146
 30
0.0
  0
VERTEX
  5
4C2
330
42A
100
AcDbEntity
  8
Over
  6
Continuous
100
AcDbVertex
100
AcDb2dVertex
 10
5794.673952850489
 20
-2443.959718268641
 30
0.0
  0
VERTEX
  5
4C3
330
42A
100
AcDbEntity
  8
Over
  6
Continuous
100
AcDbVertex
100
AcDb2dVertex
 10
5793.943050102074
 20
-2442.758820826084
 30
0.0
  0
VERTEX
  5
4C4
330
42A
100
AcDbEntity
  8
Over
  6
Continuous
100
AcDbVertex
100
AcDb2dVertex
 10
5793.170908435409
 20
-2441.584014143358
 30
0.0
  0
VERTEX
  5
4C5
330
42A
100
AcDbEntity
  8
Over
  6
Continuous
100
AcDbVertex
100
AcDb2dVertex
 10
5792.35845822106
 20
-2440.436713771012
 30
0.0
  0
VERTEX
  5
4C6
330
42A
100
AcDbEntity
  8
Over
  6
Continuous
100
AcDbVertex
100
AcDb2dVertex
 10
5791.506678398257
 20
-2439.318302116636
 30
0.0
  0
VERTEX
  5
4C7
330
42A
100
AcDbEntity
  8
Over
  6
Continuous
100
AcDbVertex
100
AcDb2dVertex
 10
5790.616595295342
 20
-2438.230126779162
 30
0.0
  0
VERTEX
  5
4C8
330
42A
100
AcDbEntity
  8
Over
  6
Continuous
100
AcDbVertex
100
AcDb2dVertex
 10
5789.68928139313
 20
-2437.173498925117
 30
0.0
  0
VERTEX
  5
4C9
330
42A
100
AcDbEntity
  8
Over
  6
Continuous
100
AcDbVertex
100
AcDb2dVertex
 10
5788.725854032646
 20
-2436.149691708767
 30
0.0
  0
VERTEX
  5
4CA
330
42A
100
AcDbEntity
  8
Over
  6
Continuous
100
AcDbVertex
100
AcDb2dVertex
 10
5787.72747406882
 20
-2435.159938738067
 30
0.0
  0
VERTEX
  5
4CB
330
42A
100
AcDbEntity
  8
Over
  6
Continuous
100
AcDbVertex
100
AcDb2dVertex
 10
5786.695344471747
 20
-2434.205432588255
 30
0.0
  0
VERTEX
  5
4CC
330
42A
100
AcDbEntity
  8
Over
  6
Continuous
100
AcDbVertex
100
AcDb2dVertex
 10
5785.630708877204
 20
-2433.2873233649
 30
0.0
  0
VERTEX
  5
4CD
330
42A
100
AcDbEntity
  8
Over
  6
Continuous
100
AcDbVertex
100
AcDb2dVertex
 10
5784.534850088157
 20
-2432.406717318107
 30
0.0
  0
VERTEX
  5
4CE
330
42A
100
AcDbEntity
  8
Over
  6
Continuous
100
AcDbVertex
100
AcDb2dVertex
 10
5783.409088529096
 20
-2431.564675509572
 30
0.0
  0
VERTEX
  5
4CF
330
42A
100
AcDbEntity
  8
Over
  6
Continuous
100
AcDbVertex
100
AcDb2dVertex
 10
5782.254780655016
 20
-2430.762212534091
 30
0.0
  0
VERTEX
  5
4D0
330
42A
100
AcDbEntity
  8
Over
  6
Continuous
100
AcDbVertex
100
AcDb2dVertex
 10
5781.073317317
 20
-2430.000295297049
 30
0.0
  0
VERTEX
  5
4D1
330
42A
100
AcDbEntity
  8
Over
  6
Continuous
100
AcDbVertex
100
AcDb2dVertex
 10
5779.866122086348
 20
-2429.279841849371
 30
0.0
  0
VERTEX
  5
4D2
330
42A
100
AcDbEntity
  8
Over
  6
Continuous
100
AcDbVertex
100
AcDb2dVertex
 10
5778.634649539288
 20
-2428.601720281348
 30
0.0
  0
VERTEX
  5
4D3
330
42A
100
AcDbEntity
  8
Over
  6
Continuous
100
AcDbVertex
100
AcDb2dVertex
 10
5777.380383504324
 20
-2427.966747676652
 30
0.0
  0
VERTEX
  5
4D4
330
42A
100
AcDbEntity
  8
Over
  6
Continuous
100
AcDbVertex
100
AcDb2dVertex
 10
5776.104835274335
 20
-2427.375689127816
 30
0.0
  0
VERTEX
  5
4D5
330
42A
100
AcDbEntity
  8
Over
  6
Continuous
100
AcDbVertex
100
AcDb2dVertex
 10
5774.80954178559
 20
-2426.829256814354
 30
0.0
  0
VERTEX
  5
4D6
330
42A
100
AcDbEntity
  8
Over
  6
Continuous
100
AcDbVertex
100
AcDb2dVertex
 10
5773.496063765856
 20
-2426.328109144646
 30
0.0
  0
VERTEX
  5
4D7
330
42A
100
AcDbEntity
  8
Over
  6
Continuous
100
AcDbVertex
100
AcDb2dVertex
 10
5772.165983853843
 20
-2425.872849962598
 30
0.0
  0
VERTEX
  5
4D8
330
42A
100
AcDbEntity
  8
Over
  6
Continuous
100
AcDbVertex
100
AcDb2dVertex
 10
5770.820904692247
 20
-2425.464027820067
 30
0.0
  0
VERTEX
  5
4D9
330
42A
100
AcDbEntity
  8
Over
  6
Continuous
100
AcDbVertex
100
AcDb2dVertex
 10
5769.462446996697
 20
-2425.102135315893
 30
0.0
  0
VERTEX
  5
4DA
330
42A
100
AcDbEntity
  8
Over
  6
Continuous
100
AcDbVertex
100
AcDb2dVertex
 10
5768.092247602905
 20
-2424.787608502355
 30
0.0
  0
VERTEX
  5
4DB
330
42A
100
AcDbEntity
  8
Over
  6
Continuous
100
AcDbVertex
100
AcDb2dVertex
 10
5766.711957494423
 20
-2424.520826359767
 30
0.0
  0
VERTEX
  5
4DC
330
42A
100
AcDbEntity
  8
Over
  6
Continuous
100
AcDbVertex
100
AcDb2dVertex
 10
5765.323239813321
 20
-2424.302110339832
 30
0.0
  0
VERTEX
  5
4DD
330
42A
100
AcDbEntity
  8
Over
  6
Continuous
100
AcDbVertex
100
AcDb2dVertex
 10
5763.927767856243
 20
-2424.131723978318
 30
0.0
  0
VERTEX
  5
4DE
330
42A
100
AcDbEntity
  8
Over
  6
Continuous
100
AcDbVertex
100
AcDb2dVertex
 10
5762.527223058209
 20
-2424.00987257752
 30
0.0
  0
VERTEX
  5
4DF
330
42A
100
AcDbEntity
  8
Over
  6
Continuous
100
AcDbVertex
100
AcDb2dVertex
 10
5761.123292966612
 20
-2423.936702958885
 30
0.0
  0
SEQEND
  5
4E0
330
42A
100
AcDbEntity
  8
Over
  6
Continuous
  0
POLYLINE
  5
4E1
330
1F
100
AcDbEntity
  8
Layer 03
  6
Continuous
100
AcDb2dPolyline
 66
     1
 10
0.0
 20
0.0
 30
0.0
 70
     1
  0
VERTEX
  5
4E2
330
4E1
100
AcDbEntity
  8
Layer 03
  6
Continuous
100
AcDbVertex
100
AcDb2dVertex
 10
5759.717669207867
 20
-2419.412303286105
 30
0.0
  0
VERTEX
  5
4E3
330
4E1
100
AcDbEntity
  8
Layer 03
  6
Continuous
100
AcDbVertex
100
AcDb2dVertex
 10
5758.155865031485
 20
-2419.439414033639
 30
0.0
  0
VERTEX
  5
4E4
330
4E1
100
AcDbEntity
  8
Layer 03
  6
Continuous
100
AcDbVertex
100
AcDb2dVertex
 10
5756.595942707489
 20
-2419.520713609899
 30
0.0
  0
VERTEX
  5
4E5
330
4E1
100
AcDbEntity
  8
Layer 03
  6
Continuous
100
AcDbVertex
100
AcDb2dVertex
 10
5755.039781820783
 20
-2419.656104055231
 30
0.0
  0
VERTEX
  5
4E6
330
4E1
100
AcDbEntity
  8
Layer 03
  6
Continuous
100
AcDbVertex
100
AcDb2dVertex
 10
5753.48925742403
 20
-2419.84542223469
 30
0.0
  0
VERTEX
  5
4E7
330
4E1
100
AcDbEntity
  8
Layer 03
  6
Continuous
100
AcDbVertex
100
AcDb2dVertex
 10
5751.946237778362
 20
-2420.088440034619
 30
0.0
  0
VERTEX
  5
4E8
330
4E1
100
AcDbEntity
  8
Layer 03
  6
Continuous
100
AcDbVertex
100
AcDb2dVertex
 10
5750.41258210227
 20
-2420.384864637494
 30
0.0
  0
VERTEX
  5
4E9
330
4E1
100
AcDbEntity
  8
Layer 03
  6
Continuous
100
AcDbVertex
100
AcDb2dVertex
 10
5748.890138331391
 20
-2420.734338874758
 30
0.0
  0
VERTEX
  5
4EA
330
4E1
100
AcDbEntity
  8
Layer 03
  6
Continuous
100
AcDbVertex
100
AcDb2dVertex
 10
5747.380740891889
 20
-2421.136441657174
 30
0.0
  0
VERTEX
  5
4EB
330
4E1
100
AcDbEntity
  8
Layer 03
  6
Continuous
100
AcDbVertex
100
AcDb2dVertex
 10
5745.886208490117
 20
-2421.590688482208
 30
0.0
  0
VERTEX
  5
4EC
330
4E1
100
AcDbEntity
  8
Layer 03
  6
Continuous
100
AcDbVertex
100
AcDb2dVertex
 10
5744.408341921214
 20
-2422.096532017817
 30
0.0
  0
VERTEX
  5
4ED
330
4E1
100
AcDbEntity
  8
Layer 03
  6
Continuous
100
AcDbVertex
100
AcDb2dVertex
 10
5742.948921899287
 20
-2422.653362761938
 30
0.0
  0
VERTEX
  5
4EE
330
4E1
100
AcDbEntity
  8
Layer 03
  6
Continuous
100
AcDbVertex
100
AcDb2dVertex
 10
5741.509706911792
 20
-2423.260509776895
 30
0.0
  0
VERTEX
  5
4EF
330
4E1
100
AcDbEntity
  8
Layer 03
  6
Continuous
100
AcDbVertex
100
AcDb2dVertex
 10
5740.092431100694
 20
-2423.917241497824
 30
0.0
  0
VERTEX
  5
4F0
330
4E1
100
AcDbEntity
  8
Layer 03
  6
Continuous
100
AcDbVertex
100
AcDb2dVertex
 10
5738.698802172955
 20
-2424.622766614152
 30
0.0
  0
VERTEX
  5
4F1
330
4E1
100
AcDbEntity
  8
Layer 03
  6
Continuous
100
AcDbVertex
100
AcDb2dVertex
 10
5737.330499342889
 20
-2425.376235023067
 30
0.0
  0
VERTEX
  5
4F2
330
4E1
100
AcDbEntity
  8
Layer 03
  6
Continuous
100
AcDbVertex
100
AcDb2dVertex
 10
5735.989171308831
 20
-2426.17673885382
 30
0.0
  0
VERTEX
  5
4F3
330
4E1
100
AcDbEntity
  8
Layer 03
  6
Continuous
100
AcDbVertex
100
AcDb2dVertex
 10
5734.676434266591
 20
-2427.023313561645
 30
0.0
  0
VERTEX
  5
4F4
330
4E1
100
AcDbEntity
  8
Layer 03
  6
Continuous
100
AcDbVertex
100
AcDb2dVertex
 10
5733.393869962058
 20
-2427.914939089957
 30
0.0
  0
VERTEX
  5
4F5
330
4E1
100
AcDbEntity
  8
Layer 03
  6
Continuous
100
AcDbVertex
100
AcDb2dVertex
 10
5732.143023785323
 20
-2428.85054109944
 30
0.0
  0
VERTEX
  5
4F6
330
4E1
100
AcDbEntity
  8
Layer 03
  6
Continuous
100
AcDbVertex
100
AcDb2dVertex
 10
5730.925402908605
 20
-2429.828992262544
 30
0.0
  0
VERTEX
  5
4F7
330
4E1
100
AcDbEntity
  8
Layer 03
  6
Continuous
100
AcDbVertex
100
AcDb2dVertex
 10
5729.742474470223
 20
-2430.849113621828
 30
0.0
  0
VERTEX
  5
4F8
330
4E1
100
AcDbEntity
  8
Layer 03
  6
Continuous
100
AcDbVertex
100
AcDb2dVertex
 10
5728.595663806809
 20
-2431.909676010507
 30
0.0
  0
VERTEX
  5
4F9
330
4E1
100
AcDbEntity
  8
Layer 03
  6
Continuous
100
AcDbVertex
100
AcDb2dVertex
 10
5727.486352735891
 20
-2433.009401533507
 30
0.0
  0
VERTEX
  5
4FA
330
4E1
100
AcDbEntity
  8
Layer 03
  6
Continuous
100
AcDbVertex
100
AcDb2dVertex
 10
5726.415877890909
 20
-2434.146965107229
 30
0.0
  0
VERTEX
  5
4FB
330
4E1
100
AcDbEntity
  8
Layer 03
  6
Continuous
100
AcDbVertex
100
AcDb2dVertex
 10
5725.385529110673
 20
-2435.320996056168
 30
0.0
  0
VERTEX
  5
4FC
330
4E1
100
AcDbEntity
  8
Layer 03
  6
Continuous
100
AcDbVertex
100
AcDb2dVertex
 10
5724.396547885212
 20
-2436.530079764473
 30
0.0
  0
VERTEX
  5
4FD
330
4E1
100
AcDbEntity
  8
Layer 03
  6
Continuous
100
AcDbVertex
100
AcDb2dVertex
 10
5723.450125859876
 20
-2437.772759380446
 30
0.0
  0
VERTEX
  5
4FE
330
4E1
100
AcDbEntity
  8
Layer 03
  6
Continuous
100
AcDbVertex
100
AcDb2dVertex
 10
5722.547403399488
 20
-2439.047537571942
 30
0.0
  0
VERTEX
  5
4FF
330
4E1
100
AcDbEntity
  8
Layer 03
  6
Continuous
100
AcDbVertex
100
AcDb2dVertex
 10
5721.689468214304
 20
-2440.352878330526
 30
0.0
  0
VERTEX
  5
500
330
4E1
100
AcDbEntity
  8
Layer 03
  6
Continuous
100
AcDbVertex
100
AcDb2dVertex
 10
5720.877354049399
 20
-2441.687208822256
 30
0.0
  0
VERTEX
  5
501
330
4E1
100
AcDbEntity
  8
Layer 03
  6
Continuous
100
AcDbVertex
100
AcDb2dVertex
 10
5720.112039439089
 20
-2443.048921282817
 30
0.0
  0
VERTEX
  5
502
330
4E1
100
AcDbEntity
  8
Layer 03
  6
Continuous
100
AcDbVertex
100
AcDb2dVertex
 10
5719.39444652787
 20
-2444.436374954753
 30
0.0
  0
VERTEX
  5
503
330
4E1
100
AcDbEntity
  8
Layer 03
  6
Continuous
100
AcDbVertex
100
AcDb2dVertex
 10
5718.725439959309
 20
-2445.847898064455
 30
0.0
  0
VERTEX
  5
504
330
4E1
100
AcDbEntity
  8
Layer 03
  6
Continuous
100
AcDbVertex
100
AcDb2dVertex
 10
5718.105825834215
 20
-2447.281789836515
 30
0.0
  0
VERTEX
  5
505
330
4E1
100
AcDbEntity
  8
Layer 03
  6
Continuous
100
AcDbVertex
100
AcDb2dVertex
 10
5717.536350739347
 20
-2448.736322543031
 30
0.0
  0
VERTEX
  5
506
330
4E1
100
AcDbEntity
  8
Layer 03
  6
Continuous
100
AcDbVertex
100
AcDb2dVertex
 10
5717.017700847839
 20
-2450.209743585381
 30
0.0
  0
VERTEX
  5
507
330
4E1
100
AcDbEntity
  8
Layer 03
  6
Continuous
100
AcDbVertex
100
AcDb2dVertex
 10
5716.550501092417
 20
-2451.70027760597
 30
0.0
  0
VERTEX
  5
508
330
4E1
100
AcDbEntity
  8
Layer 03
  6
Continuous
100
AcDbVertex
100
AcDb2dVertex
 10
5716.135314412394
 20
-2453.206128627397
 30
0.0
  0
VERTEX
  5
509
330
4E1
100
AcDbEntity
  8
Layer 03
  6
Continuous
100
AcDbVertex
100
AcDb2dVertex
 10
5715.772641075383
 20
-2454.725482216467
 30
0.0
  0
VERTEX
  5
50A
330
4E1
100
AcDbEntity
  8
Layer 03
  6
Continuous
100
AcDbVertex
100
AcDb2dVertex
 10
5715.462918074508
 20
-2456.256507670445
 30
0.0
  0
VERTEX
  5
50B
330
4E1
100
AcDbEntity
  8
Layer 03
  6
Continuous
100
AcDbVertex
100
AcDb2dVertex
 10
5715.206518601861
 20
-2457.797360222906
 30
0.0
  0
VERTEX
  5
50C
330
4E1
100
AcDbEntity
  8
Layer 03
  6
Continuous
100
AcDbVertex
100
AcDb2dVertex
 10
5715.003751598835
 20
-2459.346183266538
 30
0.0
  0
VERTEX
  5
50D
330
4E1
100
AcDbEntity
  8
Layer 03
  6
Continuous
100
AcDbVertex
100
AcDb2dVertex
 10
5714.854861383878
 20
-2460.901110590205
 30
0.0
  0
VERTEX
  5
50E
330
4E1
100
AcDbEntity
  8
Layer 03
  6
Continuous
100
AcDbVertex
100
AcDb2dVertex
 10
5714.7600273581
 20
-2462.460268627595
 30
0.0
  0
VERTEX
  5
50F
330
4E1
100
AcDbEntity
  8
Layer 03
  6
Continuous
100
AcDbVertex
100
AcDb2dVertex
 10
5714.719363789117
 20
-2464.021778714708
 30
0.0
  0
VERTEX
  5
510
330
4E1
100
AcDbEntity
  8
Layer 03
  6
Continuous
100
AcDbVertex
100
AcDb2dVertex
 10
5714.732919673363
 20
-2465.583759353513
 30
0.0
  0
VERTEX
  5
511
330
4E1
100
AcDbEntity
  8
Layer 03
  6
Continuous
100
AcDbVertex
100
AcDb2dVertex
 10
5714.800678677052
 20
-2467.144328478999
 30
0.0
  0
VERTEX
  5
512
330
4E1
100
AcDbEntity
  8
Layer 03
  6
Continuous
100
AcDbVertex
100
AcDb2dVertex
 10
5714.922559155862
 20
-2468.701605726917
 30
0.0
  0
VERTEX
  5
513
330
4E1
100
AcDbEntity
  8
Layer 03
  6
Continuous
100
AcDbVertex
100
AcDb2dVertex
 10
5715.098414253311
 20
-2470.253714699477
 30
0.0
  0
VERTEX
  5
514
330
4E1
100
AcDbEntity
  8
Layer 03
  6
Continuous
100
AcDbVertex
100
AcDb2dVertex
 10
5715.328032077701
 20
-2471.798785226257
 30
0.0
  0
VERTEX
  5
515
330
4E1
100
AcDbEntity
  8
Layer 03
  6
Continuous
100
AcDbVertex
100
AcDb2dVertex
 10
5715.61113595744
 20
-2473.334955617612
 30
0.0
  0
VERTEX
  5
516
330
4E1
100
AcDbEntity
  8
Layer 03
  6
Continuous
100
AcDbVertex
100
AcDb2dVertex
 10
5715.947384774402
 20
-2474.86037490787
 30
0.0
  0
VERTEX
  5
517
330
4E1
100
AcDbEntity
  8
Layer 03
  6
Continuous
100
AcDbVertex
100
AcDb2dVertex
 10
5716.336373374952
 20
-2476.373205085597
 30
0.0
  0
VERTEX
  5
518
330
4E1
100
AcDbEntity
  8
Layer 03
  6
Continuous
100
AcDbVertex
100
AcDb2dVertex
 10
5716.777633058125
 20
-2477.87162330826
 30
0.0
  0
VERTEX
  5
519
330
4E1
100
AcDbEntity
  8
Layer 03
  6
Continuous
100
AcDbVertex
100
AcDb2dVertex
 10
5717.270632140369
 20
-2479.353824098607
 30
0.0
  0
VERTEX
  5
51A
330
4E1
100
AcDbEntity
  8
Layer 03
  6
Continuous
100
AcDbVertex
100
AcDb2dVertex
 10
5717.81477659619
 20
-2480.818021520131
 30
0.0
  0
VERTEX
  5
51B
330
4E1
100
AcDbEntity
  8
Layer 03
  6
Continuous
100
AcDbVertex
100
AcDb2dVertex
 10
5718.409410773901
 20
-2482.262451328982
 30
0.0
  0
VERTEX
  5
51C
330
4E1
100
AcDbEntity
  8
Layer 03
  6
Continuous
100
AcDbVertex
100
AcDb2dVertex
 10
5719.053818185631
 20
-2483.685373099744
 30
0.0
  0
VERTEX
  5
51D
330
4E1
100
AcDbEntity
  8
Layer 03
  6
Continuous
100
AcDbVertex
100
AcDb2dVertex
 10
5719.747222370642
 20
-2485.085072322509
 30
0.0
  0
VERTEX
  5
51E
330
4E1
100
AcDbEntity
  8
Layer 03
  6
Continuous
100
AcDbVertex
100
AcDb2dVertex
 10
5720.488787830896
 20
-2486.459862468734
 30
0.0
  0
VERTEX
  5
51F
330
4E1
100
AcDbEntity
  8
Layer 03
  6
Continuous
100
AcDbVertex
100
AcDb2dVertex
 10
5721.277621037774
 20
-2487.808087023371
 30
0.0
  0
VERTEX
  5
520
330
4E1
100
AcDbEntity
  8
Layer 03
  6
Continuous
100
AcDbVertex
100
AcDb2dVertex
 10
5722.112771508701
 20
-2489.128121480842
 30
0.0
  0
VERTEX
  5
521
330
4E1
100
AcDbEntity
  8
Layer 03
  6
Continuous
100
AcDbVertex
100
AcDb2dVertex
 10
5722.993232952408
 20
-2490.418375302439
 30
0.0
  0
VERTEX
  5
522
330
4E1
100
AcDbEntity
  8
Layer 03
  6
Continuous
100
AcDbVertex
100
AcDb2dVertex
 10
5723.917944481432
 20
-2491.677293832801
 30
0.0
  0
VERTEX
  5
523
330
4E1
100
AcDbEntity
  8
Layer 03
  6
Continuous
100
AcDbVertex
100
AcDb2dVertex
 10
5724.885791890403
 20
-2492.903360173155
 30
0.0
  0
VERTEX
  5
524
330
4E1
100
AcDbEntity
  8
Layer 03
  6
Continuous
100
AcDbVertex
100
AcDb2dVertex
 10
5725.895608998577
 20
-2494.095097009054
 30
0.0
  0
VERTEX
  5
525
330
4E1
100
AcDbEntity
  8
Layer 03
  6
Continuous
100
AcDbVertex
100
AcDb2dVertex
 10
5726.94617905499
 20
-2495.251068390433
 30
0.0
  0
VERTEX
  5
526
330
4E1
100
AcDbEntity
  8
Layer 03
  6
Continuous
100
AcDbVertex
100
AcDb2dVertex
 10
5728.036236204552
 20
-2496.369881461812
 30
0.0
  0
VERTEX
  5
527
330
4E1
100
AcDbEntity
  8
Layer 03
  6
Continuous
100
AcDbVertex
100
AcDb2dVertex
 10
5729.164467013297
 20
-2497.450188140583
 30
0.0
  0
VERTEX
  5
528
330
4E1
100
AcDbEntity
  8
Layer 03
  6
Continuous
100
AcDbVertex
100
AcDb2dVertex
 10
5730.329512050978
 20
-2498.49068674134
 30
0.0
  0
VERTEX
  5
529
330
4E1
100
AcDbEntity
  8
Layer 03
  6
Continuous
100
AcDbVertex
100
AcDb2dVertex
 10
5731.529967529065
 20
-2499.490123544309
 30
0.0
  0
VERTEX
  5
52A
330
4E1
100
AcDbEntity
  8
Layer 03
  6
Continuous
100
AcDbVertex
100
AcDb2dVertex
 10
5732.764386992209
 20
-2500.447294305988
 30
0.0
  0
VERTEX
  5
52B
330
4E1
100
AcDbEntity
  8
Layer 03
  6
Continuous
100
AcDbVertex
100
AcDb2dVertex
 10
5734.0312830611
 20
-2501.36104571016
 30
0.0
  0
VERTEX
  5
52C
330
4E1
100
AcDbEntity
  8
Layer 03
  6
Continuous
100
AcDbVertex
100
AcDb2dVertex
 10
5735.329129224653
 20
-2502.230276757553
 30
0.0
  0
VERTEX
  5
52D
330
4E1
100
AcDbEntity
  8
Layer 03
  6
Continuous
100
AcDbVertex
100
AcDb2dVertex
 10
5736.656361679325
 20
-2503.053940092457
 30
0.0
  0
VERTEX
  5
52E
330
4E1
100
AcDbEntity
  8
Layer 03
  6
Continuous
100
AcDbVertex
100
AcDb2dVertex
 10
5738.011381213383
 20
-2503.831043264706
 30
0.0
  0
VERTEX
  5
52F
330
4E1
100
AcDbEntity
  8
Layer 03
  6
Continuous
100
AcDbVertex
100
AcDb2dVertex
 10
5739.392555133829
 20
-2504.560649925504
 30
0.0
  0
VERTEX
  5
530
330
4E1
100
AcDbEntity
  8
Layer 03
  6
Continuous
100
AcDbVertex
100
AcDb2dVertex
 10
5740.798219233663
 20
-2505.241880955653
 30
0.0
  0
VERTEX
  5
531
330
4E1
100
AcDbEntity
  8
Layer 03
  6
Continuous
100
AcDbVertex
100
AcDb2dVertex
 10
5742.22667979713
 20
-2505.873915524819
 30
0.0
  0
VERTEX
  5
532
330
4E1
100
AcDbEntity
  8
Layer 03
  6
Continuous
100
AcDbVertex
100
AcDb2dVertex
 10
5743.676215640508
 20
-2506.455992080575
 30
0.0
  0
VERTEX
  5
533
330
4E1
100
AcDbEntity
  8
Layer 03
  6
Continuous
100
AcDbVertex
100
AcDb2dVertex
 10
5745.145080186007
 20
-2506.987409266008
 30
0.0
  0
VERTEX
  5
534
330
4E1
100
AcDbEntity
  8
Layer 03
  6
Continuous
100
AcDbVertex
100
AcDb2dVertex
 10
5746.631503566257
 20
-2507.4675267648
 30
0.0
  0
VERTEX
  5
535
330
4E1
100
AcDbEntity
  8
Layer 03
  6
Continuous
100
AcDbVertex
100
AcDb2dVertex
 10
5748.133694756858
 20
-2507.89576607276
 30
0.0
  0
VERTEX
  5
536
330
4E1
100
AcDbEntity
  8
Layer 03
  6
Continuous
100
AcDbVertex
100
AcDb2dVertex
 10
5749.649843734426
 20
-2508.271611194876
 30
0.0
  0
VERTEX
  5
537
330
4E1
100
AcDbEntity
  8
Layer 03
  6
Continuous
100
AcDbVertex
100
AcDb2dVertex
 10
5751.178123657533
 20
-2508.594609267049
 30
0.0
  0
VERTEX
  5
538
330
4E1
100
AcDbEntity
  8
Layer 03
  6
Continuous
100
AcDbVertex
100
AcDb2dVertex
 10
5752.716693067906
 20
-2508.864371101761
 30
0.0
  0
VERTEX
  5
539
330
4E1
100
AcDbEntity
  8
Layer 03
  6
Continuous
100
AcDbVertex
100
AcDb2dVertex
 10
5754.263698109238
 20
-2509.080571657012
 30
0.0
  0
VERTEX
  5
53A
330
4E1
100
AcDbEntity
  8
Layer 03
  6
Continuous
100
AcDbVertex
100
AcDb2dVertex
 10
5755.81727476095
 20
-2509.242950427971
 30
0.0
  0
VERTEX
  5
53B
330
4E1
100
AcDbEntity
  8
Layer 03
  6
Continuous
100
AcDbVertex
100
AcDb2dVertex
 10
5757.375551084177
 20
-2509.351311760867
 30
0.0
  0
VERTEX
  5
53C
330
4E1
100
AcDbEntity
  8
Layer 03
  6
Continuous
100
AcDbVertex
100
AcDb2dVertex
 10
5758.936649477323
 20
-2509.405525088734
 30
0.0
  0
VERTEX
  5
53D
330
4E1
100
AcDbEntity
  8
Layer 03
  6
Continuous
100
AcDbVertex
100
AcDb2dVertex
 10
5760.498688938412
 20
-2509.405525088734
 30
0.0
  0
VERTEX
  5
53E
330
4E1
100
AcDbEntity
  8
Layer 03
  6
Continuous
100
AcDbVertex
100
AcDb2dVertex
 10
5762.059787331557
 20
-2509.351311760867
 30
0.0
  0
VERTEX
  5
53F
330
4E1
100
AcDbEntity
  8
Layer 03
  6
Continuous
100
AcDbVertex
100
AcDb2dVertex
 10
5763.618063654785
 20
-2509.242950427971
 30
0.0
  0
VERTEX
  5
540
330
4E1
100
AcDbEntity
  8
Layer 03
  6
Continuous
100
AcDbVertex
100
AcDb2dVertex
 10
5765.171640306497
 20
-2509.080571657012
 30
0.0
  0
VERTEX
  5
541
330
4E1
100
AcDbEntity
  8
Layer 03
  6
Continuous
100
AcDbVertex
100
AcDb2dVertex
 10
5766.718645347829
 20
-2508.864371101761
 30
0.0
  0
VERTEX
  5
542
330
4E1
100
AcDbEntity
  8
Layer 03
  6
Continuous
100
AcDbVertex
100
AcDb2dVertex
 10
5768.257214758201
 20
-2508.594609267049
 30
0.0
  0
VERTEX
  5
543
330
4E1
100
AcDbEntity
  8
Layer 03
  6
Continuous
100
AcDbVertex
100
AcDb2dVertex
 10
5769.785494681309
 20
-2508.271611194876
 30
0.0
  0
VERTEX
  5
544
330
4E1
100
AcDbEntity
  8
Layer 03
  6
Continuous
100
AcDbVertex
100
AcDb2dVertex
 10
5771.301643658877
 20
-2507.89576607276
 30
0.0
  0
VERTEX
  5
545
330
4E1
100
AcDbEntity
  8
Layer 03
  6
Continuous
100
AcDbVertex
100
AcDb2dVertex
 10
5772.803834849477
 20
-2507.4675267648
 30
0.0
  0
VERTEX
  5
546
330
4E1
100
AcDbEntity
  8
Layer 03
  6
Continuous
100
AcDbVertex
100
AcDb2dVertex
 10
5774.290258229727
 20
-2506.987409266008
 30
0.0
  0
VERTEX
  5
547
330
4E1
100
AcDbEntity
  8
Layer 03
  6
Continuous
100
AcDbVertex
100
AcDb2dVertex
 10
5775.759122775227
 20
-2506.455992080575
 30
0.0
  0
VERTEX
  5
548
330
4E1
100
AcDbEntity
  8
Layer 03
  6
Continuous
100
AcDbVertex
100
AcDb2dVertex
 10
5777.208658618605
 20
-2505.873915524819
 30
0.0
  0
VERTEX
  5
549
330
4E1
100
AcDbEntity
  8
Layer 03
  6
Continuous
100
AcDbVertex
100
AcDb2dVertex
 10
5778.637119182072
 20
-2505.241880955653
 30
0.0
  0
VERTEX
  5
54A
330
4E1
100
AcDbEntity
  8
Layer 03
  6
Continuous
100
AcDbVertex
100
AcDb2dVertex
 10
5780.042783281906
 20
-2504.560649925504
 30
0.0
  0
VERTEX
  5
54B
330
4E1
100
AcDbEntity
  8
Layer 03
  6
Continuous
100
AcDbVertex
100
AcDb2dVertex
 10
5781.423957202352
 20
-2503.831043264706
 30
0.0
  0
VERTEX
  5
54C
330
4E1
100
AcDbEntity
  8
Layer 03
  6
Continuous
100
AcDbVertex
100
AcDb2dVertex
 10
5782.77897673641
 20
-2503.053940092457
 30
0.0
  0
VERTEX
  5
54D
330
4E1
100
AcDbEntity
  8
Layer 03
  6
Continuous
100
AcDbVertex
100
AcDb2dVertex
 10
5784.106209191082
 20
-2502.230276757553
 30
0.0
  0
VERTEX
  5
54E
330
4E1
100
AcDbEntity
  8
Layer 03
  6
Continuous
100
AcDbVertex
100
AcDb2dVertex
 10
5785.404055354635
 20
-2501.36104571016
 30
0.0
  0
VERTEX
  5
54F
330
4E1
100
AcDbEntity
  8
Layer 03
  6
Continuous
100
AcDbVertex
100
AcDb2dVertex
 10
5786.670951423526
 20
-2500.447294305988
 30
0.0
  0
VERTEX
  5
550
330
4E1
100
AcDbEntity
  8
Layer 03
  6
Continuous
100
AcDbVertex
100
AcDb2dVertex
 10
5787.90537088667
 20
-2499.490123544309
 30
0.0
  0
VERTEX
  5
551
330
4E1
100
AcDbEntity
  8
Layer 03
  6
Continuous
100
AcDbVertex
100
AcDb2dVertex
 10
5789.105826364756
 20
-2498.49068674134
 30
0.0
  0
VERTEX
  5
552
330
4E1
100
AcDbEntity
  8
Layer 03
  6
Continuous
100
AcDbVertex
100
AcDb2dVertex
 10
5790.270871402437
 20
-2497.450188140583
 30
0.0
  0
VERTEX
  5
553
330
4E1
100
AcDbEntity
  8
Layer 03
  6
Continuous
100
AcDbVertex
100
AcDb2dVertex
 10
5791.399102211183
 20
-2496.369881461812
 30
0.0
  0
VERTEX
  5
554
330
4E1
100
AcDbEntity
  8
Layer 03
  6
Continuous
100
AcDbVertex
100
AcDb2dVertex
 10
5792.489159360744
 20
-2495.251068390433
 30
0.0
  0
VERTEX
  5
555
330
4E1
100
AcDbEntity
  8
Layer 03
  6
Continuous
100
AcDbVertex
100
AcDb2dVertex
 10
5793.539729417158
 20
-2494.095097009054
 30
0.0
  0
VERTEX
  5
556
330
4E1
100
AcDbEntity
  8
Layer 03
  6
Continuous
100
AcDbVertex
100
AcDb2dVertex
 10
5794.549546525332
 20
-2492.903360173155
 30
0.0
  0
VERTEX
  5
557
330
4E1
100
AcDbEntity
  8
Layer 03
  6
Continuous
100
AcDbVertex
100
AcDb2dVertex
 10
5795.517393934303
 20
-2491.677293832801
 30
0.0
  0
VERTEX
  5
558
330
4E1
100
AcDbEntity
  8
Layer 03
  6
Continuous
100
AcDbVertex
100
AcDb2dVertex
 10
5796.442105463327
 20
-2490.418375302439
 30
0.0
  0
VERTEX
  5
559
330
4E1
100
AcDbEntity
  8
Layer 03
  6
Continuous
100
AcDbVertex
100
AcDb2dVertex
 10
5797.322566907033
 20
-2489.128121480842
 30
0.0
  0
VERTEX
  5
55A
330
4E1
100
AcDbEntity
  8
Layer 03
  6
Continuous
100
AcDbVertex
100
AcDb2dVertex
 10
5798.157717377961
 20
-2487.808087023371
 30
0.0
  0
VERTEX
  5
55B
330
4E1
100
AcDbEntity
  8
Layer 03
  6
Continuous
100
AcDbVertex
100
AcDb2dVertex
 10
5798.946550584838
 20
-2486.459862468734
 30
0.0
  0
VERTEX
  5
55C
330
4E1
100
AcDbEntity
  8
Layer 03
  6
Continuous
100
AcDbVertex
100
AcDb2dVertex
 10
5799.688116045093
 20
-2485.085072322509
 30
0.0
  0
VERTEX
  5
55D
330
4E1
100
AcDbEntity
  8
Layer 03
  6
Continuous
100
AcDbVertex
100
AcDb2dVertex
 10
5800.381520230104
 20
-2483.685373099744
 30
0.0
  0
VERTEX
  5
55E
330
4E1
100
AcDbEntity
  8
Layer 03
  6
Continuous
100
AcDbVertex
100
AcDb2dVertex
 10
5801.025927641834
 20
-2482.262451328982
 30
0.0
  0
VERTEX
  5
55F
330
4E1
100
AcDbEntity
  8
Layer 03
  6
Continuous
100
AcDbVertex
100
AcDb2dVertex
 10
5801.620561819544
 20
-2480.818021520131
 30
0.0
  0
VERTEX
  5
560
330
4E1
100
AcDbEntity
  8
Layer 03
  6
Continuous
100
AcDbVertex
100
AcDb2dVertex
 10
5802.164706275365
 20
-2479.353824098607
 30
0.0
  0
VERTEX
  5
561
330
4E1
100
AcDbEntity
  8
Layer 03
  6
Continuous
100
AcDbVertex
100
AcDb2dVertex
 10
5802.65770535761
 20
-2477.87162330826
 30
0.0
  0
VERTEX
  5
562
330
4E1
100
AcDbEntity
  8
Layer 03
  6
Continuous
100
AcDbVertex
100
AcDb2dVertex
 10
5803.098965040783
 20
-2476.373205085597
 30
0.0
  0
VERTEX
  5
563
330
4E1
100
AcDbEntity
  8
Layer 03
  6
Continuous
100
AcDbVertex
100
AcDb2dVertex
 10
5803.487953641333
 20
-2474.86037490787
 30
0.0
  0
VERTEX
  5
564
330
4E1
100
AcDbEntity
  8
Layer 03
  6
Continuous
100
AcDbVertex
100
AcDb2dVertex
 10
5803.824202458295
 20
-2473.334955617612
 30
0.0
  0
VERTEX
  5
565
330
4E1
100
AcDbEntity
  8
Layer 03
  6
Continuous
100
AcDbVertex
100
AcDb2dVertex
 10
5804.107306338034
 20
-2471.798785226257
 30
0.0
  0
VERTEX
  5
566
330
4E1
100
AcDbEntity
  8
Layer 03
  6
Continuous
100
AcDbVertex
100
AcDb2dVertex
 10
5804.336924162424
 20
-2470.253714699477
 30
0.0
  0
VERTEX
  5
567
330
4E1
100
AcDbEntity
  8
Layer 03
  6
Continuous
100
AcDbVertex
100
AcDb2dVertex
 10
5804.512779259872
 20
-2468.701605726917
 30
0.0
  0
VERTEX
  5
568
330
4E1
100
AcDbEntity
  8
Layer 03
  6
Continuous
100
AcDbVertex
100
AcDb2dVertex
 10
5804.634659738683
 20
-2467.144328478999
 30
0.0
  0
VERTEX
  5
569
330
4E1
100
AcDbEntity
  8
Layer 03
  6
Continuous
100
AcDbVertex
100
AcDb2dVertex
 10
5804.702418742372
 20
-2465.583759353513
 30
0.0
  0
VERTEX
  5
56A
330
4E1
100
AcDbEntity
  8
Layer 03
  6
Continuous
100
AcDbVertex
100
AcDb2dVertex
 10
5804.715974626618
 20
-2464.021778714708
 30
0.0
  0
VERTEX
  5
56B
330
4E1
100
AcDbEntity
  8
Layer 03
  6
Continuous
100
AcDbVertex
100
AcDb2dVertex
 10
5804.675311057635
 20
-2462.460268627595
 30
0.0
  0
VERTEX
  5
56C
330
4E1
100
AcDbEntity
  8
Layer 03
  6
Continuous
100
AcDbVertex
100
AcDb2dVertex
 10
5804.580477031857
 20
-2460.901110590205
 30
0.0
  0
VERTEX
  5
56D
330
4E1
100
AcDbEntity
  8
Layer 03
  6
Continuous
100
AcDbVertex
100
AcDb2dVertex
 10
5804.4315868169
 20
-2459.346183266538
 30
0.0
  0
VERTEX
  5
56E
330
4E1
100
AcDbEntity
  8
Layer 03
  6
Continuous
100
AcDbVertex
100
AcDb2dVertex
 10
5804.228819813874
 20
-2457.797360222906
 30
0.0
  0
VERTEX
  5
56F
330
4E1
100
AcDbEntity
  8
Layer 03
  6
Continuous
100
AcDbVertex
100
AcDb2dVertex
 10
5803.972420341227
 20
-2456.256507670445
 30
0.0
  0
VERTEX
  5
570
330
4E1
100
AcDbEntity
  8
Layer 03
  6
Continuous
100
AcDbVertex
100
AcDb2dVertex
 10
5803.662697340352
 20
-2454.725482216467
 30
0.0
  0
VERTEX
  5
571
330
4E1
100
AcDbEntity
  8
Layer 03
  6
Continuous
100
AcDbVertex
100
AcDb2dVertex
 10
5803.300024003341
 20
-2453.206128627397
 30
0.0
  0
VERTEX
  5
572
330
4E1
100
AcDbEntity
  8
Layer 03
  6
Continuous
100
AcDbVertex
100
AcDb2dVertex
 10
5802.884837323318
 20
-2451.70027760597
 30
0.0
  0
VERTEX
  5
573
330
4E1
100
AcDbEntity
  8
Layer 03
  6
Continuous
100
AcDbVertex
100
AcDb2dVertex
 10
5802.417637567895
 20
-2450.209743585381
 30
0.0
  0
VERTEX
  5
574
330
4E1
100
AcDbEntity
  8
Layer 03
  6
Continuous
100
AcDbVertex
100
AcDb2dVertex
 10
5801.898987676388
 20
-2448.736322543031
 30
0.0
  0
VERTEX
  5
575
330
4E1
100
AcDbEntity
  8
Layer 03
  6
Continuous
100
AcDbVertex
100
AcDb2dVertex
 10
5801.32951258152
 20
-2447.281789836515
 30
0.0
  0
VERTEX
  5
576
330
4E1
100
AcDbEntity
  8
Layer 03
  6
Continuous
100
AcDbVertex
100
AcDb2dVertex
 10
5800.709898456425
 20
-2445.847898064455
 30
0.0
  0
VERTEX
  5
577
330
4E1
100
AcDbEntity
  8
Layer 03
  6
Continuous
100
AcDbVertex
100
AcDb2dVertex
 10
5800.040891887865
 20
-2444.436374954753
 30
0.0
  0
VERTEX
  5
578
330
4E1
100
AcDbEntity
  8
Layer 03
  6
Continuous
100
AcDbVertex
100
AcDb2dVertex
 10
5799.323298976646
 20
-2443.048921282817
 30
0.0
  0
VERTEX
  5
579
330
4E1
100
AcDbEntity
  8
Layer 03
  6
Continuous
100
AcDbVertex
100
AcDb2dVertex
 10
5798.557984366335
 20
-2441.687208822256
 30
0.0
  0
VERTEX
  5
57A
330
4E1
100
AcDbEntity
  8
Layer 03
  6
Continuous
100
AcDbVertex
100
AcDb2dVertex
 10
5797.745870201431
 20
-2440.352878330526
 30
0.0
  0
VERTEX
  5
57B
330
4E1
100
AcDbEntity
  8
Layer 03
  6
Continuous
100
AcDbVertex
100
AcDb2dVertex
 10
5796.887935016247
 20
-2439.047537571942
 30
0.0
  0
VERTEX
  5
57C
330
4E1
100
AcDbEntity
  8
Layer 03
  6
Continuous
100
AcDbVertex
100
AcDb2dVertex
 10
5795.985212555859
 20
-2437.772759380446
 30
0.0
  0
VERTEX
  5
57D
330
4E1
100
AcDbEntity
  8
Layer 03
  6
Continuous
100
AcDbVertex
100
AcDb2dVertex
 10
5795.038790530522
 20
-2436.530079764473
 30
0.0
  0
VERTEX
  5
57E
330
4E1
100
AcDbEntity
  8
Layer 03
  6
Continuous
100
AcDbVertex
100
AcDb2dVertex
 10
5794.049809305062
 20
-2435.320996056168
 30
0.0
  0
VERTEX
  5
57F
330
4E1
100
AcDbEntity
  8
Layer 03
  6
Continuous
100
AcDbVertex
100
AcDb2dVertex
 10
5793.019460524826
 20
-2434.146965107229
 30
0.0
  0
VERTEX
  5
580
330
4E1
100
AcDbEntity
  8
Layer 03
  6
Continuous
100
AcDbVertex
100
AcDb2dVertex
 10
5791.948985679844
 20
-2433.009401533507
 30
0.0
  0
VERTEX
  5
581
330
4E1
100
AcDbEntity
  8
Layer 03
  6
Continuous
100
AcDbVertex
100
AcDb2dVertex
 10
5790.839674608926
 20
-2431.909676010507
 30
0.0
  0
VERTEX
  5
582
330
4E1
100
AcDbEntity
  8
Layer 03
  6
Continuous
100
AcDbVertex
100
AcDb2dVertex
 10
5789.692863945512
 20
-2430.849113621828
 30
0.0
  0
VERTEX
  5
583
330
4E1
100
AcDbEntity
  8
Layer 03
  6
Continuous
100
AcDbVertex
100
AcDb2dVertex
 10
5788.50993550713
 20
-2429.828992262544
 30
0.0
  0
VERTEX
  5
584
330
4E1
100
AcDbEntity
  8
Layer 03
  6
Continuous
100
AcDbVertex
100
AcDb2dVertex
 10
5787.292314630412
 20
-2428.85054109944
 30
0.0
  0
VERTEX
  5
585
330
4E1
100
AcDbEntity
  8
Layer 03
  6
Continuous
100
AcDbVertex
100
AcDb2dVertex
 10
5786.041468453677
 20
-2427.914939089957
 30
0.0
  0
VERTEX
  5
586
330
4E1
100
AcDbEntity
  8
Layer 03
  6
Continuous
100
AcDbVertex
100
AcDb2dVertex
 10
5784.758904149145
 20
-2427.023313561645
 30
0.0
  0
VERTEX
  5
587
330
4E1
100
AcDbEntity
  8
Layer 03
  6
Continuous
100
AcDbVertex
100
AcDb2dVertex
 10
5783.446167106904
 20
-2426.17673885382
 30
0.0
  0
VERTEX
  5
588
330
4E1
100
AcDbEntity
  8
Layer 03
  6
Continuous
100
AcDbVertex
100
AcDb2dVertex
 10
5782.104839072846
 20
-2425.376235023067
 30
0.0
  0
VERTEX
  5
589
330
4E1
100
AcDbEntity
  8
Layer 03
  6
Continuous
100
AcDbVertex
100
AcDb2dVertex
 10
5780.73653624278
 20
-2424.622766614152
 30
0.0
  0
VERTEX
  5
58A
330
4E1
100
AcDbEntity
  8
Layer 03
  6
Continuous
100
AcDbVertex
100
AcDb2dVertex
 10
5779.342907315041
 20
-2423.917241497824
 30
0.0
  0
VERTEX
  5
58B
330
4E1
100
AcDbEntity
  8
Layer 03
  6
Continuous
100
AcDbVertex
100
AcDb2dVertex
 10
5777.925631503943
 20
-2423.260509776895
 30
0.0
  0
VERTEX
  5
58C
330
4E1
100
AcDbEntity
  8
Layer 03
  6
Continuous
100
AcDbVertex
100
AcDb2dVertex
 10
5776.486416516448
 20
-2422.653362761938
 30
0.0
  0
VERTEX
  5
58D
330
4E1
100
AcDbEntity
  8
Layer 03
  6
Continuous
100
AcDbVertex
100
AcDb2dVertex
 10
5775.026996494521
 20
-2422.096532017817
 30
0.0
  0
VERTEX
  5
58E
330
4E1
100
AcDbEntity
  8
Layer 03
  6
Continuous
100
AcDbVertex
100
AcDb2dVertex
 10
5773.549129925617
 20
-2421.590688482208
 30
0.0
  0
VERTEX
  5
58F
330
4E1
100
AcDbEntity
  8
Layer 03
  6
Continuous
100
AcDbVertex
100
AcDb2dVertex
 10
5772.054597523846
 20
-2421.136441657174
 30
0.0
  0
VERTEX
  5
590
330
4E1
100
AcDbEntity
  8
Layer 03
  6
Continuous
100
AcDbVertex
100
AcDb2dVertex
 10
5770.545200084344
 20
-2420.734338874758
 30
0.0
  0
VERTEX
  5
591
330
4E1
100
AcDbEntity
  8
Layer 03
  6
Continuous
100
AcDbVertex
100
AcDb2dVertex
 10
5769.022756313465
 20
-2420.384864637494
 30
0.0
  0
VERTEX
  5
592
330
4E1
100
AcDbEntity
  8
Layer 03
  6
Continuous
100
AcDbVertex
100
AcDb2dVertex
 10
5767.489100637373
 20
-2420.088440034619
 30
0.0
  0
VERTEX
  5
593
330
4E1
100
AcDbEntity
  8
Layer 03
  6
Continuous
100
AcDbVertex
100
AcDb2dVertex
 10
5765.946080991705
 20
-2419.84542223469
 30
0.0
  0
VERTEX
  5
594
330
4E1
100
AcDbEntity
  8
Layer 03
  6
Continuous
100
AcDbVertex
100
AcDb2dVertex
 10
5764.395556594952
 20
-2419.656104055231
 30
0.0
  0
VERTEX
  5
595
330
4E1
100
AcDbEntity
  8
Layer 03
  6
Continuous
100
AcDbVertex
100
AcDb2dVertex
 10
5762.839395708246
 20
-2419.520713609899
 30
0.0
  0
VERTEX
  5
596
330
4E1
100
AcDbEntity
  8
Layer 03
  6
Continuous
100
AcDbVertex
100
AcDb2dVertex
 10
5761.27947338425
 20
-2419.439414033639
 30
0.0
  0
SEQEND
  5
597
330
4E1
100
AcDbEntity
  8
Layer 03
  6
Continuous
  0
POLYLINE
  5
598
330
1F
100
AcDbEntity
  8
0
  6
ByBlock
 62
     0
370
    -2
100
AcDb2dPolyline
 66
     1
 10
0.0
 20
0.0
 30
0.0
 70
     1
  0
VERTEX
  5
599
330
598
100
AcDbEntity
  8
0
  6
ByBlock
 62
     0
370
    -2
100
AcDbVertex
100
AcDb2dVertex
 10
5572.217669207867
 20
-2325.412303286105
 30
0.0
  0
VERTEX
  5
59A
330
598
100
AcDbEntity
  8
0
  6
ByBlock
 62
     0
370
    -2
100
AcDbVertex
100
AcDb2dVertex
 10
5539.217669207867
 20
-2325.412303286105
 30
0.0
  0
VERTEX
  5
59B
330
598
100
AcDbEntity
  8
0
  6
ByBlock
 62
     0
370
    -2
100
AcDbVertex
100
AcDb2dVertex
 10
5539.217669207867
 20
-2603.412303286105
 30
0.0
  0
VERTEX
  5
59C
330
598
100
AcDbEntity
  8
0
  6
ByBlock
 62
     0
370
    -2
100
AcDbVertex
100
AcDb2dVertex
 10
5572.217669207867
 20
-2603.412303286105
 30
0.0
  0
VERTEX
  5
59D
330
598
100
AcDbEntity
  8
0
  6
ByBlock
 62
     0
370
    -2
100
AcDbVertex
100
AcDb2dVertex
 10
5877.217669207867
 20
-2603.412303286105
 30
0.0
  0
VERTEX
  5
59E
330
598
100
AcDbEntity
  8
0
  6
ByBlock
 62
     0
370
    -2
100
AcDbVertex
100
AcDb2dVertex
 10
5877.217669207867
 20
-2325.412303286105
 30
0.0
  0
SEQEND
  5
59F
330
598
100
AcDbEntity
  8
0
  6
ByBlock
 62
     0
370
    -2
  0
POLYLINE
  5
5A0
330
1F
100
AcDbEntity
  8
Default
100
AcDb2dPolyline
 66
     1
 10
0.0
 20
0.0
 30
0.0
 70
     1
  0
VERTEX
  5
5A1
330
5A0
100
AcDbEntity
  8
Default
100
AcDbVertex
100
AcDb2dVertex
 10
5572.217669207867
 20
-2603.412303286105
 30
0.0
  0
VERTEX
  5
5A2
330
5A0
100
AcDbEntity
  8
Default
100
AcDbVertex
100
AcDb2dVertex
 10
5877.217669207867
 20
-2603.412303286105
 30
0.0
  0
VERTEX
  5
5A3
330
5A0
100
AcDbEntity
  8
Default
100
AcDbVertex
100
AcDb2dVertex
 10
5877.217669207867
 20
-2325.412303286105
 30
0.0
  0
VERTEX
  5
5A4
330
5A0
100
AcDbEntity
  8
Default
100
AcDbVertex
100
AcDb2dVertex
 10
5572.217669207867
 20
-2325.412303286105
 30
0.0
  0
SEQEND
  5
5A5
330
5A0
100
AcDbEntity
  8
Default
  0
POLYLINE
  5
5A6
330
1F
100
AcDbEntity
  8
Layer 03
100
AcDb2dPolyline
 66
     1
 10
0.0
 20
0.0
 30
0.0
 70
     1
  0
VERTEX
  5
5A7
330
5A6
100
AcDbEntity
  8
Layer 03
100
AcDbVertex
100
AcDb2dVertex
 10
5885.217669207867
 20
-2604.412303286103
 30
0.0
  0
VERTEX
  5
5A8
330
5A6
100
AcDbEntity
  8
Layer 03
100
AcDbVertex
100
AcDb2dVertex
 10
5885.217669207867
 20
-2324.412303286105
 30
0.0
  0
VERTEX
  5
5A9
330
5A6
100
AcDbEntity
  8
Layer 03
100
AcDbVertex
100
AcDb2dVertex
 10
5885.215920274966
 20
-2324.309879955547
 30
0.0
  0
VERTEX
  5
5AA
330
5A6
100
AcDbEntity
  8
Layer 03
100
AcDbVertex
100
AcDb2dVertex
 10
5885.210675515439
 20
-2324.207576046011
 30
0.0
  0
VERTEX
  5
5AB
330
5A6
100
AcDbEntity
  8
Layer 03
100
AcDbVertex
100
AcDb2dVertex
 10
5885.201941044442
 20
-2324.105510839279
 30
0.0
  0
VERTEX
  5
5AC
330
5A6
100
AcDbEntity
  8
Layer 03
100
AcDbVertex
100
AcDb2dVertex
 10
5885.189727045976
 20
-2324.003803338816
 30
0.0
  0
VERTEX
  5
5AD
330
5A6
100
AcDbEntity
  8
Layer 03
100
AcDbVertex
100
AcDb2dVertex
 10
5885.174047761018
 20
-2323.902572131019
 30
0.0
  0
VERTEX
  5
5AE
330
5A6
100
AcDbEntity
  8
Layer 03
100
AcDbVertex
100
AcDb2dVertex
 10
5885.154921470914
 20
-2323.801935246947
 30
0.0
  0
VERTEX
  5
5AF
330
5A6
100
AcDbEntity
  8
Layer 03
100
AcDbVertex
100
AcDb2dVertex
 10
5885.132370476061
 20
-2323.702010024706
 30
0.0
  0
VERTEX
  5
5B0
330
5A6
100
AcDbEntity
  8
Layer 03
100
AcDbVertex
100
AcDb2dVertex
 10
5885.10642106991
 20
-2323.602912972634
 30
0.0
  0
VERTEX
  5
5B1
330
5A6
100
AcDbEntity
  8
Layer 03
100
AcDbVertex
100
AcDb2dVertex
 10
5885.077103508309
 20
-2323.504759633462
 30
0.0
  0
VERTEX
  5
5B2
330
5A6
100
AcDbEntity
  8
Layer 03
100
AcDbVertex
100
AcDb2dVertex
 10
5885.044451974222
 20
-2323.407664449593
 30
0.0
  0
VERTEX
  5
5B3
330
5A6
100
AcDbEntity
  8
Layer 03
100
AcDbVertex
100
AcDb2dVertex
 10
5885.008504537879
 20
-2323.311740629667
 30
0.0
  0
VERTEX
  5
5B4
330
5A6
100
AcDbEntity
  8
Layer 03
100
AcDbVertex
100
AcDb2dVertex
 10
5884.969303112382
 20
-2323.217100016567
 30
0.0
  0
VERTEX
  5
5B5
330
5A6
100
AcDbEntity
  8
Layer 03
100
AcDbVertex
100
AcDb2dVertex
 10
5884.92689340484
 20
-2323.123852957016
 30
0.0
  0
VERTEX
  5
5B6
330
5A6
100
AcDbEntity
  8
Layer 03
100
AcDbVertex
100
AcDb2dVertex
 10
5884.881324863073
 20
-2323.032108172913
 30
0.0
  0
VERTEX
  5
5B7
330
5A6
100
AcDbEntity
  8
Layer 03
100
AcDbVertex
100
AcDb2dVertex
 10
5884.832650617965
 20
-2322.941972634572
 30
0.0
  0
VERTEX
  5
5B8
330
5A6
100
AcDbEntity
  8
Layer 03
100
AcDbVertex
100
AcDb2dVertex
 10
5884.780927421506
 20
-2322.853551436
 30
0.0
  0
VERTEX
  5
5B9
330
5A6
100
AcDbEntity
  8
Layer 03
100
AcDbVertex
100
AcDb2dVertex
 10
5884.72621558063
 20
-2322.766947672358
 30
0.0
  0
VERTEX
  5
5BA
330
5A6
100
AcDbEntity
  8
Layer 03
100
AcDbVertex
100
AcDb2dVertex
 10
5884.668578886896
 20
-2322.682262319762
 30
0.0
  0
VERTEX
  5
5BB
330
5A6
100
AcDbEntity
  8
Layer 03
100
AcDbVertex
100
AcDb2dVertex
 10
5884.608084542113
 20
-2322.599594117543
 30
0.0
  0
VERTEX
  5
5BC
330
5A6
100
AcDbEntity
  8
Layer 03
100
AcDbVertex
100
AcDb2dVertex
 10
5884.544803079979
 20
-2322.519039453129
 30
0.0
  0
VERTEX
  5
5BD
330
5A6
100
AcDbEntity
  8
Layer 03
100
AcDbVertex
100
AcDb2dVertex
 10
5884.478808283848
 20
-2322.440692249653
 30
0.0
  0
VERTEX
  5
5BE
330
5A6
100
AcDbEntity
  8
Layer 03
100
AcDbVertex
100
AcDb2dVertex
 10
5884.4101771007
 20
-2322.364643856451
 30
0.0
  0
VERTEX
  5
5BF
330
5A6
100
AcDbEntity
  8
Layer 03
100
AcDbVertex
100
AcDb2dVertex
 10
5884.338989551426
 20
-2322.290982942548
 30
0.0
  0
VERTEX
  5
5C0
330
5A6
100
AcDbEntity
  8
Layer 03
100
AcDbVertex
100
AcDb2dVertex
 10
5884.265328637522
 20
-2322.219795393273
 30
0.0
  0
VERTEX
  5
5C1
330
5A6
100
AcDbEntity
  8
Layer 03
100
AcDbVertex
100
AcDb2dVertex
 10
5884.18928024432
 20
-2322.151164210125
 30
0.0
  0
VERTEX
  5
5C2
330
5A6
100
AcDbEntity
  8
Layer 03
100
AcDbVertex
100
AcDb2dVertex
 10
5884.110933040844
 20
-2322.085169413994
 30
0.0
  0
VERTEX
  5
5C3
330
5A6
100
AcDbEntity
  8
Layer 03
100
AcDbVertex
100
AcDb2dVertex
 10
5884.030378376428
 20
-2322.02188795186
 30
0.0
  0
VERTEX
  5
5C4
330
5A6
100
AcDbEntity
  8
Layer 03
100
AcDbVertex
100
AcDb2dVertex
 10
5883.94771017421
 20
-2321.961393607076
 30
0.0
  0
VERTEX
  5
5C5
330
5A6
100
AcDbEntity
  8
Layer 03
100
AcDbVertex
100
AcDb2dVertex
 10
5883.863024821613
 20
-2321.903756913343
 30
0.0
  0
VERTEX
  5
5C6
330
5A6
100
AcDbEntity
  8
Layer 03
100
AcDbVertex
100
AcDb2dVertex
 10
5883.776421057972
 20
-2321.849045072468
 30
0.0
  0
VERTEX
  5
5C7
330
5A6
100
AcDbEntity
  8
Layer 03
100
AcDbVertex
100
AcDb2dVertex
 10
5883.687999859399
 20
-2321.79732187601
 30
0.0
  0
VERTEX
  5
5C8
330
5A6
100
AcDbEntity
  8
Layer 03
100
AcDbVertex
100
AcDb2dVertex
 10
5883.597864321059
 20
-2321.748647630901
 30
0.0
  0
VERTEX
  5
5C9
330
5A6
100
AcDbEntity
  8
Layer 03
100
AcDbVertex
100
AcDb2dVertex
 10
5883.506119536956
 20
-2321.703079089134
 30
0.0
  0
VERTEX
  5
5CA
330
5A6
100
AcDbEntity
  8
Layer 03
100
AcDbVertex
100
AcDb2dVertex
 10
5883.412872477405
 20
-2321.660669381592
 30
0.0
  0
VERTEX
  5
5CB
330
5A6
100
AcDbEntity
  8
Layer 03
100
AcDbVertex
100
AcDb2dVertex
 10
5883.318231864305
 20
-2321.621467956095
 30
0.0
  0
VERTEX
  5
5CC
330
5A6
100
AcDbEntity
  8
Layer 03
100
AcDbVertex
100
AcDb2dVertex
 10
5883.222308044379
 20
-2321.585520519752
 30
0.0
  0
VERTEX
  5
5CD
330
5A6
100
AcDbEntity
  8
Layer 03
100
AcDbVertex
100
AcDb2dVertex
 10
5883.125212860509
 20
-2321.552868985666
 30
0.0
  0
VERTEX
  5
5CE
330
5A6
100
AcDbEntity
  8
Layer 03
100
AcDbVertex
100
AcDb2dVertex
 10
5883.027059521337
 20
-2321.523551424065
 30
0.0
  0
VERTEX
  5
5CF
330
5A6
100
AcDbEntity
  8
Layer 03
100
AcDbVertex
100
AcDb2dVertex
 10
5882.927962469265
 20
-2321.497602017915
 30
0.0
  0
VERTEX
  5
5D0
330
5A6
100
AcDbEntity
  8
Layer 03
100
AcDbVertex
100
AcDb2dVertex
 10
5882.828037247024
 20
-2321.475051023061
 30
0.0
  0
VERTEX
  5
5D1
330
5A6
100
AcDbEntity
  8
Layer 03
100
AcDbVertex
100
AcDb2dVertex
 10
5882.727400362953
 20
-2321.455924732957
 30
0.0
  0
VERTEX
  5
5D2
330
5A6
100
AcDbEntity
  8
Layer 03
100
AcDbVertex
100
AcDb2dVertex
 10
5882.626169155155
 20
-2321.440245448
 30
0.0
  0
VERTEX
  5
5D3
330
5A6
100
AcDbEntity
  8
Layer 03
100
AcDbVertex
100
AcDb2dVertex
 10
5882.524461654692
 20
-2321.428031449535
 30
0.0
  0
VERTEX
  5
5D4
330
5A6
100
AcDbEntity
  8
Layer 03
100
AcDbVertex
100
AcDb2dVertex
 10
5882.422396447961
 20
-2321.419296978537
 30
0.0
  0
VERTEX
  5
5D5
330
5A6
100
AcDbEntity
  8
Layer 03
100
AcDbVertex
100
AcDb2dVertex
 10
5882.320092538424
 20
-2321.414052219011
 30
0.0
  0
VERTEX
  5
5D6
330
5A6
100
AcDbEntity
  8
Layer 03
100
AcDbVertex
100
AcDb2dVertex
 10
5882.217669207866
 20
-2321.412303286109
 30
0.0
  0
VERTEX
  5
5D7
330
5A6
100
AcDbEntity
  8
Layer 03
100
AcDbVertex
100
AcDb2dVertex
 10
5575.217669207868
 20
-2321.412303286106
 30
0.0
  0
VERTEX
  5
5D8
330
5A6
100
AcDbEntity
  8
Layer 03
100
AcDbVertex
100
AcDb2dVertex
 10
5575.11524587731
 20
-2321.414052219007
 30
0.0
  0
VERTEX
  5
5D9
330
5A6
100
AcDbEntity
  8
Layer 03
100
AcDbVertex
100
AcDb2dVertex
 10
5575.012941967774
 20
-2321.419296978534
 30
0.0
  0
VERTEX
  5
5DA
330
5A6
100
AcDbEntity
  8
Layer 03
100
AcDbVertex
100
AcDb2dVertex
 10
5574.910876761042
 20
-2321.428031449531
 30
0.0
  0
VERTEX
  5
5DB
330
5A6
100
AcDbEntity
  8
Layer 03
100
AcDbVertex
100
AcDb2dVertex
 10
5574.809169260579
 20
-2321.440245447997
 30
0.0
  0
VERTEX
  5
5DC
330
5A6
100
AcDbEntity
  8
Layer 03
100
AcDbVertex
100
AcDb2dVertex
 10
5574.707938052782
 20
-2321.455924732954
 30
0.0
  0
VERTEX
  5
5DD
330
5A6
100
AcDbEntity
  8
Layer 03
100
AcDbVertex
100
AcDb2dVertex
 10
5574.60730116871
 20
-2321.475051023059
 30
0.0
  0
VERTEX
  5
5DE
330
5A6
100
AcDbEntity
  8
Layer 03
100
AcDbVertex
100
AcDb2dVertex
 10
5574.507375946469
 20
-2321.497602017912
 30
0.0
  0
VERTEX
  5
5DF
330
5A6
100
AcDbEntity
  8
Layer 03
100
AcDbVertex
100
AcDb2dVertex
 10
5574.408278894398
 20
-2321.523551424063
 30
0.0
  0
VERTEX
  5
5E0
330
5A6
100
AcDbEntity
  8
Layer 03
100
AcDbVertex
100
AcDb2dVertex
 10
5574.310125555226
 20
-2321.552868985664
 30
0.0
  0
VERTEX
  5
5E1
330
5A6
100
AcDbEntity
  8
Layer 03
100
AcDbVertex
100
AcDb2dVertex
 10
5574.213030371356
 20
-2321.585520519749
 30
0.0
  0
VERTEX
  5
5E2
330
5A6
100
AcDbEntity
  8
Layer 03
100
AcDbVertex
100
AcDb2dVertex
 10
5574.11710655143
 20
-2321.621467956093
 30
0.0
  0
VERTEX
  5
5E3
330
5A6
100
AcDbEntity
  8
Layer 03
100
AcDbVertex
100
AcDb2dVertex
 10
5574.02246593833
 20
-2321.66066938159
 30
0.0
  0
VERTEX
  5
5E4
330
5A6
100
AcDbEntity
  8
Layer 03
100
AcDbVertex
100
AcDb2dVertex
 10
5573.929218878779
 20
-2321.703079089132
 30
0.0
  0
VERTEX
  5
5E5
330
5A6
100
AcDbEntity
  8
Layer 03
100
AcDbVertex
100
AcDb2dVertex
 10
5573.837474094676
 20
-2321.748647630899
 30
0.0
  0
VERTEX
  5
5E6
330
5A6
100
AcDbEntity
  8
Layer 03
100
AcDbVertex
100
AcDb2dVertex
 10
5573.747338556334
 20
-2321.797321876008
 30
0.0
  0
VERTEX
  5
5E7
330
5A6
100
AcDbEntity
  8
Layer 03
100
AcDbVertex
100
AcDb2dVertex
 10
5573.658917357762
 20
-2321.849045072466
 30
0.0
  0
VERTEX
  5
5E8
330
5A6
100
AcDbEntity
  8
Layer 03
100
AcDbVertex
100
AcDb2dVertex
 10
5573.572313594121
 20
-2321.903756913342
 30
0.0
  0
VERTEX
  5
5E9
330
5A6
100
AcDbEntity
  8
Layer 03
100
AcDbVertex
100
AcDb2dVertex
 10
5573.487628241524
 20
-2321.961393607075
 30
0.0
  0
VERTEX
  5
5EA
330
5A6
100
AcDbEntity
  8
Layer 03
100
AcDbVertex
100
AcDb2dVertex
 10
5573.404960039305
 20
-2322.021887951858
 30
0.0
  0
VERTEX
  5
5EB
330
5A6
100
AcDbEntity
  8
Layer 03
100
AcDbVertex
100
AcDb2dVertex
 10
5573.32440537489
 20
-2322.085169413992
 30
0.0
  0
VERTEX
  5
5EC
330
5A6
100
AcDbEntity
  8
Layer 03
100
AcDbVertex
100
AcDb2dVertex
 10
5573.246058171415
 20
-2322.151164210124
 30
0.0
  0
VERTEX
  5
5ED
330
5A6
100
AcDbEntity
  8
Layer 03
100
AcDbVertex
100
AcDb2dVertex
 10
5573.170009778213
 20
-2322.219795393271
 30
0.0
  0
VERTEX
  5
5EE
330
5A6
100
AcDbEntity
  8
Layer 03
100
AcDbVertex
100
AcDb2dVertex
 10
5573.096348864309
 20
-2322.290982942546
 30
0.0
  0
VERTEX
  5
5EF
330
5A6
100
AcDbEntity
  8
Layer 03
100
AcDbVertex
100
AcDb2dVertex
 10
5573.025161315035
 20
-2322.36464385645
 30
0.0
  0
VERTEX
  5
5F0
330
5A6
100
AcDbEntity
  8
Layer 03
100
AcDbVertex
100
AcDb2dVertex
 10
5572.956530131887
 20
-2322.440692249652
 30
0.0
  0
VERTEX
  5
5F1
330
5A6
100
AcDbEntity
  8
Layer 03
100
AcDbVertex
100
AcDb2dVertex
 10
5572.890535335756
 20
-2322.519039453128
 30
0.0
  0
VERTEX
  5
5F2
330
5A6
100
AcDbEntity
  8
Layer 03
100
AcDbVertex
100
AcDb2dVertex
 10
5572.827253873621
 20
-2322.599594117542
 30
0.0
  0
VERTEX
  5
5F3
330
5A6
100
AcDbEntity
  8
Layer 03
100
AcDbVertex
100
AcDb2dVertex
 10
5572.766759528838
 20
-2322.682262319761
 30
0.0
  0
VERTEX
  5
5F4
330
5A6
100
AcDbEntity
  8
Layer 03
100
AcDbVertex
100
AcDb2dVertex
 10
5572.709122835105
 20
-2322.766947672358
 30
0.0
  0
VERTEX
  5
5F5
330
5A6
100
AcDbEntity
  8
Layer 03
100
AcDbVertex
100
AcDb2dVertex
 10
5572.65441099423
 20
-2322.853551435999
 30
0.0
  0
VERTEX
  5
5F6
330
5A6
100
AcDbEntity
  8
Layer 03
100
AcDbVertex
100
AcDb2dVertex
 10
5572.602687797772
 20
-2322.941972634571
 30
0.0
  0
VERTEX
  5
5F7
330
5A6
100
AcDbEntity
  8
Layer 03
100
AcDbVertex
100
AcDb2dVertex
 10
5572.554013552663
 20
-2323.032108172912
 30
0.0
  0
VERTEX
  5
5F8
330
5A6
100
AcDbEntity
  8
Layer 03
100
AcDbVertex
100
AcDb2dVertex
 10
5572.508445010896
 20
-2323.123852957015
 30
0.0
  0
VERTEX
  5
5F9
330
5A6
100
AcDbEntity
  8
Layer 03
100
AcDbVertex
100
AcDb2dVertex
 10
5572.466035303353
 20
-2323.217100016567
 30
0.0
  0
VERTEX
  5
5FA
330
5A6
100
AcDbEntity
  8
Layer 03
100
AcDbVertex
100
AcDb2dVertex
 10
5572.426833877857
 20
-2323.311740629666
 30
0.0
  0
VERTEX
  5
5FB
330
5A6
100
AcDbEntity
  8
Layer 03
100
AcDbVertex
100
AcDb2dVertex
 10
5572.390886441513
 20
-2323.407664449592
 30
0.0
  0
VERTEX
  5
5FC
330
5A6
100
AcDbEntity
  8
Layer 03
100
AcDbVertex
100
AcDb2dVertex
 10
5572.358234907427
 20
-2323.504759633462
 30
0.0
  0
VERTEX
  5
5FD
330
5A6
100
AcDbEntity
  8
Layer 03
100
AcDbVertex
100
AcDb2dVertex
 10
5572.328917345826
 20
-2323.602912972634
 30
0.0
  0
VERTEX
  5
5FE
330
5A6
100
AcDbEntity
  8
Layer 03
100
AcDbVertex
100
AcDb2dVertex
 10
5572.302967939676
 20
-2323.702010024706
 30
0.0
  0
VERTEX
  5
5FF
330
5A6
100
AcDbEntity
  8
Layer 03
100
AcDbVertex
100
AcDb2dVertex
 10
5572.280416944823
 20
-2323.801935246947
 30
0.0
  0
VERTEX
  5
600
330
5A6
100
AcDbEntity
  8
Layer 03
100
AcDbVertex
100
AcDb2dVertex
 10
5572.261290654718
 20
-2323.902572131019
 30
0.0
  0
VERTEX
  5
601
330
5A6
100
AcDbEntity
  8
Layer 03
100
AcDbVertex
100
AcDb2dVertex
 10
5572.245611369761
 20
-2324.003803338816
 30
0.0
  0
VERTEX
  5
602
330
5A6
100
AcDbEntity
  8
Layer 03
100
AcDbVertex
100
AcDb2dVertex
 10
5572.233397371295
 20
-2324.105510839279
 30
0.0
  0
VERTEX
  5
603
330
5A6
100
AcDbEntity
  8
Layer 03
100
AcDbVertex
100
AcDb2dVertex
 10
5572.224662900298
 20
-2324.207576046011
 30
0.0
  0
VERTEX
  5
604
330
5A6
100
AcDbEntity
  8
Layer 03
100
AcDbVertex
100
AcDb2dVertex
 10
5572.21941814077
 20
-2324.309879955547
 30
0.0
  0
VERTEX
  5
605
330
5A6
100
AcDbEntity
  8
Layer 03
100
AcDbVertex
100
AcDb2dVertex
 10
5572.217669207869
 20
-2324.412303286105
 30
0.0
  0
VERTEX
  5
606
330
5A6
100
AcDbEntity
  8
Layer 03
100
AcDbVertex
100
AcDb2dVertex
 10
5572.217669207867
 20
-2607.412303286106
 30
0.0
  0
VERTEX
  5
607
330
5A6
100
AcDbEntity
  8
Layer 03
100
AcDbVertex
100
AcDb2dVertex
 10
5882.217669207867
 20
-2607.412303286106
 30
0.0
  0
VERTEX
  5
608
330
5A6
100
AcDbEntity
  8
Layer 03
100
AcDbVertex
100
AcDb2dVertex
 10
5882.320092538425
 20
-2607.410554353204
 30
0.0
  0
VERTEX
  5
609
330
5A6
100
AcDbEntity
  8
Layer 03
100
AcDbVertex
100
AcDb2dVertex
 10
5882.422396447962
 20
-2607.405309593677
 30
0.0
  0
VERTEX
  5
60A
330
5A6
100
AcDbEntity
  8
Layer 03
100
AcDbVertex
100
AcDb2dVertex
 10
5882.524461654693
 20
-2607.39657512268
 30
0.0
  0
VERTEX
  5
60B
330
5A6
100
AcDbEntity
  8
Layer 03
100
AcDbVertex
100
AcDb2dVertex
 10
5882.626169155156
 20
-2607.384361124215
 30
0.0
  0
VERTEX
  5
60C
330
5A6
100
AcDbEntity
  8
Layer 03
100
AcDbVertex
100
AcDb2dVertex
 10
5882.727400362954
 20
-2607.368681839257
 30
0.0
  0
VERTEX
  5
60D
330
5A6
100
AcDbEntity
  8
Layer 03
100
AcDbVertex
100
AcDb2dVertex
 10
5882.828037247025
 20
-2607.349555549153
 30
0.0
  0
VERTEX
  5
60E
330
5A6
100
AcDbEntity
  8
Layer 03
100
AcDbVertex
100
AcDb2dVertex
 10
5882.927962469267
 20
-2607.327004554299
 30
0.0
  0
VERTEX
  5
60F
330
5A6
100
AcDbEntity
  8
Layer 03
100
AcDbVertex
100
AcDb2dVertex
 10
5883.027059521339
 20
-2607.301055148149
 30
0.0
  0
VERTEX
  5
610
330
5A6
100
AcDbEntity
  8
Layer 03
100
AcDbVertex
100
AcDb2dVertex
 10
5883.125212860511
 20
-2607.271737586548
 30
0.0
  0
VERTEX
  5
611
330
5A6
100
AcDbEntity
  8
Layer 03
100
AcDbVertex
100
AcDb2dVertex
 10
5883.222308044381
 20
-2607.239086052462
 30
0.0
  0
VERTEX
  5
612
330
5A6
100
AcDbEntity
  8
Layer 03
100
AcDbVertex
100
AcDb2dVertex
 10
5883.318231864308
 20
-2607.203138616119
 30
0.0
  0
VERTEX
  5
613
330
5A6
100
AcDbEntity
  8
Layer 03
100
AcDbVertex
100
AcDb2dVertex
 10
5883.412872477407
 20
-2607.163937190622
 30
0.0
  0
VERTEX
  5
614
330
5A6
100
AcDbEntity
  8
Layer 03
100
AcDbVertex
100
AcDb2dVertex
 10
5883.506119536958
 20
-2607.121527483079
 30
0.0
  0
VERTEX
  5
615
330
5A6
100
AcDbEntity
  8
Layer 03
100
AcDbVertex
100
AcDb2dVertex
 10
5883.597864321062
 20
-2607.075958941312
 30
0.0
  0
VERTEX
  5
616
330
5A6
100
AcDbEntity
  8
Layer 03
100
AcDbVertex
100
AcDb2dVertex
 10
5883.687999859402
 20
-2607.027284696203
 30
0.0
  0
VERTEX
  5
617
330
5A6
100
AcDbEntity
  8
Layer 03
100
AcDbVertex
100
AcDb2dVertex
 10
5883.776421057974
 20
-2606.975561499745
 30
0.0
  0
VERTEX
  5
618
330
5A6
100
AcDbEntity
  8
Layer 03
100
AcDbVertex
100
AcDb2dVertex
 10
5883.863024821616
 20
-2606.920849658869
 30
0.0
  0
VERTEX
  5
619
330
5A6
100
AcDbEntity
  8
Layer 03
100
AcDbVertex
100
AcDb2dVertex
 10
5883.947710174213
 20
-2606.863212965136
 30
0.0
  0
VERTEX
  5
61A
330
5A6
100
AcDbEntity
  8
Layer 03
100
AcDbVertex
100
AcDb2dVertex
 10
5884.030378376432
 20
-2606.802718620353
 30
0.0
  0
VERTEX
  5
61B
330
5A6
100
AcDbEntity
  8
Layer 03
100
AcDbVertex
100
AcDb2dVertex
 10
5884.110933040846
 20
-2606.739437158218
 30
0.0
  0
VERTEX
  5
61C
330
5A6
100
AcDbEntity
  8
Layer 03
100
AcDbVertex
100
AcDb2dVertex
 10
5884.189280244323
 20
-2606.673442362087
 30
0.0
  0
VERTEX
  5
61D
330
5A6
100
AcDbEntity
  8
Layer 03
100
AcDbVertex
100
AcDb2dVertex
 10
5884.265328637524
 20
-2606.604811178939
 30
0.0
  0
VERTEX
  5
61E
330
5A6
100
AcDbEntity
  8
Layer 03
100
AcDbVertex
100
AcDb2dVertex
 10
5884.338989551428
 20
-2606.533623629664
 30
0.0
  0
VERTEX
  5
61F
330
5A6
100
AcDbEntity
  8
Layer 03
100
AcDbVertex
100
AcDb2dVertex
 10
5884.410177100703
 20
-2606.45996271576
 30
0.0
  0
VERTEX
  5
620
330
5A6
100
AcDbEntity
  8
Layer 03
100
AcDbVertex
100
AcDb2dVertex
 10
5884.47880828385
 20
-2606.383914322558
 30
0.0
  0
VERTEX
  5
621
330
5A6
100
AcDbEntity
  8
Layer 03
100
AcDbVertex
100
AcDb2dVertex
 10
5884.544803079982
 20
-2606.305567119082
 30
0.0
  0
VERTEX
  5
622
330
5A6
100
AcDbEntity
  8
Layer 03
100
AcDbVertex
100
AcDb2dVertex
 10
5884.608084542117
 20
-2606.225012454668
 30
0.0
  0
VERTEX
  5
623
330
5A6
100
AcDbEntity
  8
Layer 03
100
AcDbVertex
100
AcDb2dVertex
 10
5884.6685788869
 20
-2606.142344252449
 30
0.0
  0
VERTEX
  5
624
330
5A6
100
AcDbEntity
  8
Layer 03
100
AcDbVertex
100
AcDb2dVertex
 10
5884.726215580633
 20
-2606.057658899852
 30
0.0
  0
VERTEX
  5
625
330
5A6
100
AcDbEntity
  8
Layer 03
100
AcDbVertex
100
AcDb2dVertex
 10
5884.780927421508
 20
-2605.97105513621
 30
0.0
  0
VERTEX
  5
626
330
5A6
100
AcDbEntity
  8
Layer 03
100
AcDbVertex
100
AcDb2dVertex
 10
5884.832650617966
 20
-2605.882633937638
 30
0.0
  0
VERTEX
  5
627
330
5A6
100
AcDbEntity
  8
Layer 03
100
AcDbVertex
100
AcDb2dVertex
 10
5884.881324863076
 20
-2605.792498399297
 30
0.0
  0
VERTEX
  5
628
330
5A6
100
AcDbEntity
  8
Layer 03
100
AcDbVertex
100
AcDb2dVertex
 10
5884.926893404842
 20
-2605.700753615194
 30
0.0
  0
VERTEX
  5
629
330
5A6
100
AcDbEntity
  8
Layer 03
100
AcDbVertex
100
AcDb2dVertex
 10
5884.969303112384
 20
-2605.607506555642
 30
0.0
  0
VERTEX
  5
62A
330
5A6
100
AcDbEntity
  8
Layer 03
100
AcDbVertex
100
AcDb2dVertex
 10
5885.008504537882
 20
-2605.512865942543
 30
0.0
  0
VERTEX
  5
62B
330
5A6
100
AcDbEntity
  8
Layer 03
100
AcDbVertex
100
AcDb2dVertex
 10
5885.044451974225
 20
-2605.416942122617
 30
0.0
  0
VERTEX
  5
62C
330
5A6
100
AcDbEntity
  8
Layer 03
100
AcDbVertex
100
AcDb2dVertex
 10
5885.077103508311
 20
-2605.319846938747
 30
0.0
  0
VERTEX
  5
62D
330
5A6
100
AcDbEntity
  8
Layer 03
100
AcDbVertex
100
AcDb2dVertex
 10
5885.106421069911
 20
-2605.221693599574
 30
0.0
  0
VERTEX
  5
62E
330
5A6
100
AcDbEntity
  8
Layer 03
100
AcDbVertex
100
AcDb2dVertex
 10
5885.132370476062
 20
-2605.122596547502
 30
0.0
  0
VERTEX
  5
62F
330
5A6
100
AcDbEntity
  8
Layer 03
100
AcDbVertex
100
AcDb2dVertex
 10
5885.154921470915
 20
-2605.022671325261
 30
0.0
  0
VERTEX
  5
630
330
5A6
100
AcDbEntity
  8
Layer 03
100
AcDbVertex
100
AcDb2dVertex
 10
5885.174047761019
 20
-2604.922034441189
 30
0.0
  0
VERTEX
  5
631
330
5A6
100
AcDbEntity
  8
Layer 03
100
AcDbVertex
100
AcDb2dVertex
 10
5885.189727045977
 20
-2604.820803233391
 30
0.0
  0
VERTEX
  5
632
330
5A6
100
AcDbEntity
  8
Layer 03
100
AcDbVertex
100
AcDb2dVertex
 10
5885.201941044442
 20
-2604.719095732929
 30
0.0
  0
VERTEX
  5
633
330
5A6
100
AcDbEntity
  8
Layer 03
100
AcDbVertex
100
AcDb2dVertex
 10
5885.210675515439
 20
-2604.617030526197
 30
0.0
  0
VERTEX
  5
634
330
5A6
100
AcDbEntity
  8
Layer 03
100
AcDbVertex
100
AcDb2dVertex
 10
5885.215920274966
 20
-2604.51472661666
 30
0.0
  0
SEQEND
  5
635
330
5A6
100
AcDbEntity
  8
Layer 03
  0
POLYLINE
  5
636
330
1F
100
AcDbEntity
  8
0
  6
ByBlock
 62
     0
370
    -2
100
AcDb2dPolyline
 66
     1
 10
0.0
 20
0.0
 30
0.0
 70
     1
  0
VERTEX
  5
637
330
636
100
AcDbEntity
  8
0
  6
ByBlock
 62
     0
370
    -2
100
AcDbVertex
100
AcDb2dVertex
 10
5847.217669207867
 20
-2407.412303286105
 30
0.0
  0
VERTEX
  5
638
330
636
100
AcDbEntity
  8
0
  6
ByBlock
 62
     0
370
    -2
100
AcDbVertex
100
AcDb2dVertex
 10
5847.215920274966
 20
-2407.309879955547
 30
0.0
  0
VERTEX
  5
639
330
636
100
AcDbEntity
  8
0
  6
ByBlock
 62
     0
370
    -2
100
AcDbVertex
100
AcDb2dVertex
 10
5847.210675515439
 20
-2407.207576046011
 30
0.0
  0
VERTEX
  5
63A
330
636
100
AcDbEntity
  8
0
  6
ByBlock
 62
     0
370
    -2
100
AcDbVertex
100
AcDb2dVertex
 10
5847.201941044442
 20
-2407.105510839279
 30
0.0
  0
VERTEX
  5
63B
330
636
100
AcDbEntity
  8
0
  6
ByBlock
 62
     0
370
    -2
100
AcDbVertex
100
AcDb2dVertex
 10
5847.189727045977
 20
-2407.003803338816
 30
0.0
  0
VERTEX
  5
63C
330
636
100
AcDbEntity
  8
0
  6
ByBlock
 62
     0
370
    -2
100
AcDbVertex
100
AcDb2dVertex
 10
5847.174047761019
 20
-2406.902572131019
 30
0.0
  0
VERTEX
  5
63D
330
636
100
AcDbEntity
  8
0
  6
ByBlock
 62
     0
370
    -2
100
AcDbVertex
100
AcDb2dVertex
 10
5847.154921470915
 20
-2406.801935246947
 30
0.0
  0
VERTEX
  5
63E
330
636
100
AcDbEntity
  8
0
  6
ByBlock
 62
     0
370
    -2
100
AcDbVertex
100
AcDb2dVertex
 10
5847.132370476062
 20
-2406.702010024706
 30
0.0
  0
VERTEX
  5
63F
330
636
100
AcDbEntity
  8
0
  6
ByBlock
 62
     0
370
    -2
100
AcDbVertex
100
AcDb2dVertex
 10
5847.106421069911
 20
-2406.602912972634
 30
0.0
  0
VERTEX
  5
640
330
636
100
AcDbEntity
  8
0
  6
ByBlock
 62
     0
370
    -2
100
AcDbVertex
100
AcDb2dVertex
 10
5847.07710350831
 20
-2406.504759633462
 30
0.0
  0
VERTEX
  5
641
330
636
100
AcDbEntity
  8
0
  6
ByBlock
 62
     0
370
    -2
100
AcDbVertex
100
AcDb2dVertex
 10
5847.044451974224
 20
-2406.407664449592
 30
0.0
  0
VERTEX
  5
642
330
636
100
AcDbEntity
  8
0
  6
ByBlock
 62
     0
370
    -2
100
AcDbVertex
100
AcDb2dVertex
 10
5847.008504537881
 20
-2406.311740629666
 30
0.0
  0
VERTEX
  5
643
330
636
100
AcDbEntity
  8
0
  6
ByBlock
 62
     0
370
    -2
100
AcDbVertex
100
AcDb2dVertex
 10
5846.969303112383
 20
-2406.217100016567
 30
0.0
  0
VERTEX
  5
644
330
636
100
AcDbEntity
  8
0
  6
ByBlock
 62
     0
370
    -2
100
AcDbVertex
100
AcDb2dVertex
 10
5846.926893404841
 20
-2406.123852957015
 30
0.0
  0
VERTEX
  5
645
330
636
100
AcDbEntity
  8
0
  6
ByBlock
 62
     0
370
    -2
100
AcDbVertex
100
AcDb2dVertex
 10
5846.881324863075
 20
-2406.032108172912
 30
0.0
  0
VERTEX
  5
646
330
636
100
AcDbEntity
  8
0
  6
ByBlock
 62
     0
370
    -2
100
AcDbVertex
100
AcDb2dVertex
 10
5846.832650617966
 20
-2405.941972634571
 30
0.0
  0
VERTEX
  5
647
330
636
100
AcDbEntity
  8
0
  6
ByBlock
 62
     0
370
    -2
100
AcDbVertex
100
AcDb2dVertex
 10
5846.780927421507
 20
-2405.853551435999
 30
0.0
  0
VERTEX
  5
648
330
636
100
AcDbEntity
  8
0
  6
ByBlock
 62
     0
370
    -2
100
AcDbVertex
100
AcDb2dVertex
 10
5846.726215580631
 20
-2405.766947672357
 30
0.0
  0
VERTEX
  5
649
330
636
100
AcDbEntity
  8
0
  6
ByBlock
 62
     0
370
    -2
100
AcDbVertex
100
AcDb2dVertex
 10
5846.668578886899
 20
-2405.682262319761
 30
0.0
  0
VERTEX
  5
64A
330
636
100
AcDbEntity
  8
0
  6
ByBlock
 62
     0
370
    -2
100
AcDbVertex
100
AcDb2dVertex
 10
5846.608084542115
 20
-2405.599594117542
 30
0.0
  0
VERTEX
  5
64B
330
636
100
AcDbEntity
  8
0
  6
ByBlock
 62
     0
370
    -2
100
AcDbVertex
100
AcDb2dVertex
 10
5846.544803079981
 20
-2405.519039453127
 30
0.0
  0
VERTEX
  5
64C
330
636
100
AcDbEntity
  8
0
  6
ByBlock
 62
     0
370
    -2
100
AcDbVertex
100
AcDb2dVertex
 10
5846.47880828385
 20
-2405.440692249651
 30
0.0
  0
VERTEX
  5
64D
330
636
100
AcDbEntity
  8
0
  6
ByBlock
 62
     0
370
    -2
100
AcDbVertex
100
AcDb2dVertex
 10
5846.410177100702
 20
-2405.364643856449
 30
0.0
  0
VERTEX
  5
64E
330
636
100
AcDbEntity
  8
0
  6
ByBlock
 62
     0
370
    -2
100
AcDbVertex
100
AcDb2dVertex
 10
5846.338989551427
 20
-2405.290982942546
 30
0.0
  0
VERTEX
  5
64F
330
636
100
AcDbEntity
  8
0
  6
ByBlock
 62
     0
370
    -2
100
AcDbVertex
100
AcDb2dVertex
 10
5846.265328637523
 20
-2405.219795393271
 30
0.0
  0
VERTEX
  5
650
330
636
100
AcDbEntity
  8
0
  6
ByBlock
 62
     0
370
    -2
100
AcDbVertex
100
AcDb2dVertex
 10
5846.189280244322
 20
-2405.151164210123
 30
0.0
  0
VERTEX
  5
651
330
636
100
AcDbEntity
  8
0
  6
ByBlock
 62
     0
370
    -2
100
AcDbVertex
100
AcDb2dVertex
 10
5846.110933040845
 20
-2405.085169413992
 30
0.0
  0
VERTEX
  5
652
330
636
100
AcDbEntity
  8
0
  6
ByBlock
 62
     0
370
    -2
100
AcDbVertex
100
AcDb2dVertex
 10
5846.03037837643
 20
-2405.021887951857
 30
0.0
  0
VERTEX
  5
653
330
636
100
AcDbEntity
  8
0
  6
ByBlock
 62
     0
370
    -2
100
AcDbVertex
100
AcDb2dVertex
 10
5845.947710174212
 20
-2404.961393607074
 30
0.0
  0
VERTEX
  5
654
330
636
100
AcDbEntity
  8
0
  6
ByBlock
 62
     0
370
    -2
100
AcDbVertex
100
AcDb2dVertex
 10
5845.863024821615
 20
-2404.903756913341
 30
0.0
  0
VERTEX
  5
655
330
636
100
AcDbEntity
  8
0
  6
ByBlock
 62
     0
370
    -2
100
AcDbVertex
100
AcDb2dVertex
 10
5845.776421057973
 20
-2404.849045072466
 30
0.0
  0
VERTEX
  5
656
330
636
100
AcDbEntity
  8
0
  6
ByBlock
 62
     0
370
    -2
100
AcDbVertex
100
AcDb2dVertex
 10
5845.687999859401
 20
-2404.797321876007
 30
0.0
  0
VERTEX
  5
657
330
636
100
AcDbEntity
  8
0
  6
ByBlock
 62
     0
370
    -2
100
AcDbVertex
100
AcDb2dVertex
 10
5845.597864321061
 20
-2404.748647630898
 30
0.0
  0
VERTEX
  5
658
330
636
100
AcDbEntity
  8
0
  6
ByBlock
 62
     0
370
    -2
100
AcDbVertex
100
AcDb2dVertex
 10
5845.506119536958
 20
-2404.703079089132
 30
0.0
  0
VERTEX
  5
659
330
636
100
AcDbEntity
  8
0
  6
ByBlock
 62
     0
370
    -2
100
AcDbVertex
100
AcDb2dVertex
 10
5845.412872477406
 20
-2404.660669381589
 30
0.0
  0
VERTEX
  5
65A
330
636
100
AcDbEntity
  8
0
  6
ByBlock
 62
     0
370
    -2
100
AcDbVertex
100
AcDb2dVertex
 10
5845.318231864307
 20
-2404.621467956092
 30
0.0
  0
VERTEX
  5
65B
330
636
100
AcDbEntity
  8
0
  6
ByBlock
 62
     0
370
    -2
100
AcDbVertex
100
AcDb2dVertex
 10
5845.22230804438
 20
-2404.585520519749
 30
0.0
  0
VERTEX
  5
65C
330
636
100
AcDbEntity
  8
0
  6
ByBlock
 62
     0
370
    -2
100
AcDbVertex
100
AcDb2dVertex
 10
5845.125212860511
 20
-2404.552868985663
 30
0.0
  0
VERTEX
  5
65D
330
636
100
AcDbEntity
  8
0
  6
ByBlock
 62
     0
370
    -2
100
AcDbVertex
100
AcDb2dVertex
 10
5845.027059521339
 20
-2404.523551424062
 30
0.0
  0
VERTEX
  5
65E
330
636
100
AcDbEntity
  8
0
  6
ByBlock
 62
     0
370
    -2
100
AcDbVertex
100
AcDb2dVertex
 10
5844.927962469267
 20
-2404.497602017912
 30
0.0
  0
VERTEX
  5
65F
330
636
100
AcDbEntity
  8
0
  6
ByBlock
 62
     0
370
    -2
100
AcDbVertex
100
AcDb2dVertex
 10
5844.828037247025
 20
-2404.475051023058
 30
0.0
  0
VERTEX
  5
660
330
636
100
AcDbEntity
  8
0
  6
ByBlock
 62
     0
370
    -2
100
AcDbVertex
100
AcDb2dVertex
 10
5844.727400362954
 20
-2404.455924732953
 30
0.0
  0
VERTEX
  5
661
330
636
100
AcDbEntity
  8
0
  6
ByBlock
 62
     0
370
    -2
100
AcDbVertex
100
AcDb2dVertex
 10
5844.626169155156
 20
-2404.440245447996
 30
0.0
  0
VERTEX
  5
662
330
636
100
AcDbEntity
  8
0
  6
ByBlock
 62
     0
370
    -2
100
AcDbVertex
100
AcDb2dVertex
 10
5844.524461654693
 20
-2404.428031449531
 30
0.0
  0
VERTEX
  5
663
330
636
100
AcDbEntity
  8
0
  6
ByBlock
 62
     0
370
    -2
100
AcDbVertex
100
AcDb2dVertex
 10
5844.422396447962
 20
-2404.419296978534
 30
0.0
  0
VERTEX
  5
664
330
636
100
AcDbEntity
  8
0
  6
ByBlock
 62
     0
370
    -2
100
AcDbVertex
100
AcDb2dVertex
 10
5844.320092538425
 20
-2404.414052219007
 30
0.0
  0
VERTEX
  5
665
330
636
100
AcDbEntity
  8
0
  6
ByBlock
 62
     0
370
    -2
100
AcDbVertex
100
AcDb2dVertex
 10
5844.217669207867
 20
-2404.412303286105
 30
0.0
  0
VERTEX
  5
666
330
636
100
AcDbEntity
  8
0
  6
ByBlock
 62
     0
370
    -2
100
AcDbVertex
100
AcDb2dVertex
 10
5820.217669207866
 20
-2404.412303286105
 30
0.0
  0
VERTEX
  5
667
330
636
100
AcDbEntity
  8
0
  6
ByBlock
 62
     0
370
    -2
100
AcDbVertex
100
AcDb2dVertex
 10
5820.115245877309
 20
-2404.414052219007
 30
0.0
  0
VERTEX
  5
668
330
636
100
AcDbEntity
  8
0
  6
ByBlock
 62
     0
370
    -2
100
AcDbVertex
100
AcDb2dVertex
 10
5820.012941967772
 20
-2404.419296978534
 30
0.0
  0
VERTEX
  5
669
330
636
100
AcDbEntity
  8
0
  6
ByBlock
 62
     0
370
    -2
100
AcDbVertex
100
AcDb2dVertex
 10
5819.910876761041
 20
-2404.428031449531
 30
0.0
  0
VERTEX
  5
66A
330
636
100
AcDbEntity
  8
0
  6
ByBlock
 62
     0
370
    -2
100
AcDbVertex
100
AcDb2dVertex
 10
5819.809169260578
 20
-2404.440245447996
 30
0.0
  0
VERTEX
  5
66B
330
636
100
AcDbEntity
  8
0
  6
ByBlock
 62
     0
370
    -2
100
AcDbVertex
100
AcDb2dVertex
 10
5819.70793805278
 20
-2404.455924732953
 30
0.0
  0
VERTEX
  5
66C
330
636
100
AcDbEntity
  8
0
  6
ByBlock
 62
     0
370
    -2
100
AcDbVertex
100
AcDb2dVertex
 10
5819.607301168709
 20
-2404.475051023058
 30
0.0
  0
VERTEX
  5
66D
330
636
100
AcDbEntity
  8
0
  6
ByBlock
 62
     0
370
    -2
100
AcDbVertex
100
AcDb2dVertex
 10
5819.507375946468
 20
-2404.497602017912
 30
0.0
  0
VERTEX
  5
66E
330
636
100
AcDbEntity
  8
0
  6
ByBlock
 62
     0
370
    -2
100
AcDbVertex
100
AcDb2dVertex
 10
5819.408278894395
 20
-2404.523551424062
 30
0.0
  0
VERTEX
  5
66F
330
636
100
AcDbEntity
  8
0
  6
ByBlock
 62
     0
370
    -2
100
AcDbVertex
100
AcDb2dVertex
 10
5819.310125555224
 20
-2404.552868985663
 30
0.0
  0
VERTEX
  5
670
330
636
100
AcDbEntity
  8
0
  6
ByBlock
 62
     0
370
    -2
100
AcDbVertex
100
AcDb2dVertex
 10
5819.213030371354
 20
-2404.585520519749
 30
0.0
  0
VERTEX
  5
671
330
636
100
AcDbEntity
  8
0
  6
ByBlock
 62
     0
370
    -2
100
AcDbVertex
100
AcDb2dVertex
 10
5819.117106551427
 20
-2404.621467956092
 30
0.0
  0
VERTEX
  5
672
330
636
100
AcDbEntity
  8
0
  6
ByBlock
 62
     0
370
    -2
100
AcDbVertex
100
AcDb2dVertex
 10
5819.022465938328
 20
-2404.660669381589
 30
0.0
  0
VERTEX
  5
673
330
636
100
AcDbEntity
  8
0
  6
ByBlock
 62
     0
370
    -2
100
AcDbVertex
100
AcDb2dVertex
 10
5818.929218878777
 20
-2404.703079089132
 30
0.0
  0
VERTEX
  5
674
330
636
100
AcDbEntity
  8
0
  6
ByBlock
 62
     0
370
    -2
100
AcDbVertex
100
AcDb2dVertex
 10
5818.837474094673
 20
-2404.748647630898
 30
0.0
  0
VERTEX
  5
675
330
636
100
AcDbEntity
  8
0
  6
ByBlock
 62
     0
370
    -2
100
AcDbVertex
100
AcDb2dVertex
 10
5818.747338556333
 20
-2404.797321876007
 30
0.0
  0
VERTEX
  5
676
330
636
100
AcDbEntity
  8
0
  6
ByBlock
 62
     0
370
    -2
100
AcDbVertex
100
AcDb2dVertex
 10
5818.65891735776
 20
-2404.849045072466
 30
0.0
  0
VERTEX
  5
677
330
636
100
AcDbEntity
  8
0
  6
ByBlock
 62
     0
370
    -2
100
AcDbVertex
100
AcDb2dVertex
 10
5818.572313594119
 20
-2404.903756913341
 30
0.0
  0
VERTEX
  5
678
330
636
100
AcDbEntity
  8
0
  6
ByBlock
 62
     0
370
    -2
100
AcDbVertex
100
AcDb2dVertex
 10
5818.487628241522
 20
-2404.961393607074
 30
0.0
  0
VERTEX
  5
679
330
636
100
AcDbEntity
  8
0
  6
ByBlock
 62
     0
370
    -2
100
AcDbVertex
100
AcDb2dVertex
 10
5818.404960039304
 20
-2405.021887951857
 30
0.0
  0
VERTEX
  5
67A
330
636
100
AcDbEntity
  8
0
  6
ByBlock
 62
     0
370
    -2
100
AcDbVertex
100
AcDb2dVertex
 10
5818.324405374889
 20
-2405.085169413992
 30
0.0
  0
VERTEX
  5
67B
330
636
100
AcDbEntity
  8
0
  6
ByBlock
 62
     0
370
    -2
100
AcDbVertex
100
AcDb2dVertex
 10
5818.246058171413
 20
-2405.151164210123
 30
0.0
  0
VERTEX
  5
67C
330
636
100
AcDbEntity
  8
0
  6
ByBlock
 62
     0
370
    -2
100
AcDbVertex
100
AcDb2dVertex
 10
5818.17000977821
 20
-2405.219795393271
 30
0.0
  0
VERTEX
  5
67D
330
636
100
AcDbEntity
  8
0
  6
ByBlock
 62
     0
370
    -2
100
AcDbVertex
100
AcDb2dVertex
 10
5818.096348864307
 20
-2405.290982942545
 30
0.0
  0
VERTEX
  5
67E
330
636
100
AcDbEntity
  8
0
  6
ByBlock
 62
     0
370
    -2
100
AcDbVertex
100
AcDb2dVertex
 10
5818.025161315032
 20
-2405.364643856449
 30
0.0
  0
VERTEX
  5
67F
330
636
100
AcDbEntity
  8
0
  6
ByBlock
 62
     0
370
    -2
100
AcDbVertex
100
AcDb2dVertex
 10
5817.956530131884
 20
-2405.440692249651
 30
0.0
  0
VERTEX
  5
680
330
636
100
AcDbEntity
  8
0
  6
ByBlock
 62
     0
370
    -2
100
AcDbVertex
100
AcDb2dVertex
 10
5817.890535335753
 20
-2405.519039453127
 30
0.0
  0
VERTEX
  5
681
330
636
100
AcDbEntity
  8
0
  6
ByBlock
 62
     0
370
    -2
100
AcDbVertex
100
AcDb2dVertex
 10
5817.827253873619
 20
-2405.599594117542
 30
0.0
  0
VERTEX
  5
682
330
636
100
AcDbEntity
  8
0
  6
ByBlock
 62
     0
370
    -2
100
AcDbVertex
100
AcDb2dVertex
 10
5817.766759528836
 20
-2405.68226231976
 30
0.0
  0
VERTEX
  5
683
330
636
100
AcDbEntity
  8
0
  6
ByBlock
 62
     0
370
    -2
100
AcDbVertex
100
AcDb2dVertex
 10
5817.709122835103
 20
-2405.766947672357
 30
0.0
  0
VERTEX
  5
684
330
636
100
AcDbEntity
  8
0
  6
ByBlock
 62
     0
370
    -2
100
AcDbVertex
100
AcDb2dVertex
 10
5817.654410994227
 20
-2405.853551435999
 30
0.0
  0
VERTEX
  5
685
330
636
100
AcDbEntity
  8
0
  6
ByBlock
 62
     0
370
    -2
100
AcDbVertex
100
AcDb2dVertex
 10
5817.602687797768
 20
-2405.941972634571
 30
0.0
  0
VERTEX
  5
686
330
636
100
AcDbEntity
  8
0
  6
ByBlock
 62
     0
370
    -2
100
AcDbVertex
100
AcDb2dVertex
 10
5817.55401355266
 20
-2406.032108172912
 30
0.0
  0
VERTEX
  5
687
330
636
100
AcDbEntity
  8
0
  6
ByBlock
 62
     0
370
    -2
100
AcDbVertex
100
AcDb2dVertex
 10
5817.508445010893
 20
-2406.123852957015
 30
0.0
  0
VERTEX
  5
688
330
636
100
AcDbEntity
  8
0
  6
ByBlock
 62
     0
370
    -2
100
AcDbVertex
100
AcDb2dVertex
 10
5817.466035303351
 20
-2406.217100016566
 30
0.0
  0
VERTEX
  5
689
330
636
100
AcDbEntity
  8
0
  6
ByBlock
 62
     0
370
    -2
100
AcDbVertex
100
AcDb2dVertex
 10
5817.426833877853
 20
-2406.311740629666
 30
0.0
  0
VERTEX
  5
68A
330
636
100
AcDbEntity
  8
0
  6
ByBlock
 62
     0
370
    -2
100
AcDbVertex
100
AcDb2dVertex
 10
5817.39088644151
 20
-2406.407664449592
 30
0.0
  0
VERTEX
  5
68B
330
636
100
AcDbEntity
  8
0
  6
ByBlock
 62
     0
370
    -2
100
AcDbVertex
100
AcDb2dVertex
 10
5817.358234907424
 20
-2406.504759633462
 30
0.0
  0
VERTEX
  5
68C
330
636
100
AcDbEntity
  8
0
  6
ByBlock
 62
     0
370
    -2
100
AcDbVertex
100
AcDb2dVertex
 10
5817.328917345823
 20
-2406.602912972634
 30
0.0
  0
VERTEX
  5
68D
330
636
100
AcDbEntity
  8
0
  6
ByBlock
 62
     0
370
    -2
100
AcDbVertex
100
AcDb2dVertex
 10
5817.302967939673
 20
-2406.702010024705
 30
0.0
  0
VERTEX
  5
68E
330
636
100
AcDbEntity
  8
0
  6
ByBlock
 62
     0
370
    -2
100
AcDbVertex
100
AcDb2dVertex
 10
5817.28041694482
 20
-2406.801935246947
 30
0.0
  0
VERTEX
  5
68F
330
636
100
AcDbEntity
  8
0
  6
ByBlock
 62
     0
370
    -2
100
AcDbVertex
100
AcDb2dVertex
 10
5817.261290654715
 20
-2406.902572131019
 30
0.0
  0
VERTEX
  5
690
330
636
100
AcDbEntity
  8
0
  6
ByBlock
 62
     0
370
    -2
100
AcDbVertex
100
AcDb2dVertex
 10
5817.245611369757
 20
-2407.003803338816
 30
0.0
  0
VERTEX
  5
691
330
636
100
AcDbEntity
  8
0
  6
ByBlock
 62
     0
370
    -2
100
AcDbVertex
100
AcDb2dVertex
 10
5817.233397371292
 20
-2407.105510839279
 30
0.0
  0
VERTEX
  5
692
330
636
100
AcDbEntity
  8
0
  6
ByBlock
 62
     0
370
    -2
100
AcDbVertex
100
AcDb2dVertex
 10
5817.224662900295
 20
-2407.207576046011
 30
0.0
  0
VERTEX
  5
693
330
636
100
AcDbEntity
  8
0
  6
ByBlock
 62
     0
370
    -2
100
AcDbVertex
100
AcDb2dVertex
 10
5817.219418140768
 20
-2407.309879955547
 30
0.0
  0
VERTEX
  5
694
330
636
100
AcDbEntity
  8
0
  6
ByBlock
 62
     0
370
    -2
100
AcDbVertex
100
AcDb2dVertex
 10
5817.217669207866
 20
-2407.412303286105
 30
0.0
  0
VERTEX
  5
695
330
636
100
AcDbEntity
  8
0
  6
ByBlock
 62
     0
370
    -2
100
AcDbVertex
100
AcDb2dVertex
 10
5817.217669207867
 20
-2521.412303286105
 30
0.0
  0
VERTEX
  5
696
330
636
100
AcDbEntity
  8
0
  6
ByBlock
 62
     0
370
    -2
100
AcDbVertex
100
AcDb2dVertex
 10
5817.219418140769
 20
-2521.514726616663
 30
0.0
  0
VERTEX
  5
697
330
636
100
AcDbEntity
  8
0
  6
ByBlock
 62
     0
370
    -2
100
AcDbVertex
100
AcDb2dVertex
 10
5817.224662900296
 20
-2521.617030526199
 30
0.0
  0
VERTEX
  5
698
330
636
100
AcDbEntity
  8
0
  6
ByBlock
 62
     0
370
    -2
100
AcDbVertex
100
AcDb2dVertex
 10
5817.233397371293
 20
-2521.719095732931
 30
0.0
  0
VERTEX
  5
699
330
636
100
AcDbEntity
  8
0
  6
ByBlock
 62
     0
370
    -2
100
AcDbVertex
100
AcDb2dVertex
 10
5817.245611369758
 20
-2521.820803233394
 30
0.0
  0
VERTEX
  5
69A
330
636
100
AcDbEntity
  8
0
  6
ByBlock
 62
     0
370
    -2
100
AcDbVertex
100
AcDb2dVertex
 10
5817.261290654716
 20
-2521.922034441191
 30
0.0
  0
VERTEX
  5
69B
330
636
100
AcDbEntity
  8
0
  6
ByBlock
 62
     0
370
    -2
100
AcDbVertex
100
AcDb2dVertex
 10
5817.280416944821
 20
-2522.022671325263
 30
0.0
  0
VERTEX
  5
69C
330
636
100
AcDbEntity
  8
0
  6
ByBlock
 62
     0
370
    -2
100
AcDbVertex
100
AcDb2dVertex
 10
5817.302967939673
 20
-2522.122596547505
 30
0.0
  0
VERTEX
  5
69D
330
636
100
AcDbEntity
  8
0
  6
ByBlock
 62
     0
370
    -2
100
AcDbVertex
100
AcDb2dVertex
 10
5817.328917345824
 20
-2522.221693599577
 30
0.0
  0
VERTEX
  5
69E
330
636
100
AcDbEntity
  8
0
  6
ByBlock
 62
     0
370
    -2
100
AcDbVertex
100
AcDb2dVertex
 10
5817.358234907425
 20
-2522.319846938748
 30
0.0
  0
VERTEX
  5
69F
330
636
100
AcDbEntity
  8
0
  6
ByBlock
 62
     0
370
    -2
100
AcDbVertex
100
AcDb2dVertex
 10
5817.390886441511
 20
-2522.416942122618
 30
0.0
  0
VERTEX
  5
6A0
330
636
100
AcDbEntity
  8
0
  6
ByBlock
 62
     0
370
    -2
100
AcDbVertex
100
AcDb2dVertex
 10
5817.426833877854
 20
-2522.512865942545
 30
0.0
  0
VERTEX
  5
6A1
330
636
100
AcDbEntity
  8
0
  6
ByBlock
 62
     0
370
    -2
100
AcDbVertex
100
AcDb2dVertex
 10
5817.466035303351
 20
-2522.607506555644
 30
0.0
  0
VERTEX
  5
6A2
330
636
100
AcDbEntity
  8
0
  6
ByBlock
 62
     0
370
    -2
100
AcDbVertex
100
AcDb2dVertex
 10
5817.508445010894
 20
-2522.700753615196
 30
0.0
  0
VERTEX
  5
6A3
330
636
100
AcDbEntity
  8
0
  6
ByBlock
 62
     0
370
    -2
100
AcDbVertex
100
AcDb2dVertex
 10
5817.554013552661
 20
-2522.792498399299
 30
0.0
  0
VERTEX
  5
6A4
330
636
100
AcDbEntity
  8
0
  6
ByBlock
 62
     0
370
    -2
100
AcDbVertex
100
AcDb2dVertex
 10
5817.602687797769
 20
-2522.88263393764
 30
0.0
  0
VERTEX
  5
6A5
330
636
100
AcDbEntity
  8
0
  6
ByBlock
 62
     0
370
    -2
100
AcDbVertex
100
AcDb2dVertex
 10
5817.654410994228
 20
-2522.971055136212
 30
0.0
  0
VERTEX
  5
6A6
330
636
100
AcDbEntity
  8
0
  6
ByBlock
 62
     0
370
    -2
100
AcDbVertex
100
AcDb2dVertex
 10
5817.709122835104
 20
-2523.057658899853
 30
0.0
  0
VERTEX
  5
6A7
330
636
100
AcDbEntity
  8
0
  6
ByBlock
 62
     0
370
    -2
100
AcDbVertex
100
AcDb2dVertex
 10
5817.766759528837
 20
-2523.14234425245
 30
0.0
  0
VERTEX
  5
6A8
330
636
100
AcDbEntity
  8
0
  6
ByBlock
 62
     0
370
    -2
100
AcDbVertex
100
AcDb2dVertex
 10
5817.82725387362
 20
-2523.225012454669
 30
0.0
  0
VERTEX
  5
6A9
330
636
100
AcDbEntity
  8
0
  6
ByBlock
 62
     0
370
    -2
100
AcDbVertex
100
AcDb2dVertex
 10
5817.890535335754
 20
-2523.305567119084
 30
0.0
  0
VERTEX
  5
6AA
330
636
100
AcDbEntity
  8
0
  6
ByBlock
 62
     0
370
    -2
100
AcDbVertex
100
AcDb2dVertex
 10
5817.956530131885
 20
-2523.38391432256
 30
0.0
  0
VERTEX
  5
6AB
330
636
100
AcDbEntity
  8
0
  6
ByBlock
 62
     0
370
    -2
100
AcDbVertex
100
AcDb2dVertex
 10
5818.025161315033
 20
-2523.459962715762
 30
0.0
  0
VERTEX
  5
6AC
330
636
100
AcDbEntity
  8
0
  6
ByBlock
 62
     0
370
    -2
100
AcDbVertex
100
AcDb2dVertex
 10
5818.096348864308
 20
-2523.533623629665
 30
0.0
  0
VERTEX
  5
6AD
330
636
100
AcDbEntity
  8
0
  6
ByBlock
 62
     0
370
    -2
100
AcDbVertex
100
AcDb2dVertex
 10
5818.170009778212
 20
-2523.60481117894
 30
0.0
  0
VERTEX
  5
6AE
330
636
100
AcDbEntity
  8
0
  6
ByBlock
 62
     0
370
    -2
100
AcDbVertex
100
AcDb2dVertex
 10
5818.246058171414
 20
-2523.673442362088
 30
0.0
  0
VERTEX
  5
6AF
330
636
100
AcDbEntity
  8
0
  6
ByBlock
 62
     0
370
    -2
100
AcDbVertex
100
AcDb2dVertex
 10
5818.324405374889
 20
-2523.739437158219
 30
0.0
  0
VERTEX
  5
6B0
330
636
100
AcDbEntity
  8
0
  6
ByBlock
 62
     0
370
    -2
100
AcDbVertex
100
AcDb2dVertex
 10
5818.404960039305
 20
-2523.802718620354
 30
0.0
  0
VERTEX
  5
6B1
330
636
100
AcDbEntity
  8
0
  6
ByBlock
 62
     0
370
    -2
100
AcDbVertex
100
AcDb2dVertex
 10
5818.487628241523
 20
-2523.863212965137
 30
0.0
  0
VERTEX
  5
6B2
330
636
100
AcDbEntity
  8
0
  6
ByBlock
 62
     0
370
    -2
100
AcDbVertex
100
AcDb2dVertex
 10
5818.57231359412
 20
-2523.92084965887
 30
0.0
  0
VERTEX
  5
6B3
330
636
100
AcDbEntity
  8
0
  6
ByBlock
 62
     0
370
    -2
100
AcDbVertex
100
AcDb2dVertex
 10
5818.658917357761
 20
-2523.975561499745
 30
0.0
  0
VERTEX
  5
6B4
330
636
100
AcDbEntity
  8
0
  6
ByBlock
 62
     0
370
    -2
100
AcDbVertex
100
AcDb2dVertex
 10
5818.747338556333
 20
-2524.027284696204
 30
0.0
  0
VERTEX
  5
6B5
330
636
100
AcDbEntity
  8
0
  6
ByBlock
 62
     0
370
    -2
100
AcDbVertex
100
AcDb2dVertex
 10
5818.837474094675
 20
-2524.075958941313
 30
0.0
  0
VERTEX
  5
6B6
330
636
100
AcDbEntity
  8
0
  6
ByBlock
 62
     0
370
    -2
100
AcDbVertex
100
AcDb2dVertex
 10
5818.929218878778
 20
-2524.121527483079
 30
0.0
  0
VERTEX
  5
6B7
330
636
100
AcDbEntity
  8
0
  6
ByBlock
 62
     0
370
    -2
100
AcDbVertex
100
AcDb2dVertex
 10
5819.022465938329
 20
-2524.163937190622
 30
0.0
  0
VERTEX
  5
6B8
330
636
100
AcDbEntity
  8
0
  6
ByBlock
 62
     0
370
    -2
100
AcDbVertex
100
AcDb2dVertex
 10
5819.117106551429
 20
-2524.203138616119
 30
0.0
  0
VERTEX
  5
6B9
330
636
100
AcDbEntity
  8
0
  6
ByBlock
 62
     0
370
    -2
100
AcDbVertex
100
AcDb2dVertex
 10
5819.213030371355
 20
-2524.239086052462
 30
0.0
  0
VERTEX
  5
6BA
330
636
100
AcDbEntity
  8
0
  6
ByBlock
 62
     0
370
    -2
100
AcDbVertex
100
AcDb2dVertex
 10
5819.310125555225
 20
-2524.271737586548
 30
0.0
  0
VERTEX
  5
6BB
330
636
100
AcDbEntity
  8
0
  6
ByBlock
 62
     0
370
    -2
100
AcDbVertex
100
AcDb2dVertex
 10
5819.408278894397
 20
-2524.301055148149
 30
0.0
  0
VERTEX
  5
6BC
330
636
100
AcDbEntity
  8
0
  6
ByBlock
 62
     0
370
    -2
100
AcDbVertex
100
AcDb2dVertex
 10
5819.507375946469
 20
-2524.327004554299
 30
0.0
  0
VERTEX
  5
6BD
330
636
100
AcDbEntity
  8
0
  6
ByBlock
 62
     0
370
    -2
100
AcDbVertex
100
AcDb2dVertex
 10
5819.60730116871
 20
-2524.349555549152
 30
0.0
  0
VERTEX
  5
6BE
330
636
100
AcDbEntity
  8
0
  6
ByBlock
 62
     0
370
    -2
100
AcDbVertex
100
AcDb2dVertex
 10
5819.707938052782
 20
-2524.368681839257
 30
0.0
  0
VERTEX
  5
6BF
330
636
100
AcDbEntity
  8
0
  6
ByBlock
 62
     0
370
    -2
100
AcDbVertex
100
AcDb2dVertex
 10
5819.809169260579
 20
-2524.384361124215
 30
0.0
  0
VERTEX
  5
6C0
330
636
100
AcDbEntity
  8
0
  6
ByBlock
 62
     0
370
    -2
100
AcDbVertex
100
AcDb2dVertex
 10
5819.910876761042
 20
-2524.39657512268
 30
0.0
  0
VERTEX
  5
6C1
330
636
100
AcDbEntity
  8
0
  6
ByBlock
 62
     0
370
    -2
100
AcDbVertex
100
AcDb2dVertex
 10
5820.012941967774
 20
-2524.405309593677
 30
0.0
  0
VERTEX
  5
6C2
330
636
100
AcDbEntity
  8
0
  6
ByBlock
 62
     0
370
    -2
100
AcDbVertex
100
AcDb2dVertex
 10
5820.11524587731
 20
-2524.410554353204
 30
0.0
  0
VERTEX
  5
6C3
330
636
100
AcDbEntity
  8
0
  6
ByBlock
 62
     0
370
    -2
100
AcDbVertex
100
AcDb2dVertex
 10
5820.217669207868
 20
-2524.412303286105
 30
0.0
  0
VERTEX
  5
6C4
330
636
100
AcDbEntity
  8
0
  6
ByBlock
 62
     0
370
    -2
100
AcDbVertex
100
AcDb2dVertex
 10
5844.217669207867
 20
-2524.412303286105
 30
0.0
  0
VERTEX
  5
6C5
330
636
100
AcDbEntity
  8
0
  6
ByBlock
 62
     0
370
    -2
100
AcDbVertex
100
AcDb2dVertex
 10
5844.320092538425
 20
-2524.410554353204
 30
0.0
  0
VERTEX
  5
6C6
330
636
100
AcDbEntity
  8
0
  6
ByBlock
 62
     0
370
    -2
100
AcDbVertex
100
AcDb2dVertex
 10
5844.422396447962
 20
-2524.405309593677
 30
0.0
  0
VERTEX
  5
6C7
330
636
100
AcDbEntity
  8
0
  6
ByBlock
 62
     0
370
    -2
100
AcDbVertex
100
AcDb2dVertex
 10
5844.524461654693
 20
-2524.39657512268
 30
0.0
  0
VERTEX
  5
6C8
330
636
100
AcDbEntity
  8
0
  6
ByBlock
 62
     0
370
    -2
100
AcDbVertex
100
AcDb2dVertex
 10
5844.626169155156
 20
-2524.384361124214
 30
0.0
  0
VERTEX
  5
6C9
330
636
100
AcDbEntity
  8
0
  6
ByBlock
 62
     0
370
    -2
100
AcDbVertex
100
AcDb2dVertex
 10
5844.727400362954
 20
-2524.368681839257
 30
0.0
  0
VERTEX
  5
6CA
330
636
100
AcDbEntity
  8
0
  6
ByBlock
 62
     0
370
    -2
100
AcDbVertex
100
AcDb2dVertex
 10
5844.828037247025
 20
-2524.349555549152
 30
0.0
  0
VERTEX
  5
6CB
330
636
100
AcDbEntity
  8
0
  6
ByBlock
 62
     0
370
    -2
100
AcDbVertex
100
AcDb2dVertex
 10
5844.927962469266
 20
-2524.327004554299
 30
0.0
  0
VERTEX
  5
6CC
330
636
100
AcDbEntity
  8
0
  6
ByBlock
 62
     0
370
    -2
100
AcDbVertex
100
AcDb2dVertex
 10
5845.027059521339
 20
-2524.301055148149
 30
0.0
  0
VERTEX
  5
6CD
330
636
100
AcDbEntity
  8
0
  6
ByBlock
 62
     0
370
    -2
100
AcDbVertex
100
AcDb2dVertex
 10
5845.125212860511
 20
-2524.271737586548
 30
0.0
  0
VERTEX
  5
6CE
330
636
100
AcDbEntity
  8
0
  6
ByBlock
 62
     0
370
    -2
100
AcDbVertex
100
AcDb2dVertex
 10
5845.22230804438
 20
-2524.239086052462
 30
0.0
  0
VERTEX
  5
6CF
330
636
100
AcDbEntity
  8
0
  6
ByBlock
 62
     0
370
    -2
100
AcDbVertex
100
AcDb2dVertex
 10
5845.318231864307
 20
-2524.203138616119
 30
0.0
  0
VERTEX
  5
6D0
330
636
100
AcDbEntity
  8
0
  6
ByBlock
 62
     0
370
    -2
100
AcDbVertex
100
AcDb2dVertex
 10
5845.412872477406
 20
-2524.163937190622
 30
0.0
  0
VERTEX
  5
6D1
330
636
100
AcDbEntity
  8
0
  6
ByBlock
 62
     0
370
    -2
100
AcDbVertex
100
AcDb2dVertex
 10
5845.506119536958
 20
-2524.121527483079
 30
0.0
  0
VERTEX
  5
6D2
330
636
100
AcDbEntity
  8
0
  6
ByBlock
 62
     0
370
    -2
100
AcDbVertex
100
AcDb2dVertex
 10
5845.597864321061
 20
-2524.075958941312
 30
0.0
  0
VERTEX
  5
6D3
330
636
100
AcDbEntity
  8
0
  6
ByBlock
 62
     0
370
    -2
100
AcDbVertex
100
AcDb2dVertex
 10
5845.687999859401
 20
-2524.027284696203
 30
0.0
  0
VERTEX
  5
6D4
330
636
100
AcDbEntity
  8
0
  6
ByBlock
 62
     0
370
    -2
100
AcDbVertex
100
AcDb2dVertex
 10
5845.776421057973
 20
-2523.975561499745
 30
0.0
  0
VERTEX
  5
6D5
330
636
100
AcDbEntity
  8
0
  6
ByBlock
 62
     0
370
    -2
100
AcDbVertex
100
AcDb2dVertex
 10
5845.863024821615
 20
-2523.920849658869
 30
0.0
  0
VERTEX
  5
6D6
330
636
100
AcDbEntity
  8
0
  6
ByBlock
 62
     0
370
    -2
100
AcDbVertex
100
AcDb2dVertex
 10
5845.947710174212
 20
-2523.863212965136
 30
0.0
  0
VERTEX
  5
6D7
330
636
100
AcDbEntity
  8
0
  6
ByBlock
 62
     0
370
    -2
100
AcDbVertex
100
AcDb2dVertex
 10
5846.030378376431
 20
-2523.802718620353
 30
0.0
  0
VERTEX
  5
6D8
330
636
100
AcDbEntity
  8
0
  6
ByBlock
 62
     0
370
    -2
100
AcDbVertex
100
AcDb2dVertex
 10
5846.110933040845
 20
-2523.739437158219
 30
0.0
  0
VERTEX
  5
6D9
330
636
100
AcDbEntity
  8
0
  6
ByBlock
 62
     0
370
    -2
100
AcDbVertex
100
AcDb2dVertex
 10
5846.189280244322
 20
-2523.673442362087
 30
0.0
  0
VERTEX
  5
6DA
330
636
100
AcDbEntity
  8
0
  6
ByBlock
 62
     0
370
    -2
100
AcDbVertex
100
AcDb2dVertex
 10
5846.265328637523
 20
-2523.60481117894
 30
0.0
  0
VERTEX
  5
6DB
330
636
100
AcDbEntity
  8
0
  6
ByBlock
 62
     0
370
    -2
100
AcDbVertex
100
AcDb2dVertex
 10
5846.338989551427
 20
-2523.533623629665
 30
0.0
  0
VERTEX
  5
6DC
330
636
100
AcDbEntity
  8
0
  6
ByBlock
 62
     0
370
    -2
100
AcDbVertex
100
AcDb2dVertex
 10
5846.410177100702
 20
-2523.459962715761
 30
0.0
  0
VERTEX
  5
6DD
330
636
100
AcDbEntity
  8
0
  6
ByBlock
 62
     0
370
    -2
100
AcDbVertex
100
AcDb2dVertex
 10
5846.47880828385
 20
-2523.383914322559
 30
0.0
  0
VERTEX
  5
6DE
330
636
100
AcDbEntity
  8
0
  6
ByBlock
 62
     0
370
    -2
100
AcDbVertex
100
AcDb2dVertex
 10
5846.544803079981
 20
-2523.305567119083
 30
0.0
  0
VERTEX
  5
6DF
330
636
100
AcDbEntity
  8
0
  6
ByBlock
 62
     0
370
    -2
100
AcDbVertex
100
AcDb2dVertex
 10
5846.608084542115
 20
-2523.225012454669
 30
0.0
  0
VERTEX
  5
6E0
330
636
100
AcDbEntity
  8
0
  6
ByBlock
 62
     0
370
    -2
100
AcDbVertex
100
AcDb2dVertex
 10
5846.668578886899
 20
-2523.14234425245
 30
0.0
  0
VERTEX
  5
6E1
330
636
100
AcDbEntity
  8
0
  6
ByBlock
 62
     0
370
    -2
100
AcDbVertex
100
AcDb2dVertex
 10
5846.726215580631
 20
-2523.057658899853
 30
0.0
  0
VERTEX
  5
6E2
330
636
100
AcDbEntity
  8
0
  6
ByBlock
 62
     0
370
    -2
100
AcDbVertex
100
AcDb2dVertex
 10
5846.780927421507
 20
-2522.971055136211
 30
0.0
  0
VERTEX
  5
6E3
330
636
100
AcDbEntity
  8
0
  6
ByBlock
 62
     0
370
    -2
100
AcDbVertex
100
AcDb2dVertex
 10
5846.832650617966
 20
-2522.882633937639
 30
0.0
  0
VERTEX
  5
6E4
330
636
100
AcDbEntity
  8
0
  6
ByBlock
 62
     0
370
    -2
100
AcDbVertex
100
AcDb2dVertex
 10
5846.881324863075
 20
-2522.792498399299
 30
0.0
  0
VERTEX
  5
6E5
330
636
100
AcDbEntity
  8
0
  6
ByBlock
 62
     0
370
    -2
100
AcDbVertex
100
AcDb2dVertex
 10
5846.926893404841
 20
-2522.700753615195
 30
0.0
  0
VERTEX
  5
6E6
330
636
100
AcDbEntity
  8
0
  6
ByBlock
 62
     0
370
    -2
100
AcDbVertex
100
AcDb2dVertex
 10
5846.969303112383
 20
-2522.607506555644
 30
0.0
  0
VERTEX
  5
6E7
330
636
100
AcDbEntity
  8
0
  6
ByBlock
 62
     0
370
    -2
100
AcDbVertex
100
AcDb2dVertex
 10
5847.008504537881
 20
-2522.512865942545
 30
0.0
  0
VERTEX
  5
6E8
330
636
100
AcDbEntity
  8
0
  6
ByBlock
 62
     0
370
    -2
100
AcDbVertex
100
AcDb2dVertex
 10
5847.044451974224
 20
-2522.416942122618
 30
0.0
  0
VERTEX
  5
6E9
330
636
100
AcDbEntity
  8
0
  6
ByBlock
 62
     0
370
    -2
100
AcDbVertex
100
AcDb2dVertex
 10
5847.07710350831
 20
-2522.319846938748
 30
0.0
  0
VERTEX
  5
6EA
330
636
100
AcDbEntity
  8
0
  6
ByBlock
 62
     0
370
    -2
100
AcDbVertex
100
AcDb2dVertex
 10
5847.106421069911
 20
-2522.221693599576
 30
0.0
  0
VERTEX
  5
6EB
330
636
100
AcDbEntity
  8
0
  6
ByBlock
 62
     0
370
    -2
100
AcDbVertex
100
AcDb2dVertex
 10
5847.132370476062
 20
-2522.122596547505
 30
0.0
  0
VERTEX
  5
6EC
330
636
100
AcDbEntity
  8
0
  6
ByBlock
 62
     0
370
    -2
100
AcDbVertex
100
AcDb2dVertex
 10
5847.154921470915
 20
-2522.022671325263
 30
0.0
  0
VERTEX
  5
6ED
330
636
100
AcDbEntity
  8
0
  6
ByBlock
 62
     0
370
    -2
100
AcDbVertex
100
AcDb2dVertex
 10
5847.174047761019
 20
-2521.922034441191
 30
0.0
  0
VERTEX
  5
6EE
330
636
100
AcDbEntity
  8
0
  6
ByBlock
 62
     0
370
    -2
100
AcDbVertex
100
AcDb2dVertex
 10
5847.189727045977
 20
-2521.820803233394
 30
0.0
  0
VERTEX
  5
6EF
330
636
100
AcDbEntity
  8
0
  6
ByBlock
 62
     0
370
    -2
100
AcDbVertex
100
AcDb2dVertex
 10
5847.201941044442
 20
-2521.719095732931
 30
0.0
  0
VERTEX
  5
6F0
330
636
100
AcDbEntity
  8
0
  6
ByBlock
 62
     0
370
    -2
100
AcDbVertex
100
AcDb2dVertex
 10
5847.210675515439
 20
-2521.617030526199
 30
0.0
  0
VERTEX
  5
6F1
330
636
100
AcDbEntity
  8
0
  6
ByBlock
 62
     0
370
    -2
100
AcDbVertex
100
AcDb2dVertex
 10
5847.215920274966
 20
-2521.514726616663
 30
0.0
  0
VERTEX
  5
6F2
330
636
100
AcDbEntity
  8
0
  6
ByBlock
 62
     0
370
    -2
100
AcDbVertex
100
AcDb2dVertex
 10
5847.217669207867
 20
-2521.412303286105
 30
0.0
  0
SEQEND
  5
6F3
330
636
100
AcDbEntity
  8
0
  6
ByBlock
 62
     0
370
    -2
  0
ENDSEC
  0
SECTION
  2
OBJECTS
  0
DICTIONARY
  5
C
330
0
100
AcDbDictionary
281
     1
  3
ACAD_DETAILVIEWSTYLE
350
739
  3
ACAD_GROUP
350
D
  3
ACAD_LAYOUT
350
1A
  3
ACAD_MATERIAL
350
43
  3
ACAD_MLEADERSTYLE
350
6B
  3
ACAD_MLINESTYLE
350
17
  3
ACAD_PLOTSETTINGS
350
19
  3
ACAD_PLOTSTYLENAME
350
E
  3
ACAD_SCALELIST
350
47
  3
ACAD_SECTIONVIEWSTYLE
350
73A
  3
ACAD_TABLESTYLE
350
69
  3
ACAD_VISUALSTYLE
350
2A
  3
ACDB_RECOMPOSE_DATA
350
736
  3
AcDbVariableDictionary
350
6F6
  0
DICTIONARY
  5
6F4
330
8
100
AcDbDictionary
280
     1
281
     1
  3
ACAD_XREC_ROUNDTRIP
360
6F5
  0
DICTIONARY
  5
739
102
{ACAD_REACTORS
330
C
102
}
330
C
100
AcDbDictionary
281
     1
  0
DICTIONARY
  5
D
102
{ACAD_REACTORS
330
C
102
}
330
C
100
AcDbDictionary
281
     1
  0
DICTIONARY
  5
1A
102
{ACAD_REACTORS
330
C
102
}
330
C
100
AcDbDictionary
281
     1
  3
Layout1
350
1E
  3
Layout2
350
26
  3
Model
350
22
  0
DICTIONARY
  5
43
102
{ACAD_REACTORS
330
C
102
}
330
C
100
AcDbDictionary
281
     1
  3
ByBlock
350
45
  3
ByLayer
350
44
  3
Global
350
46
  0
DICTIONARY
  5
6B
102
{ACAD_REACTORS
330
C
102
}
330
C
100
AcDbDictionary
281
     1
  3
Standard
350
6C
  0
DICTIONARY
  5
17
102
{ACAD_REACTORS
330
C
102
}
330
C
100
AcDbDictionary
281
     1
  3
Standard
350
18
  0
DICTIONARY
  5
19
102
{ACAD_REACTORS
330
C
102
}
330
C
100
AcDbDictionary
281
     1
  0
ACDBDICTIONARYWDFLT
  5
E
102
{ACAD_REACTORS
330
C
102
}
330
C
100
AcDbDictionary
281
     1
  3
Normal
350
F
100
AcDbDictionaryWithDefault
340
F
  0
DICTIONARY
  5
47
102
{ACAD_REACTORS
330
C
102
}
330
C
100
AcDbDictionary
281
     1
  3
A0
350
48
  3
A1
350
49
  3
A2
350
4A
  3
A3
350
4B
  3
A4
350
4C
  3
A5
350
4D
  3
A6
350
4E
  3
A7
350
4F
  3
A8
350
50
  3
A9
350
51
  3
B0
350
52
  3
B1
350
53
  3
B2
350
54
  3
B3
350
55
  3
B4
350
56
  3
B5
350
57
  3
B6
350
58
  3
B7
350
59
  3
B8
350
5A
  3
B9
350
5B
  3
C0
350
5C
  3
C1
350
5D
  3
C2
350
5E
  3
C3
350
5F
  3
C4
350
60
  3
C5
350
61
  3
C6
350
62
  3
C7
350
63
  3
C8
350
64
  3
C9
350
65
  3
D0
350
66
  3
D1
350
67
  3
D2
350
68
  0
DICTIONARY
  5
73A
102
{ACAD_REACTORS
330
C
102
}
330
C
100
AcDbDictionary
281
     1
  0
DICTIONARY
  5
69
102
{ACAD_REACTORS
330
C
102
}
330
C
100
AcDbDictionary
281
     1
  3
Standard
350
6A
  0
DICTIONARY
  5
2A
102
{ACAD_REACTORS
330
C
102
}
330
C
100
AcDbDictionary
281
     1
  3
2dWireframe
350
2F
  3
Basic
350
32
  3
Brighten
350
36
  3
ColorChange
350
3A
  3
Conceptual
350
34
  3
Dim
350
35
  3
EdgeColorOff
350
3D
  3
Facepattern
350
39
  3
Flat
350
2B
  3
FlatWithEdges
350
2C
  3
Gouraud
350
2D
  3
GouraudWithEdges
350
2E
  3
Hidden
350
31
  3
JitterOff
350
3B
  3
Linepattern
350
38
  3
OverhangOff
350
3C
  3
Realistic
350
33
  3
Shaded
350
42
  3
Shaded with edges
350
41
  3
Shades of Gray
350
3E
  3
Sketchy
350
3F
  3
Thicken
350
37
  3
Wireframe
350
30
  3
X-Ray
350
40
  0
XRECORD
  5
736
102
{ACAD_REACTORS
330
C
102
}
330
C
100
AcDbXrecord
280
     1
 90
        1
330
6A
  0
DICTIONARY
  5
6F6
102
{ACAD_REACTORS
330
C
102
}
330
C
100
AcDbDictionary
281
     1
  3
CANNOSCALE
350
6F7
  3
CMLEADERSTYLE
350
738
  3
CTABLESTYLE
350
737
  3
MSLTSCALE
350
6F8
  3
XCLIPFRAME
350
6F9
  0
XRECORD
  5
6F5
102
{ACAD_REACTORS
330
6F4
102
}
330
6F4
100
AcDbXrecord
280
     1
102
VTR_0.000_0.000_1.000_1.000_VISUALSTYLE
340
2F
102
VTR_0.000_0.000_1.000_1.000_GRIDDISPLAY
 70
     3
102
VTR_0.000_0.000_1.000_1.000_GRIDMAJOR
 70
     5
102
VTR_0.000_0.000_1.000_1.000_DEFAULTLIGHTING
280
     1
102
VTR_0.000_0.000_1.000_1.000_DEFAULTLIGHTINGTYPE
 70
     1
102
VTR_0.000_0.000_1.000_1.000_BRIGHTNESS
141
0.0
102
VTR_0.000_0.000_1.000_1.000_CONTRAST
142
0.0
  0
LAYOUT
  5
1E
102
{ACAD_REACTORS
330
1A
102
}
330
1A
100
AcDbPlotSettings
  1

  2
none_device
  4

  6

 40
0.0
 41
0.0
 42
0.0
 43
0.0
 44
0.0
 45
0.0
 46
0.0
 47
0.0
 48
0.0
 49
0.0
140
0.0
141
0.0
142
1.0
143
1.0
 70
   688
 72
     0
 73
     0
 74
     5
  7

 75
    16
 76
     0
 77
     2
 78
   300
147
1.0
148
0.0
149
0.0
100
AcDbLayout
  1
Layout1
 70
     1
 71
     1
 10
0.0
 20
0.0
 11
12.0
 21
9.0
 12
0.0
 22
0.0
 32
0.0
 14
1.000000000000000E+20
 24
1.000000000000000E+20
 34
1.000000000000000E+20
 15
-1.000000000000000E+20
 25
-1.000000000000000E+20
 35
-1.000000000000000E+20
146
0.0
 13
0.0
 23
0.0
 33
0.0
 16
1.0
 26
0.0
 36
0.0
 17
0.0
 27
1.0
 37
0.0
 76
     0
330
1B
  0
LAYOUT
  5
26
102
{ACAD_REACTORS
330
1A
102
}
330
1A
100
AcDbPlotSettings
  1

  2
none_device
  4

  6

 40
0.0
 41
0.0
 42
0.0
 43
0.0
 44
0.0
 45
0.0
 46
0.0
 47
0.0
 48
0.0
 49
0.0
140
0.0
141
0.0
142
1.0
143
1.0
 70
   688
 72
     0
 73
     0
 74
     5
  7

 75
    16
 76
     0
 77
     2
 78
   300
147
1.0
148
0.0
149
0.0
100
AcDbLayout
  1
Layout2
 70
     1
 71
     2
 10
0.0
 20
0.0
 11
0.0
 21
0.0
 12
0.0
 22
0.0
 32
0.0
 14
0.0
 24
0.0
 34
0.0
 15
0.0
 25
0.0
 35
0.0
146
0.0
 13
0.0
 23
0.0
 33
0.0
 16
1.0
 26
0.0
 36
0.0
 17
0.0
 27
1.0
 37
0.0
 76
     0
330
23
  0
LAYOUT
  5
22
102
{ACAD_REACTORS
330
1A
102
}
330
1A
100
AcDbPlotSettings
  1

  2
none_device
  4
Letter_(8.50_x_11.00_Inches)
  6

 40
6.35
 41
6.35
 42
6.35000508
 43
6.35000508
 44
215.9
 45
279.4
 46
0.0
 47
0.0
 48
0.0
 49
0.0
140
0.0
141
0.0
142
1.0
143
1.0
 70
  1712
 72
     0
 73
     0
 74
     0
  7

 75
     0
 76
     0
 77
     2
 78
   300
147
1.0
148
0.0
149
0.0
100
AcDbLayout
  1
Model
 70
     1
 71
     0
 10
0.0
 20
0.0
 11
12.0
 21
9.0
 12
0.0
 22
0.0
 32
0.0
 14
1.000000000000000E+20
 24
1.000000000000000E+20
 34
1.000000000000000E+20
 15
-1.000000000000000E+20
 25
-1.000000000000000E+20
 35
-1.000000000000000E+20
146
0.0
 13
0.0
 23
0.0
 33
0.0
 16
1.0
 26
0.0
 36
0.0
 17
0.0
 27
1.0
 37
0.0
 76
     0
330
1F
331
29
  0
MATERIAL
  5
45
102
{ACAD_REACTORS
330
43
102
}
102
{ACAD_XDICTIONARY
360
72C
102
}
330
43
100
AcDbMaterial
  1
ByBlock
  0
MATERIAL
  5
44
102
{ACAD_REACTORS
330
43
102
}
102
{ACAD_XDICTIONARY
360
72A
102
}
330
43
100
AcDbMaterial
  1
ByLayer
  0
MATERIAL
  5
46
102
{ACAD_REACTORS
330
43
102
}
102
{ACAD_XDICTIONARY
360
72E
102
}
330
43
100
AcDbMaterial
  1
Global
  0
MLEADERSTYLE
  5
6C
102
{ACAD_REACTORS
330
6B
102
}
102
{ACAD_XDICTIONARY
360
734
102
}
330
6B
100
AcDbMLeaderStyle
170
     2
171
     1
172
     0
 90
        2
 40
0.0
 41
0.0
173
     1
 91
-1056964608
340
14
 92
       -2
290
     1
 42
0.09
291
     1
 43
0.36
  3
Standard
341
0
 44
0.18
300

342
11
174
     1
178
     6
175
     1
176
     0
 93
-1056964608
 45
0.18
292
     0
297
     0
 46
0.18
343
0
 94
-1056964608
 47
1.0
 49
1.0
140
1.0
293
     1
141
0.0
294
     1
177
     0
142
1.0
295
     0
296
     0
143
0.125
1001
ACAD_MLEADERVER
1070
     2
  0
MLINESTYLE
  5
18
102
{ACAD_REACTORS
330
17
102
}
330
17
100
AcDbMlineStyle
  2
Standard
 70
     0
  3

 62
   256
 51
90.0
 52
90.0
 71
     2
 49
0.5
 62
   256
  6
BYLAYER
 49
-0.5
 62
   256
  6
BYLAYER
  0
ACDBPLACEHOLDER
  5
F
102
{ACAD_REACTORS
330
E
102
}
330
E
  0
SCALE
  5
48
102
{ACAD_REACTORS
330
47
102
}
330
47
100
AcDbScale
 70
     0
300
1:1
140
1.0
141
1.0
290
     1
  0
SCALE
  5
49
102
{ACAD_REACTORS
330
47
102
}
330
47
100
AcDbScale
 70
     0
300
1:2
140
1.0
141
2.0
290
     0
  0
SCALE
  5
4A
102
{ACAD_REACTORS
330
47
102
}
330
47
100
AcDbScale
 70
     0
300
1:4
140
1.0
141
4.0
290
     0
  0
SCALE
  5
4B
102
{ACAD_REACTORS
330
47
102
}
330
47
100
AcDbScale
 70
     0
300
1:5
140
1.0
141
5.0
290
     0
  0
SCALE
  5
4C
102
{ACAD_REACTORS
330
47
102
}
330
47
100
AcDbScale
 70
     0
300
1:8
140
1.0
141
8.0
290
     0
  0
SCALE
  5
4D
102
{ACAD_REACTORS
330
47
102
}
330
47
100
AcDbScale
 70
     0
300
1:10
140
1.0
141
10.0
290
     0
  0
SCALE
  5
4E
102
{ACAD_REACTORS
330
47
102
}
330
47
100
AcDbScale
 70
     0
300
1:16
140
1.0
141
16.0
290
     0
  0
SCALE
  5
4F
102
{ACAD_REACTORS
330
47
102
}
330
47
100
AcDbScale
 70
     0
300
1:20
140
1.0
141
20.0
290
     0
  0
SCALE
  5
50
102
{ACAD_REACTORS
330
47
102
}
330
47
100
AcDbScale
 70
     0
300
1:30
140
1.0
141
30.0
290
     0
  0
SCALE
  5
51
102
{ACAD_REACTORS
330
47
102
}
330
47
100
AcDbScale
 70
     0
300
1:40
140
1.0
141
40.0
290
     0
  0
SCALE
  5
52
102
{ACAD_REACTORS
330
47
102
}
330
47
100
AcDbScale
 70
     0
300
1:50
140
1.0
141
50.0
290
     0
  0
SCALE
  5
53
102
{ACAD_REACTORS
330
47
102
}
330
47
100
AcDbScale
 70
     0
300
1:100
140
1.0
141
100.0
290
     0
  0
SCALE
  5
54
102
{ACAD_REACTORS
330
47
102
}
330
47
100
AcDbScale
 70
     0
300
2:1
140
2.0
141
1.0
290
     0
  0
SCALE
  5
55
102
{ACAD_REACTORS
330
47
102
}
330
47
100
AcDbScale
 70
     0
300
4:1
140
4.0
141
1.0
290
     0
  0
SCALE
  5
56
102
{ACAD_REACTORS
330
47
102
}
330
47
100
AcDbScale
 70
     0
300
8:1
140
8.0
141
1.0
290
     0
  0
SCALE
  5
57
102
{ACAD_REACTORS
330
47
102
}
330
47
100
AcDbScale
 70
     0
300
10:1
140
10.0
141
1.0
290
     0
  0
SCALE
  5
58
102
{ACAD_REACTORS
330
47
102
}
330
47
100
AcDbScale
 70
     0
300
100:1
140
100.0
141
1.0
290
     0
  0
SCALE
  5
59
102
{ACAD_REACTORS
330
47
102
}
330
47
100
AcDbScale
 70
     0
300
1/128" = 1'-0"
140
0.0078125
141
12.0
290
     0
  0
SCALE
  5
5A
102
{ACAD_REACTORS
330
47
102
}
330
47
100
AcDbScale
 70
     0
300
1/64" = 1'-0"
140
0.015625
141
12.0
290
     0
  0
SCALE
  5
5B
102
{ACAD_REACTORS
330
47
102
}
330
47
100
AcDbScale
 70
     0
300
1/32" = 1'-0"
140
0.03125
141
12.0
290
     0
  0
SCALE
  5
5C
102
{ACAD_REACTORS
330
47
102
}
330
47
100
AcDbScale
 70
     0
300
1/16" = 1'-0"
140
0.0625
141
12.0
290
     0
  0
SCALE
  5
5D
102
{ACAD_REACTORS
330
47
102
}
330
47
100
AcDbScale
 70
     0
300
3/32" = 1'-0"
140
0.09375
141
12.0
290
     0
  0
SCALE
  5
5E
102
{ACAD_REACTORS
330
47
102
}
330
47
100
AcDbScale
 70
     0
300
1/8" = 1'-0"
140
0.125
141
12.0
290
     0
  0
SCALE
  5
5F
102
{ACAD_REACTORS
330
47
102
}
330
47
100
AcDbScale
 70
     0
300
3/16" = 1'-0"
140
0.1875
141
12.0
290
     0
  0
SCALE
  5
60
102
{ACAD_REACTORS
330
47
102
}
330
47
100
AcDbScale
 70
     0
300
1/4" = 1'-0"
140
0.25
141
12.0
290
     0
  0
SCALE
  5
61
102
{ACAD_REACTORS
330
47
102
}
330
47
100
AcDbScale
 70
     0
300
3/8" = 1'-0"
140
0.375
141
12.0
290
     0
  0
SCALE
  5
62
102
{ACAD_REACTORS
330
47
102
}
330
47
100
AcDbScale
 70
     0
300
1/2" = 1'-0"
140
0.5
141
12.0
290
     0
  0
SCALE
  5
63
102
{ACAD_REACTORS
330
47
102
}
330
47
100
AcDbScale
 70
     0
300
3/4" = 1'-0"
140
0.75
141
12.0
290
     0
  0
SCALE
  5
64
102
{ACAD_REACTORS
330
47
102
}
330
47
100
AcDbScale
 70
     0
300
1" = 1'-0"
140
1.0
141
12.0
290
     0
  0
SCALE
  5
65
102
{ACAD_REACTORS
330
47
102
}
330
47
100
AcDbScale
 70
     0
300
1-1/2" = 1'-0"
140
1.5
141
12.0
290
     0
  0
SCALE
  5
66
102
{ACAD_REACTORS
330
47
102
}
330
47
100
AcDbScale
 70
     0
300
3" = 1'-0"
140
3.0
141
12.0
290
     0
  0
SCALE
  5
67
102
{ACAD_REACTORS
330
47
102
}
330
47
100
AcDbScale
 70
     0
300
6" = 1'-0"
140
6.0
141
12.0
290
     0
  0
SCALE
  5
68
102
{ACAD_REACTORS
330
47
102
}
330
47
100
AcDbScale
 70
     0
300
1'-0" = 1'-0"
140
12.0
141
12.0
290
     0
  0
TABLESTYLE
  5
6A
102
{ACAD_REACTORS
330
69
102
}
102
{ACAD_XDICTIONARY
360
730
102
}
330
69
100
AcDbTableStyle
  3
Standard
 70
     0
 71
     0
 40
0.06
 41
0.06
280
     0
281
     0
  7
Standard
140
0.18
170
     2
 62
     0
 63
   257
283
     0
274
    -2
284
     1
 64
     0
275
    -2
285
     1
 65
     0
276
    -2
286
     1
 66
     0
277
    -2
287
     1
 67
     0
278
    -2
288
     1
 68
     0
279
    -2
289
     1
 69
     0
  7
Standard
140
0.25
170
     5
 62
     0
 63
   257
283
     0
274
    -2
284
     1
 64
     0
275
    -2
285
     1
 65
     0
276
    -2
286
     1
 66
     0
277
    -2
287
     1
 67
     0
278
    -2
288
     1
 68
     0
279
    -2
289
     1
 69
     0
  7
Standard
140
0.18
170
     5
 62
     0
 63
   257
283
     0
274
    -2
284
     1
 64
     0
275
    -2
285
     1
 65
     0
276
    -2
286
     1
 66
     0
277
    -2
287
     1
 67
     0
278
    -2
288
     1
 68
     0
279
    -2
289
     1
 69
     0
  0
VISUALSTYLE
  5
2F
102
{ACAD_REACTORS
330
2A
102
}
102
{ACAD_XDICTIONARY
360
702
102
}
330
2A
100
AcDbVisualStyle
  2
2dWireframe
 70
     4
 71
     0
 72
     2
 73
     0
 90
        0
 40
0.6
 41
30.0
 62
     5
 63
     7
421
 16777215
 74
     1
 91
        4
 64
     7
 65
   257
 75
     1
175
     1
 42
1.0
 92
        0
 66
   257
 43
1.0
 76
     1
 77
     6
 78
     2
 67
     7
 79
     5
170
     0
171
     0
290
     0
174
     0
 93
        1
 44
0.0
173
     0
291
     0
 45
0.0
1001
ACAD
1000
AcDbSavedByObjectVersion
1070
     0
  0
VISUALSTYLE
  5
32
102
{ACAD_REACTORS
330
2A
102
}
102
{ACAD_XDICTIONARY
360
708
102
}
330
2A
100
AcDbVisualStyle
  2
Basic
 70
     7
 71
     1
 72
     0
 73
     1
 90
        0
 40
0.6
 41
30.0
 62
     5
 63
     7
421
 16777215
 74
     0
 91
        4
 64
     7
 65
   257
 75
     1
175
     1
 42
1.0
 92
        8
 66
     7
 43
1.0
 76
     1
 77
     6
 78
     2
 67
     7
 79
     5
170
     0
171
     0
290
     0
174
     0
 93
        1
 44
0.0
173
     0
291
     1
 45
0.0
1001
ACAD
1000
AcDbSavedByObjectVersion
1070
     0
  0
VISUALSTYLE
  5
36
102
{ACAD_REACTORS
330
2A
102
}
102
{ACAD_XDICTIONARY
360
710
102
}
330
2A
100
AcDbVisualStyle
  2
Brighten
 70
    12
 71
     2
 72
     2
 73
     0
 90
        0
 40
0.6
 41
30.0
 62
     5
 63
     7
421
 16777215
 74
     1
 91
        4
 64
     7
 65
   257
 75
     1
175
     1
 42
1.0
 92
        8
 66
     7
 43
1.0
 76
     1
 77
     6
 78
     2
 67
     7
 79
     5
170
     0
171
     0
290
     0
174
     0
 93
        1
 44
50.0
173
     0
291
     1
 45
0.0
1001
ACAD
1000
AcDbSavedByObjectVersion
1070
     0
  0
VISUALSTYLE
  5
3A
102
{ACAD_REACTORS
330
2A
102
}
102
{ACAD_XDICTIONARY
360
718
102
}
330
2A
100
AcDbVisualStyle
  2
ColorChange
 70
    16
 71
     2
 72
     2
 73
     3
 90
        0
 40
0.6
 41
30.0
 62
     5
 63
     8
421
  8421504
 74
     1
 91
        4
 64
     7
 65
   257
 75
     1
175
     1
 42
1.0
 92
        8
 66
     8
424
  8421504
 43
1.0
 76
     1
 77
     6
 78
     2
 67
     7
 79
     5
170
     0
171
     0
290
     0
174
     0
 93
        1
 44
0.0
173
     0
291
     1
 45
0.0
1001
ACAD
1000
AcDbSavedByObjectVersion
1070
     0
  0
VISUALSTYLE
  5
34
102
{ACAD_REACTORS
330
2A
102
}
102
{ACAD_XDICTIONARY
360
70C
102
}
330
2A
100
AcDbVisualStyle
  2
Conceptual
 70
     9
 71
     3
 72
     2
 73
     0
 90
        0
 40
0.6
 41
30.0
 62
     5
 63
     7
421
 16777215
 74
     2
 91
        2
 64
     7
 65
   257
 75
     1
175
     1
 42
179.0
 92
        8
 66
     7
 43
1.0
 76
     1
 77
     6
 78
     2
 67
     7
 79
     3
170
     0
171
     0
290
     0
174
     0
 93
        1
 44
0.0
173
     0
291
     0
 45
0.0
1001
ACAD
1000
AcDbSavedByObjectVersion
1070
     0
  0
VISUALSTYLE
  5
35
102
{ACAD_REACTORS
330
2A
102
}
102
{ACAD_XDICTIONARY
360
70E
102
}
330
2A
100
AcDbVisualStyle
  2
Dim
 70
    11
 71
     2
 72
     2
 73
     0
 90
        0
 40
0.6
 41
30.0
 62
     5
 63
     7
421
 16777215
 74
     1
 91
        4
 64
     7
 65
   257
 75
     1
175
     1
 42
1.0
 92
        8
 66
     7
 43
1.0
 76
     1
 77
     6
 78
     2
 67
     7
 79
     5
170
     0
171
     0
290
     0
174
     0
 93
        1
 44
-50.0
173
     0
291
     1
 45
0.0
1001
ACAD
1000
AcDbSavedByObjectVersion
1070
     0
  0
VISUALSTYLE
  5
3D
102
{ACAD_REACTORS
330
2A
102
}
102
{ACAD_XDICTIONARY
360
71E
102
}
330
2A
100
AcDbVisualStyle
  2
EdgeColorOff
 70
    22
 71
     2
 72
     2
 73
     0
 90
        0
 40
0.6
 41
30.0
 62
     5
 63
     7
421
 16777215
 74
     1
 91
        4
 64
     7
 65
   257
 75
     1
175
     1
 42
1.0
 92
        8
 66
     7
 43
1.0
 76
     1
 77
     6
 78
     2
 67
     7
 79
     5
170
     0
171
     0
290
     0
174
     0
 93
        1
 44
0.0
173
     0
291
     1
 45
0.0
1001
ACAD
1000
AcDbSavedByObjectVersion
1070
     0
  0
VISUALSTYLE
  5
39
102
{ACAD_REACTORS
330
2A
102
}
102
{ACAD_XDICTIONARY
360
716
102
}
330
2A
100
AcDbVisualStyle
  2
Facepattern
 70
    15
 71
     2
 72
     2
 73
     0
 90
        0
 40
0.6
 41
30.0
 62
     5
 63
     7
421
 16777215
 74
     1
 91
        4
 64
     7
 65
   257
 75
     1
175
     1
 42
1.0
 92
        8
 66
     7
 43
1.0
 76
     1
 77
     6
 78
     2
 67
     7
 79
     5
170
     0
171
     0
290
     0
174
     0
 93
        1
 44
0.0
173
     0
291
     1
 45
0.0
1001
ACAD
1000
AcDbSavedByObjectVersion
1070
     0
  0
VISUALSTYLE
  5
2B
102
{ACAD_REACTORS
330
2A
102
}
102
{ACAD_XDICTIONARY
360
6FA
102
}
330
2A
100
AcDbVisualStyle
  2
Flat
 70
     0
 71
     2
 72
     1
 73
     1
 90
        2
 40
0.6
 41
30.0
 62
     5
 63
     7
421
 16777215
 74
     0
 91
        0
 64
     7
 65
   257
 75
     1
175
     1
 42
1.0
 92
        8
 66
     7
 43
1.0
 76
     1
 77
     6
 78
     2
 67
     7
 79
     5
170
     0
171
     0
290
     0
174
     0
 93
       13
 44
0.0
173
     0
291
     1
 45
0.0
1001
ACAD
1000
AcDbSavedByObjectVersion
1070
     0
  0
VISUALSTYLE
  5
2C
102
{ACAD_REACTORS
330
2A
102
}
102
{ACAD_XDICTIONARY
360
6FC
102
}
330
2A
100
AcDbVisualStyle
  2
FlatWithEdges
 70
     1
 71
     2
 72
     1
 73
     1
 90
        2
 40
0.6
 41
30.0
 62
     5
 63
     7
421
 16777215
 74
     1
 91
        0
 64
     7
 65
   257
 75
     1
175
     1
 42
1.0
 92
        0
 66
   257
 43
1.0
 76
     1
 77
     6
 78
     2
 67
     7
 79
     5
170
     0
171
     0
290
     0
174
     0
 93
       13
 44
0.0
173
     0
291
     1
 45
0.0
1001
ACAD
1000
AcDbSavedByObjectVersion
1070
     0
  0
VISUALSTYLE
  5
2D
102
{ACAD_REACTORS
330
2A
102
}
102
{ACAD_XDICTIONARY
360
6FE
102
}
330
2A
100
AcDbVisualStyle
  2
Gouraud
 70
     2
 71
     2
 72
     2
 73
     1
 90
        2
 40
0.6
 41
30.0
 62
     5
 63
     7
421
 16777215
 74
     0
 91
        0
 64
     7
 65
   257
 75
     1
175
     1
 42
1.0
 92
        0
 66
     7
 43
1.0
 76
     1
 77
     6
 78
     2
 67
     7
 79
     5
170
     0
171
     0
290
     0
174
     0
 93
       13
 44
0.0
173
     0
291
     1
 45
0.0
1001
ACAD
1000
AcDbSavedByObjectVersion
1070
     0
  0
VISUALSTYLE
  5
2E
102
{ACAD_REACTORS
330
2A
102
}
102
{ACAD_XDICTIONARY
360
700
102
}
330
2A
100
AcDbVisualStyle
  2
GouraudWithEdges
 70
     3
 71
     2
 72
     2
 73
     1
 90
        2
 40
0.6
 41
30.0
 62
     5
 63
     7
421
 16777215
 74
     1
 91
        0
 64
     7
 65
   257
 75
     1
175
     1
 42
1.0
 92
        0
 66
   257
 43
1.0
 76
     1
 77
     6
 78
     2
 67
     7
 79
     5
170
     0
171
     0
290
     0
174
     0
 93
       13
 44
0.0
173
     0
291
     1
 45
0.0
1001
ACAD
1000
AcDbSavedByObjectVersion
1070
     0
  0
VISUALSTYLE
  5
31
102
{ACAD_REACTORS
330
2A
102
}
102
{ACAD_XDICTIONARY
360
706
102
}
330
2A
100
AcDbVisualStyle
  2
Hidden
 70
     6
 71
     1
 72
     2
 73
     2
 90
        0
 40
0.6
 41
30.0
 62
     5
 63
     7
421
 16777215
 74
     2
 91
        2
 64
     7
 65
   257
 75
     2
175
     1
 42
40.0
 92
        0
 66
   257
 43
1.0
 76
     1
 77
     6
 78
     2
 67
     7
 79
     3
170
     0
171
     0
290
     0
174
     0
 93
        1
 44
0.0
173
     0
291
     0
 45
0.0
1001
ACAD
1000
AcDbSavedByObjectVersion
1070
     0
  0
VISUALSTYLE
  5
3B
102
{ACAD_REACTORS
330
2A
102
}
102
{ACAD_XDICTIONARY
360
71A
102
}
330
2A
100
AcDbVisualStyle
  2
JitterOff
 70
    20
 71
     2
 72
     2
 73
     0
 90
        0
 40
0.6
 41
30.0
 62
     5
 63
     7
421
 16777215
 74
     1
 91
        4
 64
     7
 65
   257
 75
     1
175
     1
 42
1.0
 92
       10
 66
     7
 43
1.0
 76
     1
 77
     6
 78
     2
 67
     7
 79
     5
170
     0
171
     0
290
     0
174
     0
 93
        1
 44
0.0
173
     0
291
     1
 45
0.0
1001
ACAD
1000
AcDbSavedByObjectVersion
1070
     0
  0
VISUALSTYLE
  5
38
102
{ACAD_REACTORS
330
2A
102
}
102
{ACAD_XDICTIONARY
360
714
102
}
330
2A
100
AcDbVisualStyle
  2
Linepattern
 70
    14
 71
     2
 72
     2
 73
     0
 90
        0
 40
0.6
 41
30.0
 62
     5
 63
     7
421
 16777215
 74
     1
 91
        4
 64
     7
 65
   257
 75
     7
175
     7
 42
1.0
 92
        8
 66
     7
 43
1.0
 76
     1
 77
     6
 78
     2
 67
     7
 79
     5
170
     0
171
     0
290
     0
174
     0
 93
        1
 44
0.0
173
     0
291
     1
 45
0.0
1001
ACAD
1000
AcDbSavedByObjectVersion
1070
     0
  0
VISUALSTYLE
  5
3C
102
{ACAD_REACTORS
330
2A
102
}
102
{ACAD_XDICTIONARY
360
71C
102
}
330
2A
100
AcDbVisualStyle
  2
OverhangOff
 70
    21
 71
     2
 72
     2
 73
     0
 90
        0
 40
0.6
 41
30.0
 62
     5
 63
     7
421
 16777215
 74
     1
 91
        4
 64
     7
 65
   257
 75
     1
175
     1
 42
1.0
 92
        9
 66
     7
 43
1.0
 76
     1
 77
     6
 78
     2
 67
     7
 79
     5
170
     0
171
     0
290
     0
174
     0
 93
        1
 44
0.0
173
     0
291
     1
 45
0.0
1001
ACAD
1000
AcDbSavedByObjectVersion
1070
     0
  0
VISUALSTYLE
  5
33
102
{ACAD_REACTORS
330
2A
102
}
102
{ACAD_XDICTIONARY
360
70A
102
}
330
2A
100
AcDbVisualStyle
  2
Realistic
 70
     8
 71
     2
 72
     3
 73
     0
 90
        2
 40
0.6
 41
30.0
 62
     5
 63
     7
421
 16777215
 74
     0
 91
        0
 64
     7
 65
   257
 75
     1
175
     1
 42
1.0
 92
        8
 66
   257
 43
1.0
 76
     1
 77
     6
 78
     2
 67
     7
 79
     3
170
     0
171
     0
290
     0
174
     0
 93
       13
 44
0.0
173
     0
291
     0
 45
0.0
1001
ACAD
1000
AcDbSavedByObjectVersion
1070
     0
  0
VISUALSTYLE
  5
42
102
{ACAD_REACTORS
330
2A
102
}
102
{ACAD_XDICTIONARY
360
728
102
}
330
2A
100
AcDbVisualStyle
  2
Shaded
 70
    27
 71
     2
 72
     2
 73
     1
 90
        2
 40
0.6
 41
30.0
 62
     5
 63
     7
421
 16777215
 74
     0
 91
        4
 64
     7
 65
   257
 75
     1
175
     1
 42
1.0
 92
        8
 66
   257
 43
1.0
 76
     1
 77
     6
 78
     2
 67
     8
425
  7895160
 79
     3
170
     0
171
     0
290
     0
174
     0
 93
        5
 44
0.0
173
     0
291
     0
 45
0.0
1001
ACAD
1000
AcDbSavedByObjectVersion
1070
     0
  0
VISUALSTYLE
  5
41
102
{ACAD_REACTORS
330
2A
102
}
102
{ACAD_XDICTIONARY
360
726
102
}
330
2A
100
AcDbVisualStyle
  2
Shaded with edges
 70
    26
 71
     2
 72
     2
 73
     1
 90
        2
 40
0.6
 41
30.0
 62
     5
 63
     7
421
 16777215
 74
     1
 91
       10
 64
     7
 65
   257
 75
     2
175
     1
 42
1.0
 92
        8
 66
   257
 43
1.0
 76
     1
 77
     6
 78
     2
 67
     7
 79
     3
170
     0
171
     0
290
     0
174
     0
 93
        5
 44
0.0
173
     0
291
     0
 45
0.0
1001
ACAD
1000
AcDbSavedByObjectVersion
1070
     0
  0
VISUALSTYLE
  5
3E
102
{ACAD_REACTORS
330
2A
102
}
102
{ACAD_XDICTIONARY
360
720
102
}
330
2A
100
AcDbVisualStyle
  2
Shades of Gray
 70
    23
 71
     2
 72
     2
 73
     3
 90
        0
 40
0.6
 41
30.0
 62
     5
 63
     7
421
 16777215
 74
     2
 91
        2
 64
     7
 65
     7
 75
     1
175
     1
 42
40.0
 92
        8
 66
     7
 43
1.0
 76
     1
 77
     6
 78
     2
 67
     7
 79
     3
170
     0
171
     0
290
     0
174
     0
 93
        1
 44
0.0
173
     0
291
     0
 45
0.0
1001
ACAD
1000
AcDbSavedByObjectVersion
1070
     0
  0
VISUALSTYLE
  5
3F
102
{ACAD_REACTORS
330
2A
102
}
102
{ACAD_XDICTIONARY
360
722
102
}
330
2A
100
AcDbVisualStyle
  2
Sketchy
 70
    24
 71
     1
 72
     2
 73
     2
 90
        0
 40
0.6
 41
30.0
 62
     5
 63
     7
421
 16777215
 74
     2
 91
        2
 64
     7
 65
     7
 75
     1
175
     1
 42
40.0
 92
       11
 66
     7
 43
1.0
 76
     1
 77
     6
 78
     2
 67
     7
 79
     6
170
     0
171
     0
290
     0
174
     0
 93
        1
 44
0.0
173
     0
291
     0
 45
0.0
1001
ACAD
1000
AcDbSavedByObjectVersion
1070
     0
  0
VISUALSTYLE
  5
37
102
{ACAD_REACTORS
330
2A
102
}
102
{ACAD_XDICTIONARY
360
712
102
}
330
2A
100
AcDbVisualStyle
  2
Thicken
 70
    13
 71
     2
 72
     2
 73
     0
 90
        0
 40
0.6
 41
30.0
 62
     5
 63
     7
421
 16777215
 74
     1
 91
        4
 64
     7
 65
   257
 75
     1
175
     1
 42
1.0
 92
       12
 66
     7
 43
1.0
 76
     1
 77
     6
 78
     2
 67
     7
 79
     5
170
     0
171
     0
290
     0
174
     0
 93
        1
 44
0.0
173
     0
291
     1
 45
0.0
1001
ACAD
1000
AcDbSavedByObjectVersion
1070
     0
  0
VISUALSTYLE
  5
30
102
{ACAD_REACTORS
330
2A
102
}
102
{ACAD_XDICTIONARY
360
704
102
}
330
2A
100
AcDbVisualStyle
  2
Wireframe
 70
     5
 71
     0
 72
     2
 73
     0
 90
        0
 40
0.6
 41
30.0
 62
     5
 63
     7
421
 16777215
 74
     1
 91
        4
 64
     7
 65
   257
 75
     1
175
     1
 42
1.0
 92
        0
 66
   257
 43
1.0
 76
     1
 77
     6
 78
     2
 67
     7
 79
     3
170
     0
171
     0
290
     0
174
     0
 93
        1
 44
0.0
173
     0
291
     0
 45
0.0
1001
ACAD
1000
AcDbSavedByObjectVersion
1070
     0
  0
VISUALSTYLE
  5
40
102
{ACAD_REACTORS
330
2A
102
}
102
{ACAD_XDICTIONARY
360
724
102
}
330
2A
100
AcDbVisualStyle
  2
X-Ray
 70
    25
 71
     2
 72
     2
 73
     1
 90
        1
 40
0.5
 41
30.0
 62
     5
 63
     7
421
 16777215
 74
     1
 91
        0
 64
     7
 65
   257
 75
     1
175
     1
 42
1.0
 92
        8
 66
     7
 43
1.0
 76
     1
 77
     6
 78
     2
 67
     7
 79
     3
170
     0
171
     0
290
     0
174
     0
 93
       13
 44
0.0
173
     0
291
     0
 45
0.0
1001
ACAD
1000
AcDbSavedByObjectVersion
1070
     0
  0
DICTIONARYVAR
  5
6F7
102
{ACAD_REACTORS
330
6F6
102
}
330
6F6
100
DictionaryVariables
280
     0
  1
1:1
  0
DICTIONARYVAR
  5
738
102
{ACAD_REACTORS
330
6F6
102
}
330
6F6
100
DictionaryVariables
280
     0
  1
Standard
  0
DICTIONARYVAR
  5
737
102
{ACAD_REACTORS
330
6F6
102
}
330
6F6
100
DictionaryVariables
280
     0
  1
Standard
  0
DICTIONARYVAR
  5
6F8
102
{ACAD_REACTORS
330
6F6
102
}
330
6F6
100
DictionaryVariables
280
     0
  1
1
  0
DICTIONARYVAR
  5
6F9
102
{ACAD_REACTORS
330
6F6
102
}
330
6F6
100
DictionaryVariables
280
     0
  1
2
  0
DICTIONARY
  5
72C
330
45
100
AcDbDictionary
280
     1
281
     1
  3
ACAD_XREC_ROUNDTRIP
360
72D
  0
DICTIONARY
  5
72A
330
44
100
AcDbDictionary
280
     1
281
     1
  3
ACAD_XREC_ROUNDTRIP
360
72B
  0
DICTIONARY
  5
72E
330
46
100
AcDbDictionary
280
     1
281
     1
  3
ACAD_XREC_ROUNDTRIP
360
72F
  0
DICTIONARY
  5
734
330
6C
100
AcDbDictionary
280
     1
281
     1
  3
ACAD_XREC_ROUNDTRIP
360
735
  0
DICTIONARY
  5
730
330
6A
100
AcDbDictionary
280
     1
281
     1
  3
ACAD_ROUNDTRIP_2008_TABLESTYLE_CELLSTYLEMAP
360
732
  3
ACAD_XREC_ROUNDTRIP
360
731
  0
DICTIONARY
  5
702
330
2F
100
AcDbDictionary
280
     1
281
     1
  3
ACAD_XREC_ROUNDTRIP
360
703
  0
DICTIONARY
  5
708
330
32
100
AcDbDictionary
280
     1
281
     1
  3
ACAD_XREC_ROUNDTRIP
360
709
  0
DICTIONARY
  5
710
330
36
100
AcDbDictionary
280
     1
281
     1
  3
ACAD_XREC_ROUNDTRIP
360
711
  0
DICTIONARY
  5
718
330
3A
100
AcDbDictionary
280
     1
281
     1
  3
ACAD_XREC_ROUNDTRIP
360
719
  0
DICTIONARY
  5
70C
330
34
100
AcDbDictionary
280
     1
281
     1
  3
ACAD_XREC_ROUNDTRIP
360
70D
  0
DICTIONARY
  5
70E
330
35
100
AcDbDictionary
280
     1
281
     1
  3
ACAD_XREC_ROUNDTRIP
360
70F
  0
DICTIONARY
  5
71E
330
3D
100
AcDbDictionary
280
     1
281
     1
  3
ACAD_XREC_ROUNDTRIP
360
71F
  0
DICTIONARY
  5
716
330
39
100
AcDbDictionary
280
     1
281
     1
  3
ACAD_XREC_ROUNDTRIP
360
717
  0
DICTIONARY
  5
6FA
330
2B
100
AcDbDictionary
280
     1
281
     1
  3
ACAD_XREC_ROUNDTRIP
360
6FB
  0
DICTIONARY
  5
6FC
330
2C
100
AcDbDictionary
280
     1
281
     1
  3
ACAD_XREC_ROUNDTRIP
360
6FD
  0
DICTIONARY
  5
6FE
330
2D
100
AcDbDictionary
280
     1
281
     1
  3
ACAD_XREC_ROUNDTRIP
360
6FF
  0
DICTIONARY
  5
700
330
2E
100
AcDbDictionary
280
     1
281
     1
  3
ACAD_XREC_ROUNDTRIP
360
701
  0
DICTIONARY
  5
706
330
31
100
AcDbDictionary
280
     1
281
     1
  3
ACAD_XREC_ROUNDTRIP
360
707
  0
DICTIONARY
  5
71A
330
3B
100
AcDbDictionary
280
     1
281
     1
  3
ACAD_XREC_ROUNDTRIP
360
71B
  0
DICTIONARY
  5
714
330
38
100
AcDbDictionary
280
     1
281
     1
  3
ACAD_XREC_ROUNDTRIP
360
715
  0
DICTIONARY
  5
71C
330
3C
100
AcDbDictionary
280
     1
281
     1
  3
ACAD_XREC_ROUNDTRIP
360
71D
  0
DICTIONARY
  5
70A
330
33
100
AcDbDictionary
280
     1
281
     1
  3
ACAD_XREC_ROUNDTRIP
360
70B
  0
DICTIONARY
  5
728
330
42
100
AcDbDictionary
280
     1
281
     1
  3
ACAD_XREC_ROUNDTRIP
360
729
  0
DICTIONARY
  5
726
330
41
100
AcDbDictionary
280
     1
281
     1
  3
ACAD_XREC_ROUNDTRIP
360
727
  0
DICTIONARY
  5
720
330
3E
100
AcDbDictionary
280
     1
281
     1
  3
ACAD_XREC_ROUNDTRIP
360
721
  0
DICTIONARY
  5
722
330
3F
100
AcDbDictionary
280
     1
281
     1
  3
ACAD_XREC_ROUNDTRIP
360
723
  0
DICTIONARY
  5
712
330
37
100
AcDbDictionary
280
     1
281
     1
  3
ACAD_XREC_ROUNDTRIP
360
713
  0
DICTIONARY
  5
704
330
30
100
AcDbDictionary
280
     1
281
     1
  3
ACAD_XREC_ROUNDTRIP
360
705
  0
DICTIONARY
  5
724
330
40
100
AcDbDictionary
280
     1
281
     1
  3
ACAD_XREC_ROUNDTRIP
360
725
  0
XRECORD
  5
72D
102
{ACAD_REACTORS
330
72C
102
}
330
72C
100
AcDbXrecord
280
     1
102
MATERIAL
148
0.0
149
0.0
149
0.0
 93
        0
 94
      127
282
     0
 72
     1
 77
     1
171
     1
175
     1
179
     1
273
     0
  0
XRECORD
  5
72B
102
{ACAD_REACTORS
330
72A
102
}
330
72A
100
AcDbXrecord
280
     1
102
MATERIAL
148
0.0
149
0.0
149
0.0
 93
        0
 94
      127
282
     0
 72
     1
 77
     1
171
     1
175
     1
179
     1
273
     0
  0
XRECORD
  5
72F
102
{ACAD_REACTORS
330
72E
102
}
330
72E
100
AcDbXrecord
280
     1
102
MATERIAL
148
0.0
149
0.0
149
0.0
 93
        0
 94
      127
282
     0
 72
     1
 77
     1
171
     1
175
     1
179
     1
273
     0
  0
XRECORD
  5
735
102
{ACAD_REACTORS
330
734
102
}
330
734
100
AcDbXrecord
280
     1
102
ACAD_ROUNDTRIP_2010_MLEADER_STYLE
  0
CELLSTYLEMAP
  5
732
102
{ACAD_REACTORS
330
730
102
}
330
730
100
AcDbCellStyleMap
 90
        3
300
CELLSTYLE
  1
TABLEFORMAT_BEGIN
 90
        5
170
     1
 91
        0
 92
    32768
 62
   257
 93
        1
300
CONTENTFORMAT
  1
CONTENTFORMAT_BEGIN
 90
        0
 91
        0
 92
        4
 93
        0
300

 40
0.0
140
1.0
 94
        5
 62
     0
340
11
144
0.25
309
CONTENTFORMAT_END
171
     1
301
MARGIN
  1
CELLMARGIN_BEGIN
 40
0.06
 40
0.06
 40
0.06
 40
0.06
 40
0.06
 40
0.06
309
CELLMARGIN_END
 94
        6
 95
        1
302
GRIDFORMAT
  1
GRIDFORMAT_BEGIN
 90
        0
 91
        1
 62
     0
 92
       -2
340
14
 93
        0
 40
0.045
309
GRIDFORMAT_END
 95
        2
302
GRIDFORMAT
  1
GRIDFORMAT_BEGIN
 90
        0
 91
        1
 62
     0
 92
       -2
340
14
 93
        0
 40
0.045
309
GRIDFORMAT_END
 95
        4
302
GRIDFORMAT
  1
GRIDFORMAT_BEGIN
 90
        0
 91
        1
 62
     0
 92
       -2
340
14
 93
        0
 40
0.045
309
GRIDFORMAT_END
 95
        8
302
GRIDFORMAT
  1
GRIDFORMAT_BEGIN
 90
        0
 91
        1
 62
     0
 92
       -2
340
14
 93
        0
 40
0.045
309
GRIDFORMAT_END
 95
       16
302
GRIDFORMAT
  1
GRIDFORMAT_BEGIN
 90
        0
 91
        1
 62
     0
 92
       -2
340
14
 93
        0
 40
0.045
309
GRIDFORMAT_END
 95
       32
302
GRIDFORMAT
  1
GRIDFORMAT_BEGIN
 90
        0
 91
        1
 62
     0
 92
       -2
340
14
 93
        0
 40
0.045
309
GRIDFORMAT_END
309
TABLEFORMAT_END
  1
CELLSTYLE_BEGIN
 90
        1
 91
        1
300
_TITLE
309
CELLSTYLE_END
300
CELLSTYLE
  1
TABLEFORMAT_BEGIN
 90
        5
170
     1
 91
        0
 92
        0
 62
   257
 93
        1
300
CONTENTFORMAT
  1
CONTENTFORMAT_BEGIN
 90
        0
 91
        0
 92
        4
 93
        0
300

 40
0.0
140
1.0
 94
        5
 62
     0
340
11
144
0.18
309
CONTENTFORMAT_END
171
     1
301
MARGIN
  1
CELLMARGIN_BEGIN
 40
0.06
 40
0.06
 40
0.06
 40
0.06
 40
0.06
 40
0.06
309
CELLMARGIN_END
 94
        6
 95
        1
302
GRIDFORMAT
  1
GRIDFORMAT_BEGIN
 90
        0
 91
        1
 62
     0
 92
       -2
340
14
 93
        0
 40
0.045
309
GRIDFORMAT_END
 95
        2
302
GRIDFORMAT
  1
GRIDFORMAT_BEGIN
 90
        0
 91
        1
 62
     0
 92
       -2
340
14
 93
        0
 40
0.045
309
GRIDFORMAT_END
 95
        4
302
GRIDFORMAT
  1
GRIDFORMAT_BEGIN
 90
        0
 91
        1
 62
     0
 92
       -2
340
14
 93
        0
 40
0.045
309
GRIDFORMAT_END
 95
        8
302
GRIDFORMAT
  1
GRIDFORMAT_BEGIN
 90
        0
 91
        1
 62
     0
 92
       -2
340
14
 93
        0
 40
0.045
309
GRIDFORMAT_END
 95
       16
302
GRIDFORMAT
  1
GRIDFORMAT_BEGIN
 90
        0
 91
        1
 62
     0
 92
       -2
340
14
 93
        0
 40
0.045
309
GRIDFORMAT_END
 95
       32
302
GRIDFORMAT
  1
GRIDFORMAT_BEGIN
 90
        0
 91
        1
 62
     0
 92
       -2
340
14
 93
        0
 40
0.045
309
GRIDFORMAT_END
309
TABLEFORMAT_END
  1
CELLSTYLE_BEGIN
 90
        2
 91
        1
300
_HEADER
309
CELLSTYLE_END
300
CELLSTYLE
  1
TABLEFORMAT_BEGIN
 90
        5
170
     1
 91
        0
 92
        0
 62
   257
 93
        1
300
CONTENTFORMAT
  1
CONTENTFORMAT_BEGIN
 90
        0
 91
        0
 92
        4
 93
        0
300

 40
0.0
140
1.0
 94
        2
 62
     0
340
11
144
0.18
309
CONTENTFORMAT_END
171
     1
301
MARGIN
  1
CELLMARGIN_BEGIN
 40
0.06
 40
0.06
 40
0.06
 40
0.06
 40
0.06
 40
0.06
309
CELLMARGIN_END
 94
        6
 95
        1
302
GRIDFORMAT
  1
GRIDFORMAT_BEGIN
 90
        0
 91
        1
 62
     0
 92
       -2
340
14
 93
        0
 40
0.045
309
GRIDFORMAT_END
 95
        2
302
GRIDFORMAT
  1
GRIDFORMAT_BEGIN
 90
        0
 91
        1
 62
     0
 92
       -2
340
14
 93
        0
 40
0.045
309
GRIDFORMAT_END
 95
        4
302
GRIDFORMAT
  1
GRIDFORMAT_BEGIN
 90
        0
 91
        1
 62
     0
 92
       -2
340
14
 93
        0
 40
0.045
309
GRIDFORMAT_END
 95
        8
302
GRIDFORMAT
  1
GRIDFORMAT_BEGIN
 90
        0
 91
        1
 62
     0
 92
       -2
340
14
 93
        0
 40
0.045
309
GRIDFORMAT_END
 95
       16
302
GRIDFORMAT
  1
GRIDFORMAT_BEGIN
 90
        0
 91
        1
 62
     0
 92
       -2
340
14
 93
        0
 40
0.045
309
GRIDFORMAT_END
 95
       32
302
GRIDFORMAT
  1
GRIDFORMAT_BEGIN
 90
        0
 91
        1
 62
     0
 92
       -2
340
14
 93
        0
 40
0.045
309
GRIDFORMAT_END
309
TABLEFORMAT_END
  1
CELLSTYLE_BEGIN
 90
        3
 91
        2
300
_DATA
309
CELLSTYLE_END
  0
XRECORD
  5
731
102
{ACAD_REACTORS
330
730
102
}
330
730
100
AcDbXrecord
280
     1
102
ACAD_ROUNDTRIP_PRE2007_TABLESTYLE
 90
        4
 91
        0
  1

 92
        4
 93
        0
  2

 94
        4
 95
        0
  3

  0
XRECORD
  5
703
102
{ACAD_REACTORS
330
702
102
}
330
702
100
AcDbXrecord
280
     1
102
RTVSPropertyOp0
 70
     1
102
RTVSPropertyOp1
 70
     1
102
RTVSPropertyOp2
 70
     1
102
RTVSPropertyOp3
 70
     1
102
RTVSPropertyOp4
 70
     1
102
RTVSPropertyOp5
 70
     1
102
RTVSPropertyOp6
 70
     1
102
RTVSPropertyOp7
 70
     1
102
RTVSPropertyOp8
 70
     1
102
RTVSPropertyOp9
 70
     1
102
RTVSPropertyOp10
 70
     1
102
RTVSPropertyOp11
 70
     1
102
RTVSPropertyOp12
 70
     1
102
RTVSPropertyOp13
 70
     1
102
RTVSPropertyOp14
 70
     1
102
RTVSPropertyOp15
 70
     1
102
RTVSPropertyOp16
 70
     1
102
RTVSPropertyOp17
 70
     1
102
RTVSPropertyOp18
 70
     1
102
RTVSPropertyOp19
 70
     1
102
RTVSPropertyOp20
 70
     1
102
RTVSPropertyOp21
 70
     1
102
RTVSPropertyOp22
 70
     1
102
RTVSPropertyOp23
 70
     1
102
RTVSPropertyOp24
 70
     1
102
RTVSPropertyOp25
 70
     1
102
RTVSPropertyOp26
 70
     1
102
RTVSPropertyOp27
 70
     1
102
RTVSPropertyOp28
 70
     1
102
RTVSPropertyOp29
 70
     1
102
RTVSPropertyOp30
 70
     1
102
RTVSPropertyOp31
 70
     1
102
RTVSPropertyOp32
 70
     1
102
RTVSPropertyOp33
 70
     1
102
RTVSPropertyOp34
 70
     1
102
RTVSPropertyOp35
 70
     1
102
RTVSPropertyOp36
 70
     1
102
RTVSPropertyOp37
 70
     1
102
RTVSPropertyOp38
 70
     1
102
RTVSPropertyOp39
 70
     1
102
RTVSPropertyOp40
 70
     1
102
RTVSPropertyOp41
 70
     1
102
RTVSPropertyOp42
 70
     1
102
RTVSPropertyOp43
 70
     1
102
RTVSPropertyOp44
 70
     1
102
RTVSPropertyOp45
 70
     1
102
RTVSPropertyOp46
 70
     1
102
RTVSPropertyOp47
 70
     1
102
RTVSPropertyOp48
 70
     1
102
RTVSPropertyOp49
 70
     1
102
RTVSPropertyOp50
 70
     1
102
RTVSPropertyOp51
 70
     0
102
RTVSPropertyOp52
 70
     0
102
RTVSPropertyOp53
 70
     1
102
RTVSPropertyOp54
 70
     1
102
RTVSPropertyOp55
 70
     1
102
RTVSPropertyOp56
 70
     1
102
RTVSPropertyOp57
 70
     1
102
RTVSPost2010Prop28
280
     1
102
RTVSPost2010PropOp28
 70
     1
102
RTVSPost2010Prop29
280
     1
102
RTVSPost2010PropOp29
 70
     1
102
RTVSPost2010Prop30
280
     0
102
RTVSPost2010PropOp30
 70
     1
102
RTVSPost2010Prop31
280
     0
102
RTVSPost2010PropOp31
 70
     1
102
RTVSPost2010Prop32
280
     0
102
RTVSPost2010PropOp32
 70
     1
102
RTVSPost2010Prop33
280
     0
102
RTVSPost2010PropOp33
 70
     1
102
RTVSPost2010Prop34
280
     0
102
RTVSPost2010PropOp34
 70
     1
102
RTVSPost2010Prop35
280
     0
102
RTVSPost2010PropOp35
 70
     1
102
RTVSPost2010Prop36
280
     0
102
RTVSPost2010PropOp36
 70
     1
102
RTVSPost2010Prop37
 90
       50
102
RTVSPost2010PropOp37
 70
     1
102
RTVSPost2010Prop38
140
0.0
102
RTVSPost2010PropOp38
 70
     1
102
RTVSPost2010Prop39
140
1.0
102
RTVSPost2010PropOp39
 70
     1
102
RTVSPost2010Prop40
 90
        0
102
RTVSPost2010PropOp40
 70
     1
102
RTVSPost2010Prop41ColorIndex
 90
       18
102
RTVSPost2010Prop41ColorRGB
 90
        0
102
RTVSPost2010PropOp41
 70
     1
102
RTVSPost2010Prop42
 90
       50
102
RTVSPost2010PropOp42
 70
     1
102
RTVSPost2010Prop43
 90
        3
102
RTVSPost2010PropOp43
 70
     1
102
RTVSPost2010Prop44ColorIndex
 90
        5
102
RTVSPost2010Prop44ColorRGB
 90
      255
102
RTVSPost2010PropOp44
 70
     1
102
RTVSPost2010Prop45
280
     0
102
RTVSPost2010PropOp45
 70
     1
102
RTVSPost2010Prop46
 90
       50
102
RTVSPost2010PropOp46
 70
     1
102
RTVSPost2010Prop47
 90
       50
102
RTVSPost2010PropOp47
 70
     1
102
RTVSPost2010Prop48
 90
       50
102
RTVSPost2010PropOp48
 70
     1
102
RTVSPost2010Prop49
280
     0
102
RTVSPost2010PropOp49
 70
     1
102
RTVSPost2010Prop50
 90
       50
102
RTVSPost2010PropOp50
 70
     1
102
RTVSPost2010Prop51ColorIndex
 90
      256
102
RTVSPost2010Prop51ColorRGB
 90
-16777216
102
RTVSPost2010PropOp51
 70
     0
102
RTVSPost2010Prop52
140
1.0
102
RTVSPost2010PropOp52
 70
     0
102
RTVSPost2010Prop53
 90
        2
102
RTVSPost2010PropOp53
 70
     1
102
RTVSPost2010Prop54
  1
strokes_ogs.tif
102
RTVSPost2010PropOp54
 70
     1
102
RTVSPost2010Prop55
280
     0
102
RTVSPost2010PropOp55
 70
     1
102
RTVSPost2010Prop56
140
1.0
102
RTVSPost2010PropOp56
 70
     1
102
RTVSPost2010Prop57
140
1.0
102
RTVSPost2010PropOp57
 70
     1
  0
XRECORD
  5
709
102
{ACAD_REACTORS
330
708
102
}
330
708
100
AcDbXrecord
280
     1
102
RTVSPropertyOp0
 70
     1
102
RTVSPropertyOp1
 70
     1
102
RTVSPropertyOp2
 70
     1
102
RTVSPropertyOp3
 70
     1
102
RTVSPropertyOp4
 70
     1
102
RTVSPropertyOp5
 70
     1
102
RTVSPropertyOp6
 70
     1
102
RTVSPropertyOp7
 70
     1
102
RTVSPropertyOp8
 70
     1
102
RTVSPropertyOp9
 70
     1
102
RTVSPropertyOp10
 70
     1
102
RTVSPropertyOp11
 70
     1
102
RTVSPropertyOp12
 70
     1
102
RTVSPropertyOp13
 70
     1
102
RTVSPropertyOp14
 70
     1
102
RTVSPropertyOp15
 70
     1
102
RTVSPropertyOp16
 70
     1
102
RTVSPropertyOp17
 70
     1
102
RTVSPropertyOp18
 70
     1
102
RTVSPropertyOp19
 70
     1
102
RTVSPropertyOp20
 70
     1
102
RTVSPropertyOp21
 70
     1
102
RTVSPropertyOp22
 70
     1
102
RTVSPropertyOp23
 70
     1
102
RTVSPropertyOp24
 70
     1
102
RTVSPropertyOp25
 70
     1
102
RTVSPropertyOp26
 70
     1
102
RTVSPropertyOp27
 70
     1
102
RTVSPropertyOp28
 70
     1
102
RTVSPropertyOp29
 70
     1
102
RTVSPropertyOp30
 70
     1
102
RTVSPropertyOp31
 70
     1
102
RTVSPropertyOp32
 70
     1
102
RTVSPropertyOp33
 70
     1
102
RTVSPropertyOp34
 70
     1
102
RTVSPropertyOp35
 70
     1
102
RTVSPropertyOp36
 70
     1
102
RTVSPropertyOp37
 70
     1
102
RTVSPropertyOp38
 70
     1
102
RTVSPropertyOp39
 70
     1
102
RTVSPropertyOp40
 70
     1
102
RTVSPropertyOp41
 70
     1
102
RTVSPropertyOp42
 70
     1
102
RTVSPropertyOp43
 70
     1
102
RTVSPropertyOp44
 70
     1
102
RTVSPropertyOp45
 70
     1
102
RTVSPropertyOp46
 70
     1
102
RTVSPropertyOp47
 70
     1
102
RTVSPropertyOp48
 70
     1
102
RTVSPropertyOp49
 70
     1
102
RTVSPropertyOp50
 70
     1
102
RTVSPropertyOp51
 70
     0
102
RTVSPropertyOp52
 70
     0
102
RTVSPropertyOp53
 70
     1
102
RTVSPropertyOp54
 70
     1
102
RTVSPropertyOp55
 70
     1
102
RTVSPropertyOp56
 70
     1
102
RTVSPropertyOp57
 70
     1
102
RTVSPost2010Prop28
280
     0
102
RTVSPost2010PropOp28
 70
     1
102
RTVSPost2010Prop29
280
     1
102
RTVSPost2010PropOp29
 70
     1
102
RTVSPost2010Prop30
280
     1
102
RTVSPost2010PropOp30
 70
     1
102
RTVSPost2010Prop31
280
     0
102
RTVSPost2010PropOp31
 70
     1
102
RTVSPost2010Prop32
280
     0
102
RTVSPost2010PropOp32
 70
     1
102
RTVSPost2010Prop33
280
     0
102
RTVSPost2010PropOp33
 70
     1
102
RTVSPost2010Prop34
280
     0
102
RTVSPost2010PropOp34
 70
     1
102
RTVSPost2010Prop35
280
     0
102
RTVSPost2010PropOp35
 70
     1
102
RTVSPost2010Prop36
280
     0
102
RTVSPost2010PropOp36
 70
     1
102
RTVSPost2010Prop37
 90
       50
102
RTVSPost2010PropOp37
 70
     1
102
RTVSPost2010Prop38
140
0.0
102
RTVSPost2010PropOp38
 70
     1
102
RTVSPost2010Prop39
140
1.0
102
RTVSPost2010PropOp39
 70
     1
102
RTVSPost2010Prop40
 90
        0
102
RTVSPost2010PropOp40
 70
     1
102
RTVSPost2010Prop41ColorIndex
 90
       18
102
RTVSPost2010Prop41ColorRGB
 90
        0
102
RTVSPost2010PropOp41
 70
     1
102
RTVSPost2010Prop42
 90
       50
102
RTVSPost2010PropOp42
 70
     1
102
RTVSPost2010Prop43
 90
        3
102
RTVSPost2010PropOp43
 70
     1
102
RTVSPost2010Prop44ColorIndex
 90
        5
102
RTVSPost2010Prop44ColorRGB
 90
      255
102
RTVSPost2010PropOp44
 70
     1
102
RTVSPost2010Prop45
280
     0
102
RTVSPost2010PropOp45
 70
     1
102
RTVSPost2010Prop46
 90
       50
102
RTVSPost2010PropOp46
 70
     1
102
RTVSPost2010Prop47
 90
       50
102
RTVSPost2010PropOp47
 70
     1
102
RTVSPost2010Prop48
 90
       50
102
RTVSPost2010PropOp48
 70
     1
102
RTVSPost2010Prop49
280
     0
102
RTVSPost2010PropOp49
 70
     1
102
RTVSPost2010Prop50
 90
       50
102
RTVSPost2010PropOp50
 70
     1
102
RTVSPost2010Prop51ColorIndex
 90
      256
102
RTVSPost2010Prop51ColorRGB
 90
-16777216
102
RTVSPost2010PropOp51
 70
     0
102
RTVSPost2010Prop52
140
1.0
102
RTVSPost2010PropOp52
 70
     0
102
RTVSPost2010Prop53
 90
        2
102
RTVSPost2010PropOp53
 70
     1
102
RTVSPost2010Prop54
  1
strokes_ogs.tif
102
RTVSPost2010PropOp54
 70
     1
102
RTVSPost2010Prop55
280
     0
102
RTVSPost2010PropOp55
 70
     1
102
RTVSPost2010Prop56
140
1.0
102
RTVSPost2010PropOp56
 70
     1
102
RTVSPost2010Prop57
140
1.0
102
RTVSPost2010PropOp57
 70
     1
  0
XRECORD
  5
711
102
{ACAD_REACTORS
330
710
102
}
330
710
100
AcDbXrecord
280
     1
102
RTVSPropertyOp0
 70
     1
102
RTVSPropertyOp1
 70
     1
102
RTVSPropertyOp2
 70
     1
102
RTVSPropertyOp3
 70
     1
102
RTVSPropertyOp4
 70
     1
102
RTVSPropertyOp5
 70
     1
102
RTVSPropertyOp6
 70
     1
102
RTVSPropertyOp7
 70
     1
102
RTVSPropertyOp8
 70
     1
102
RTVSPropertyOp9
 70
     1
102
RTVSPropertyOp10
 70
     1
102
RTVSPropertyOp11
 70
     1
102
RTVSPropertyOp12
 70
     1
102
RTVSPropertyOp13
 70
     1
102
RTVSPropertyOp14
 70
     1
102
RTVSPropertyOp15
 70
     1
102
RTVSPropertyOp16
 70
     1
102
RTVSPropertyOp17
 70
     1
102
RTVSPropertyOp18
 70
     1
102
RTVSPropertyOp19
 70
     1
102
RTVSPropertyOp20
 70
     1
102
RTVSPropertyOp21
 70
     1
102
RTVSPropertyOp22
 70
     1
102
RTVSPropertyOp23
 70
     1
102
RTVSPropertyOp24
 70
     1
102
RTVSPropertyOp25
 70
     1
102
RTVSPropertyOp26
 70
     1
102
RTVSPropertyOp27
 70
     1
102
RTVSPropertyOp28
 70
     1
102
RTVSPropertyOp29
 70
     1
102
RTVSPropertyOp30
 70
     1
102
RTVSPropertyOp31
 70
     1
102
RTVSPropertyOp32
 70
     1
102
RTVSPropertyOp33
 70
     1
102
RTVSPropertyOp34
 70
     1
102
RTVSPropertyOp35
 70
     1
102
RTVSPropertyOp36
 70
     1
102
RTVSPropertyOp37
 70
     1
102
RTVSPropertyOp38
 70
     1
102
RTVSPropertyOp39
 70
     1
102
RTVSPropertyOp40
 70
     1
102
RTVSPropertyOp41
 70
     1
102
RTVSPropertyOp42
 70
     1
102
RTVSPropertyOp43
 70
     1
102
RTVSPropertyOp44
 70
     1
102
RTVSPropertyOp45
 70
     1
102
RTVSPropertyOp46
 70
     1
102
RTVSPropertyOp47
 70
     1
102
RTVSPropertyOp48
 70
     1
102
RTVSPropertyOp49
 70
     1
102
RTVSPropertyOp50
 70
     1
102
RTVSPropertyOp51
 70
     0
102
RTVSPropertyOp52
 70
     0
102
RTVSPropertyOp53
 70
     1
102
RTVSPropertyOp54
 70
     1
102
RTVSPropertyOp55
 70
     1
102
RTVSPropertyOp56
 70
     1
102
RTVSPropertyOp57
 70
     1
102
RTVSPost2010Prop28
280
     0
102
RTVSPost2010PropOp28
 70
     1
102
RTVSPost2010Prop29
280
     1
102
RTVSPost2010PropOp29
 70
     1
102
RTVSPost2010Prop30
280
     1
102
RTVSPost2010PropOp30
 70
     1
102
RTVSPost2010Prop31
280
     0
102
RTVSPost2010PropOp31
 70
     1
102
RTVSPost2010Prop32
280
     0
102
RTVSPost2010PropOp32
 70
     1
102
RTVSPost2010Prop33
280
     0
102
RTVSPost2010PropOp33
 70
     1
102
RTVSPost2010Prop34
280
     0
102
RTVSPost2010PropOp34
 70
     1
102
RTVSPost2010Prop35
280
     0
102
RTVSPost2010PropOp35
 70
     1
102
RTVSPost2010Prop36
280
     0
102
RTVSPost2010PropOp36
 70
     1
102
RTVSPost2010Prop37
 90
       50
102
RTVSPost2010PropOp37
 70
     1
102
RTVSPost2010Prop38
140
0.0
102
RTVSPost2010PropOp38
 70
     1
102
RTVSPost2010Prop39
140
1.0
102
RTVSPost2010PropOp39
 70
     1
102
RTVSPost2010Prop40
 90
        0
102
RTVSPost2010PropOp40
 70
     1
102
RTVSPost2010Prop41ColorIndex
 90
       18
102
RTVSPost2010Prop41ColorRGB
 90
        0
102
RTVSPost2010PropOp41
 70
     1
102
RTVSPost2010Prop42
 90
       50
102
RTVSPost2010PropOp42
 70
     1
102
RTVSPost2010Prop43
 90
        3
102
RTVSPost2010PropOp43
 70
     1
102
RTVSPost2010Prop44ColorIndex
 90
        5
102
RTVSPost2010Prop44ColorRGB
 90
      255
102
RTVSPost2010PropOp44
 70
     1
102
RTVSPost2010Prop45
280
     0
102
RTVSPost2010PropOp45
 70
     1
102
RTVSPost2010Prop46
 90
       50
102
RTVSPost2010PropOp46
 70
     1
102
RTVSPost2010Prop47
 90
       50
102
RTVSPost2010PropOp47
 70
     1
102
RTVSPost2010Prop48
 90
       50
102
RTVSPost2010PropOp48
 70
     1
102
RTVSPost2010Prop49
280
     0
102
RTVSPost2010PropOp49
 70
     1
102
RTVSPost2010Prop50
 90
       50
102
RTVSPost2010PropOp50
 70
     1
102
RTVSPost2010Prop51ColorIndex
 90
      256
102
RTVSPost2010Prop51ColorRGB
 90
-16777216
102
RTVSPost2010PropOp51
 70
     0
102
RTVSPost2010Prop52
140
1.0
102
RTVSPost2010PropOp52
 70
     0
102
RTVSPost2010Prop53
 90
        2
102
RTVSPost2010PropOp53
 70
     1
102
RTVSPost2010Prop54
  1
strokes_ogs.tif
102
RTVSPost2010PropOp54
 70
     1
102
RTVSPost2010Prop55
280
     0
102
RTVSPost2010PropOp55
 70
     1
102
RTVSPost2010Prop56
140
1.0
102
RTVSPost2010PropOp56
 70
     1
102
RTVSPost2010Prop57
140
1.0
102
RTVSPost2010PropOp57
 70
     1
  0
XRECORD
  5
719
102
{ACAD_REACTORS
330
718
102
}
330
718
100
AcDbXrecord
280
     1
102
RTVSPropertyOp0
 70
     1
102
RTVSPropertyOp1
 70
     1
102
RTVSPropertyOp2
 70
     1
102
RTVSPropertyOp3
 70
     1
102
RTVSPropertyOp4
 70
     1
102
RTVSPropertyOp5
 70
     1
102
RTVSPropertyOp6
 70
     1
102
RTVSPropertyOp7
 70
     1
102
RTVSPropertyOp8
 70
     1
102
RTVSPropertyOp9
 70
     1
102
RTVSPropertyOp10
 70
     1
102
RTVSPropertyOp11
 70
     1
102
RTVSPropertyOp12
 70
     1
102
RTVSPropertyOp13
 70
     1
102
RTVSPropertyOp14
 70
     1
102
RTVSPropertyOp15
 70
     1
102
RTVSPropertyOp16
 70
     1
102
RTVSPropertyOp17
 70
     1
102
RTVSPropertyOp18
 70
     1
102
RTVSPropertyOp19
 70
     1
102
RTVSPropertyOp20
 70
     1
102
RTVSPropertyOp21
 70
     1
102
RTVSPropertyOp22
 70
     1
102
RTVSPropertyOp23
 70
     1
102
RTVSPropertyOp24
 70
     1
102
RTVSPropertyOp25
 70
     1
102
RTVSPropertyOp26
 70
     1
102
RTVSPropertyOp27
 70
     1
102
RTVSPropertyOp28
 70
     1
102
RTVSPropertyOp29
 70
     1
102
RTVSPropertyOp30
 70
     1
102
RTVSPropertyOp31
 70
     1
102
RTVSPropertyOp32
 70
     1
102
RTVSPropertyOp33
 70
     1
102
RTVSPropertyOp34
 70
     1
102
RTVSPropertyOp35
 70
     1
102
RTVSPropertyOp36
 70
     1
102
RTVSPropertyOp37
 70
     1
102
RTVSPropertyOp38
 70
     1
102
RTVSPropertyOp39
 70
     1
102
RTVSPropertyOp40
 70
     1
102
RTVSPropertyOp41
 70
     1
102
RTVSPropertyOp42
 70
     1
102
RTVSPropertyOp43
 70
     1
102
RTVSPropertyOp44
 70
     1
102
RTVSPropertyOp45
 70
     1
102
RTVSPropertyOp46
 70
     1
102
RTVSPropertyOp47
 70
     1
102
RTVSPropertyOp48
 70
     1
102
RTVSPropertyOp49
 70
     1
102
RTVSPropertyOp50
 70
     1
102
RTVSPropertyOp51
 70
     0
102
RTVSPropertyOp52
 70
     0
102
RTVSPropertyOp53
 70
     1
102
RTVSPropertyOp54
 70
     1
102
RTVSPropertyOp55
 70
     1
102
RTVSPropertyOp56
 70
     1
102
RTVSPropertyOp57
 70
     1
102
RTVSPost2010Prop28
280
     0
102
RTVSPost2010PropOp28
 70
     1
102
RTVSPost2010Prop29
280
     1
102
RTVSPost2010PropOp29
 70
     1
102
RTVSPost2010Prop30
280
     1
102
RTVSPost2010PropOp30
 70
     1
102
RTVSPost2010Prop31
280
     0
102
RTVSPost2010PropOp31
 70
     1
102
RTVSPost2010Prop32
280
     0
102
RTVSPost2010PropOp32
 70
     1
102
RTVSPost2010Prop33
280
     0
102
RTVSPost2010PropOp33
 70
     1
102
RTVSPost2010Prop34
280
     0
102
RTVSPost2010PropOp34
 70
     1
102
RTVSPost2010Prop35
280
     0
102
RTVSPost2010PropOp35
 70
     1
102
RTVSPost2010Prop36
280
     0
102
RTVSPost2010PropOp36
 70
     1
102
RTVSPost2010Prop37
 90
       50
102
RTVSPost2010PropOp37
 70
     1
102
RTVSPost2010Prop38
140
0.0
102
RTVSPost2010PropOp38
 70
     1
102
RTVSPost2010Prop39
140
1.0
102
RTVSPost2010PropOp39
 70
     1
102
RTVSPost2010Prop40
 90
        0
102
RTVSPost2010PropOp40
 70
     1
102
RTVSPost2010Prop41ColorIndex
 90
       18
102
RTVSPost2010Prop41ColorRGB
 90
        0
102
RTVSPost2010PropOp41
 70
     1
102
RTVSPost2010Prop42
 90
       50
102
RTVSPost2010PropOp42
 70
     1
102
RTVSPost2010Prop43
 90
        3
102
RTVSPost2010PropOp43
 70
     1
102
RTVSPost2010Prop44ColorIndex
 90
        5
102
RTVSPost2010Prop44ColorRGB
 90
      255
102
RTVSPost2010PropOp44
 70
     1
102
RTVSPost2010Prop45
280
     0
102
RTVSPost2010PropOp45
 70
     1
102
RTVSPost2010Prop46
 90
       50
102
RTVSPost2010PropOp46
 70
     1
102
RTVSPost2010Prop47
 90
       50
102
RTVSPost2010PropOp47
 70
     1
102
RTVSPost2010Prop48
 90
       50
102
RTVSPost2010PropOp48
 70
     1
102
RTVSPost2010Prop49
280
     0
102
RTVSPost2010PropOp49
 70
     1
102
RTVSPost2010Prop50
 90
       50
102
RTVSPost2010PropOp50
 70
     1
102
RTVSPost2010Prop51ColorIndex
 90
      256
102
RTVSPost2010Prop51ColorRGB
 90
-16777216
102
RTVSPost2010PropOp51
 70
     0
102
RTVSPost2010Prop52
140
1.0
102
RTVSPost2010PropOp52
 70
     0
102
RTVSPost2010Prop53
 90
        2
102
RTVSPost2010PropOp53
 70
     1
102
RTVSPost2010Prop54
  1
strokes_ogs.tif
102
RTVSPost2010PropOp54
 70
     1
102
RTVSPost2010Prop55
280
     0
102
RTVSPost2010PropOp55
 70
     1
102
RTVSPost2010Prop56
140
1.0
102
RTVSPost2010PropOp56
 70
     1
102
RTVSPost2010Prop57
140
1.0
102
RTVSPost2010PropOp57
 70
     1
  0
XRECORD
  5
70D
102
{ACAD_REACTORS
330
70C
102
}
330
70C
100
AcDbXrecord
280
     1
102
RTVSPropertyOp0
 70
     1
102
RTVSPropertyOp1
 70
     1
102
RTVSPropertyOp2
 70
     1
102
RTVSPropertyOp3
 70
     1
102
RTVSPropertyOp4
 70
     1
102
RTVSPropertyOp5
 70
     1
102
RTVSPropertyOp6
 70
     1
102
RTVSPropertyOp7
 70
     1
102
RTVSPropertyOp8
 70
     1
102
RTVSPropertyOp9
 70
     1
102
RTVSPropertyOp10
 70
     1
102
RTVSPropertyOp11
 70
     1
102
RTVSPropertyOp12
 70
     1
102
RTVSPropertyOp13
 70
     1
102
RTVSPropertyOp14
 70
     1
102
RTVSPropertyOp15
 70
     1
102
RTVSPropertyOp16
 70
     1
102
RTVSPropertyOp17
 70
     1
102
RTVSPropertyOp18
 70
     1
102
RTVSPropertyOp19
 70
     1
102
RTVSPropertyOp20
 70
     1
102
RTVSPropertyOp21
 70
     1
102
RTVSPropertyOp22
 70
     1
102
RTVSPropertyOp23
 70
     1
102
RTVSPropertyOp24
 70
     1
102
RTVSPropertyOp25
 70
     1
102
RTVSPropertyOp26
 70
     1
102
RTVSPropertyOp27
 70
     1
102
RTVSPropertyOp28
 70
     1
102
RTVSPropertyOp29
 70
     1
102
RTVSPropertyOp30
 70
     1
102
RTVSPropertyOp31
 70
     1
102
RTVSPropertyOp32
 70
     1
102
RTVSPropertyOp33
 70
     1
102
RTVSPropertyOp34
 70
     1
102
RTVSPropertyOp35
 70
     1
102
RTVSPropertyOp36
 70
     1
102
RTVSPropertyOp37
 70
     1
102
RTVSPropertyOp38
 70
     1
102
RTVSPropertyOp39
 70
     1
102
RTVSPropertyOp40
 70
     1
102
RTVSPropertyOp41
 70
     1
102
RTVSPropertyOp42
 70
     1
102
RTVSPropertyOp43
 70
     1
102
RTVSPropertyOp44
 70
     1
102
RTVSPropertyOp45
 70
     1
102
RTVSPropertyOp46
 70
     1
102
RTVSPropertyOp47
 70
     1
102
RTVSPropertyOp48
 70
     1
102
RTVSPropertyOp49
 70
     1
102
RTVSPropertyOp50
 70
     1
102
RTVSPropertyOp51
 70
     0
102
RTVSPropertyOp52
 70
     0
102
RTVSPropertyOp53
 70
     1
102
RTVSPropertyOp54
 70
     1
102
RTVSPropertyOp55
 70
     1
102
RTVSPropertyOp56
 70
     1
102
RTVSPropertyOp57
 70
     1
102
RTVSPost2010Prop28
280
     0
102
RTVSPost2010PropOp28
 70
     1
102
RTVSPost2010Prop29
280
     1
102
RTVSPost2010PropOp29
 70
     1
102
RTVSPost2010Prop30
280
     1
102
RTVSPost2010PropOp30
 70
     1
102
RTVSPost2010Prop31
280
     0
102
RTVSPost2010PropOp31
 70
     1
102
RTVSPost2010Prop32
280
     0
102
RTVSPost2010PropOp32
 70
     1
102
RTVSPost2010Prop33
280
     0
102
RTVSPost2010PropOp33
 70
     1
102
RTVSPost2010Prop34
280
     0
102
RTVSPost2010PropOp34
 70
     1
102
RTVSPost2010Prop35
280
     0
102
RTVSPost2010PropOp35
 70
     1
102
RTVSPost2010Prop36
280
     0
102
RTVSPost2010PropOp36
 70
     1
102
RTVSPost2010Prop37
 90
       50
102
RTVSPost2010PropOp37
 70
     1
102
RTVSPost2010Prop38
140
0.0
102
RTVSPost2010PropOp38
 70
     1
102
RTVSPost2010Prop39
140
1.0
102
RTVSPost2010PropOp39
 70
     1
102
RTVSPost2010Prop40
 90
        0
102
RTVSPost2010PropOp40
 70
     1
102
RTVSPost2010Prop41ColorIndex
 90
       18
102
RTVSPost2010Prop41ColorRGB
 90
        0
102
RTVSPost2010PropOp41
 70
     1
102
RTVSPost2010Prop42
 90
       50
102
RTVSPost2010PropOp42
 70
     1
102
RTVSPost2010Prop43
 90
        3
102
RTVSPost2010PropOp43
 70
     1
102
RTVSPost2010Prop44ColorIndex
 90
        5
102
RTVSPost2010Prop44ColorRGB
 90
      255
102
RTVSPost2010PropOp44
 70
     1
102
RTVSPost2010Prop45
280
     0
102
RTVSPost2010PropOp45
 70
     1
102
RTVSPost2010Prop46
 90
       50
102
RTVSPost2010PropOp46
 70
     1
102
RTVSPost2010Prop47
 90
       50
102
RTVSPost2010PropOp47
 70
     1
102
RTVSPost2010Prop48
 90
       50
102
RTVSPost2010PropOp48
 70
     1
102
RTVSPost2010Prop49
280
     0
102
RTVSPost2010PropOp49
 70
     1
102
RTVSPost2010Prop50
 90
       50
102
RTVSPost2010PropOp50
 70
     1
102
RTVSPost2010Prop51ColorIndex
 90
      256
102
RTVSPost2010Prop51ColorRGB
 90
-16777216
102
RTVSPost2010PropOp51
 70
     0
102
RTVSPost2010Prop52
140
1.0
102
RTVSPost2010PropOp52
 70
     0
102
RTVSPost2010Prop53
 90
        2
102
RTVSPost2010PropOp53
 70
     1
102
RTVSPost2010Prop54
  1
strokes_ogs.tif
102
RTVSPost2010PropOp54
 70
     1
102
RTVSPost2010Prop55
280
     0
102
RTVSPost2010PropOp55
 70
     1
102
RTVSPost2010Prop56
140
1.0
102
RTVSPost2010PropOp56
 70
     1
102
RTVSPost2010Prop57
140
1.0
102
RTVSPost2010PropOp57
 70
     1
  0
XRECORD
  5
70F
102
{ACAD_REACTORS
330
70E
102
}
330
70E
100
AcDbXrecord
280
     1
102
RTVSPropertyOp0
 70
     1
102
RTVSPropertyOp1
 70
     1
102
RTVSPropertyOp2
 70
     1
102
RTVSPropertyOp3
 70
     1
102
RTVSPropertyOp4
 70
     1
102
RTVSPropertyOp5
 70
     1
102
RTVSPropertyOp6
 70
     1
102
RTVSPropertyOp7
 70
     1
102
RTVSPropertyOp8
 70
     1
102
RTVSPropertyOp9
 70
     1
102
RTVSPropertyOp10
 70
     1
102
RTVSPropertyOp11
 70
     1
102
RTVSPropertyOp12
 70
     1
102
RTVSPropertyOp13
 70
     1
102
RTVSPropertyOp14
 70
     1
102
RTVSPropertyOp15
 70
     1
102
RTVSPropertyOp16
 70
     1
102
RTVSPropertyOp17
 70
     1
102
RTVSPropertyOp18
 70
     1
102
RTVSPropertyOp19
 70
     1
102
RTVSPropertyOp20
 70
     1
102
RTVSPropertyOp21
 70
     1
102
RTVSPropertyOp22
 70
     1
102
RTVSPropertyOp23
 70
     1
102
RTVSPropertyOp24
 70
     1
102
RTVSPropertyOp25
 70
     1
102
RTVSPropertyOp26
 70
     1
102
RTVSPropertyOp27
 70
     1
102
RTVSPropertyOp28
 70
     1
102
RTVSPropertyOp29
 70
     1
102
RTVSPropertyOp30
 70
     1
102
RTVSPropertyOp31
 70
     1
102
RTVSPropertyOp32
 70
     1
102
RTVSPropertyOp33
 70
     1
102
RTVSPropertyOp34
 70
     1
102
RTVSPropertyOp35
 70
     1
102
RTVSPropertyOp36
 70
     1
102
RTVSPropertyOp37
 70
     1
102
RTVSPropertyOp38
 70
     1
102
RTVSPropertyOp39
 70
     1
102
RTVSPropertyOp40
 70
     1
102
RTVSPropertyOp41
 70
     1
102
RTVSPropertyOp42
 70
     1
102
RTVSPropertyOp43
 70
     1
102
RTVSPropertyOp44
 70
     1
102
RTVSPropertyOp45
 70
     1
102
RTVSPropertyOp46
 70
     1
102
RTVSPropertyOp47
 70
     1
102
RTVSPropertyOp48
 70
     1
102
RTVSPropertyOp49
 70
     1
102
RTVSPropertyOp50
 70
     1
102
RTVSPropertyOp51
 70
     0
102
RTVSPropertyOp52
 70
     0
102
RTVSPropertyOp53
 70
     1
102
RTVSPropertyOp54
 70
     1
102
RTVSPropertyOp55
 70
     1
102
RTVSPropertyOp56
 70
     1
102
RTVSPropertyOp57
 70
     1
102
RTVSPost2010Prop28
280
     0
102
RTVSPost2010PropOp28
 70
     1
102
RTVSPost2010Prop29
280
     1
102
RTVSPost2010PropOp29
 70
     1
102
RTVSPost2010Prop30
280
     1
102
RTVSPost2010PropOp30
 70
     1
102
RTVSPost2010Prop31
280
     0
102
RTVSPost2010PropOp31
 70
     1
102
RTVSPost2010Prop32
280
     0
102
RTVSPost2010PropOp32
 70
     1
102
RTVSPost2010Prop33
280
     0
102
RTVSPost2010PropOp33
 70
     1
102
RTVSPost2010Prop34
280
     0
102
RTVSPost2010PropOp34
 70
     1
102
RTVSPost2010Prop35
280
     0
102
RTVSPost2010PropOp35
 70
     1
102
RTVSPost2010Prop36
280
     0
102
RTVSPost2010PropOp36
 70
     1
102
RTVSPost2010Prop37
 90
       50
102
RTVSPost2010PropOp37
 70
     1
102
RTVSPost2010Prop38
140
0.0
102
RTVSPost2010PropOp38
 70
     1
102
RTVSPost2010Prop39
140
1.0
102
RTVSPost2010PropOp39
 70
     1
102
RTVSPost2010Prop40
 90
        0
102
RTVSPost2010PropOp40
 70
     1
102
RTVSPost2010Prop41ColorIndex
 90
       18
102
RTVSPost2010Prop41ColorRGB
 90
        0
102
RTVSPost2010PropOp41
 70
     1
102
RTVSPost2010Prop42
 90
       50
102
RTVSPost2010PropOp42
 70
     1
102
RTVSPost2010Prop43
 90
        3
102
RTVSPost2010PropOp43
 70
     1
102
RTVSPost2010Prop44ColorIndex
 90
        5
102
RTVSPost2010Prop44ColorRGB
 90
      255
102
RTVSPost2010PropOp44
 70
     1
102
RTVSPost2010Prop45
280
     0
102
RTVSPost2010PropOp45
 70
     1
102
RTVSPost2010Prop46
 90
       50
102
RTVSPost2010PropOp46
 70
     1
102
RTVSPost2010Prop47
 90
       50
102
RTVSPost2010PropOp47
 70
     1
102
RTVSPost2010Prop48
 90
       50
102
RTVSPost2010PropOp48
 70
     1
102
RTVSPost2010Prop49
280
     0
102
RTVSPost2010PropOp49
 70
     1
102
RTVSPost2010Prop50
 90
       50
102
RTVSPost2010PropOp50
 70
     1
102
RTVSPost2010Prop51ColorIndex
 90
      256
102
RTVSPost2010Prop51ColorRGB
 90
-16777216
102
RTVSPost2010PropOp51
 70
     0
102
RTVSPost2010Prop52
140
1.0
102
RTVSPost2010PropOp52
 70
     0
102
RTVSPost2010Prop53
 90
        2
102
RTVSPost2010PropOp53
 70
     1
102
RTVSPost2010Prop54
  1
strokes_ogs.tif
102
RTVSPost2010PropOp54
 70
     1
102
RTVSPost2010Prop55
280
     0
102
RTVSPost2010PropOp55
 70
     1
102
RTVSPost2010Prop56
140
1.0
102
RTVSPost2010PropOp56
 70
     1
102
RTVSPost2010Prop57
140
1.0
102
RTVSPost2010PropOp57
 70
     1
  0
XRECORD
  5
71F
102
{ACAD_REACTORS
330
71E
102
}
330
71E
100
AcDbXrecord
280
     1
102
RTVSPropertyOp0
 70
     0
102
RTVSPropertyOp1
 70
     0
102
RTVSPropertyOp2
 70
     0
102
RTVSPropertyOp3
 70
     0
102
RTVSPropertyOp4
 70
     0
102
RTVSPropertyOp5
 70
     0
102
RTVSPropertyOp6
 70
     0
102
RTVSPropertyOp7
 70
     0
102
RTVSPropertyOp8
 70
     0
102
RTVSPropertyOp9
 70
     0
102
RTVSPropertyOp10
 70
     0
102
RTVSPropertyOp11
 70
     0
102
RTVSPropertyOp12
 70
     0
102
RTVSPropertyOp13
 70
     0
102
RTVSPropertyOp14
 70
     2
102
RTVSPropertyOp15
 70
     0
102
RTVSPropertyOp16
 70
     0
102
RTVSPropertyOp17
 70
     0
102
RTVSPropertyOp18
 70
     0
102
RTVSPropertyOp19
 70
     0
102
RTVSPropertyOp20
 70
     0
102
RTVSPropertyOp21
 70
     0
102
RTVSPropertyOp22
 70
     0
102
RTVSPropertyOp23
 70
     0
102
RTVSPropertyOp24
 70
     0
102
RTVSPropertyOp25
 70
     0
102
RTVSPropertyOp26
 70
     0
102
RTVSPropertyOp27
 70
     0
102
RTVSPropertyOp28
 70
     0
102
RTVSPropertyOp29
 70
     0
102
RTVSPropertyOp30
 70
     0
102
RTVSPropertyOp31
 70
     0
102
RTVSPropertyOp32
 70
     0
102
RTVSPropertyOp33
 70
     0
102
RTVSPropertyOp34
 70
     0
102
RTVSPropertyOp35
 70
     0
102
RTVSPropertyOp36
 70
     0
102
RTVSPropertyOp37
 70
     0
102
RTVSPropertyOp38
 70
     0
102
RTVSPropertyOp39
 70
     0
102
RTVSPropertyOp40
 70
     0
102
RTVSPropertyOp41
 70
     0
102
RTVSPropertyOp42
 70
     0
102
RTVSPropertyOp43
 70
     0
102
RTVSPropertyOp44
 70
     0
102
RTVSPropertyOp45
 70
     0
102
RTVSPropertyOp46
 70
     0
102
RTVSPropertyOp47
 70
     0
102
RTVSPropertyOp48
 70
     0
102
RTVSPropertyOp49
 70
     0
102
RTVSPropertyOp50
 70
     0
102
RTVSPropertyOp51
 70
     0
102
RTVSPropertyOp52
 70
     0
102
RTVSPropertyOp53
 70
     0
102
RTVSPropertyOp54
 70
     0
102
RTVSPropertyOp55
 70
     0
102
RTVSPropertyOp56
 70
     0
102
RTVSPropertyOp57
 70
     0
102
RTVSPost2010Prop28
280
     0
102
RTVSPost2010PropOp28
 70
     0
102
RTVSPost2010Prop29
280
     1
102
RTVSPost2010PropOp29
 70
     0
102
RTVSPost2010Prop30
280
     1
102
RTVSPost2010PropOp30
 70
     0
102
RTVSPost2010Prop31
280
     0
102
RTVSPost2010PropOp31
 70
     0
102
RTVSPost2010Prop32
280
     0
102
RTVSPost2010PropOp32
 70
     0
102
RTVSPost2010Prop33
280
     0
102
RTVSPost2010PropOp33
 70
     0
102
RTVSPost2010Prop34
280
     0
102
RTVSPost2010PropOp34
 70
     0
102
RTVSPost2010Prop35
280
     0
102
RTVSPost2010PropOp35
 70
     0
102
RTVSPost2010Prop36
280
     0
102
RTVSPost2010PropOp36
 70
     0
102
RTVSPost2010Prop37
 90
       50
102
RTVSPost2010PropOp37
 70
     0
102
RTVSPost2010Prop38
140
0.0
102
RTVSPost2010PropOp38
 70
     0
102
RTVSPost2010Prop39
140
1.0
102
RTVSPost2010PropOp39
 70
     0
102
RTVSPost2010Prop40
 90
        0
102
RTVSPost2010PropOp40
 70
     0
102
RTVSPost2010Prop41ColorIndex
 90
       18
102
RTVSPost2010Prop41ColorRGB
 90
        0
102
RTVSPost2010PropOp41
 70
     0
102
RTVSPost2010Prop42
 90
       50
102
RTVSPost2010PropOp42
 70
     0
102
RTVSPost2010Prop43
 90
        3
102
RTVSPost2010PropOp43
 70
     0
102
RTVSPost2010Prop44ColorIndex
 90
        5
102
RTVSPost2010Prop44ColorRGB
 90
      255
102
RTVSPost2010PropOp44
 70
     0
102
RTVSPost2010Prop45
280
     0
102
RTVSPost2010PropOp45
 70
     0
102
RTVSPost2010Prop46
 90
       50
102
RTVSPost2010PropOp46
 70
     0
102
RTVSPost2010Prop47
 90
       50
102
RTVSPost2010PropOp47
 70
     0
102
RTVSPost2010Prop48
 90
       50
102
RTVSPost2010PropOp48
 70
     0
102
RTVSPost2010Prop49
280
     0
102
RTVSPost2010PropOp49
 70
     0
102
RTVSPost2010Prop50
 90
       50
102
RTVSPost2010PropOp50
 70
     0
102
RTVSPost2010Prop51ColorIndex
 90
      256
102
RTVSPost2010Prop51ColorRGB
 90
-16777216
102
RTVSPost2010PropOp51
 70
     0
102
RTVSPost2010Prop52
140
1.0
102
RTVSPost2010PropOp52
 70
     0
102
RTVSPost2010Prop53
 90
        2
102
RTVSPost2010PropOp53
 70
     0
102
RTVSPost2010Prop54
  1
strokes_ogs.tif
102
RTVSPost2010PropOp54
 70
     0
102
RTVSPost2010Prop55
280
     0
102
RTVSPost2010PropOp55
 70
     0
102
RTVSPost2010Prop56
140
1.0
102
RTVSPost2010PropOp56
 70
     0
102
RTVSPost2010Prop57
140
1.0
102
RTVSPost2010PropOp57
 70
     0
  0
XRECORD
  5
717
102
{ACAD_REACTORS
330
716
102
}
330
716
100
AcDbXrecord
280
     1
102
RTVSPropertyOp0
 70
     1
102
RTVSPropertyOp1
 70
     1
102
RTVSPropertyOp2
 70
     1
102
RTVSPropertyOp3
 70
     1
102
RTVSPropertyOp4
 70
     1
102
RTVSPropertyOp5
 70
     1
102
RTVSPropertyOp6
 70
     1
102
RTVSPropertyOp7
 70
     1
102
RTVSPropertyOp8
 70
     1
102
RTVSPropertyOp9
 70
     1
102
RTVSPropertyOp10
 70
     1
102
RTVSPropertyOp11
 70
     1
102
RTVSPropertyOp12
 70
     1
102
RTVSPropertyOp13
 70
     1
102
RTVSPropertyOp14
 70
     1
102
RTVSPropertyOp15
 70
     1
102
RTVSPropertyOp16
 70
     1
102
RTVSPropertyOp17
 70
     1
102
RTVSPropertyOp18
 70
     1
102
RTVSPropertyOp19
 70
     1
102
RTVSPropertyOp20
 70
     1
102
RTVSPropertyOp21
 70
     1
102
RTVSPropertyOp22
 70
     1
102
RTVSPropertyOp23
 70
     1
102
RTVSPropertyOp24
 70
     1
102
RTVSPropertyOp25
 70
     1
102
RTVSPropertyOp26
 70
     1
102
RTVSPropertyOp27
 70
     1
102
RTVSPropertyOp28
 70
     1
102
RTVSPropertyOp29
 70
     1
102
RTVSPropertyOp30
 70
     1
102
RTVSPropertyOp31
 70
     1
102
RTVSPropertyOp32
 70
     1
102
RTVSPropertyOp33
 70
     1
102
RTVSPropertyOp34
 70
     1
102
RTVSPropertyOp35
 70
     1
102
RTVSPropertyOp36
 70
     1
102
RTVSPropertyOp37
 70
     1
102
RTVSPropertyOp38
 70
     1
102
RTVSPropertyOp39
 70
     1
102
RTVSPropertyOp40
 70
     1
102
RTVSPropertyOp41
 70
     1
102
RTVSPropertyOp42
 70
     1
102
RTVSPropertyOp43
 70
     1
102
RTVSPropertyOp44
 70
     1
102
RTVSPropertyOp45
 70
     1
102
RTVSPropertyOp46
 70
     1
102
RTVSPropertyOp47
 70
     1
102
RTVSPropertyOp48
 70
     1
102
RTVSPropertyOp49
 70
     1
102
RTVSPropertyOp50
 70
     1
102
RTVSPropertyOp51
 70
     0
102
RTVSPropertyOp52
 70
     0
102
RTVSPropertyOp53
 70
     1
102
RTVSPropertyOp54
 70
     1
102
RTVSPropertyOp55
 70
     1
102
RTVSPropertyOp56
 70
     1
102
RTVSPropertyOp57
 70
     1
102
RTVSPost2010Prop28
280
     0
102
RTVSPost2010PropOp28
 70
     1
102
RTVSPost2010Prop29
280
     1
102
RTVSPost2010PropOp29
 70
     1
102
RTVSPost2010Prop30
280
     1
102
RTVSPost2010PropOp30
 70
     1
102
RTVSPost2010Prop31
280
     0
102
RTVSPost2010PropOp31
 70
     1
102
RTVSPost2010Prop32
280
     0
102
RTVSPost2010PropOp32
 70
     1
102
RTVSPost2010Prop33
280
     0
102
RTVSPost2010PropOp33
 70
     1
102
RTVSPost2010Prop34
280
     0
102
RTVSPost2010PropOp34
 70
     1
102
RTVSPost2010Prop35
280
     0
102
RTVSPost2010PropOp35
 70
     1
102
RTVSPost2010Prop36
280
     0
102
RTVSPost2010PropOp36
 70
     1
102
RTVSPost2010Prop37
 90
       50
102
RTVSPost2010PropOp37
 70
     1
102
RTVSPost2010Prop38
140
0.0
102
RTVSPost2010PropOp38
 70
     1
102
RTVSPost2010Prop39
140
1.0
102
RTVSPost2010PropOp39
 70
     1
102
RTVSPost2010Prop40
 90
        0
102
RTVSPost2010PropOp40
 70
     1
102
RTVSPost2010Prop41ColorIndex
 90
       18
102
RTVSPost2010Prop41ColorRGB
 90
        0
102
RTVSPost2010PropOp41
 70
     1
102
RTVSPost2010Prop42
 90
       50
102
RTVSPost2010PropOp42
 70
     1
102
RTVSPost2010Prop43
 90
        3
102
RTVSPost2010PropOp43
 70
     1
102
RTVSPost2010Prop44ColorIndex
 90
        5
102
RTVSPost2010Prop44ColorRGB
 90
      255
102
RTVSPost2010PropOp44
 70
     1
102
RTVSPost2010Prop45
280
     0
102
RTVSPost2010PropOp45
 70
     1
102
RTVSPost2010Prop46
 90
       50
102
RTVSPost2010PropOp46
 70
     1
102
RTVSPost2010Prop47
 90
       50
102
RTVSPost2010PropOp47
 70
     1
102
RTVSPost2010Prop48
 90
       50
102
RTVSPost2010PropOp48
 70
     1
102
RTVSPost2010Prop49
280
     0
102
RTVSPost2010PropOp49
 70
     1
102
RTVSPost2010Prop50
 90
       50
102
RTVSPost2010PropOp50
 70
     1
102
RTVSPost2010Prop51ColorIndex
 90
      256
102
RTVSPost2010Prop51ColorRGB
 90
-16777216
102
RTVSPost2010PropOp51
 70
     0
102
RTVSPost2010Prop52
140
1.0
102
RTVSPost2010PropOp52
 70
     0
102
RTVSPost2010Prop53
 90
        2
102
RTVSPost2010PropOp53
 70
     1
102
RTVSPost2010Prop54
  1
strokes_ogs.tif
102
RTVSPost2010PropOp54
 70
     1
102
RTVSPost2010Prop55
280
     0
102
RTVSPost2010PropOp55
 70
     1
102
RTVSPost2010Prop56
140
1.0
102
RTVSPost2010PropOp56
 70
     1
102
RTVSPost2010Prop57
140
1.0
102
RTVSPost2010PropOp57
 70
     1
  0
XRECORD
  5
6FB
102
{ACAD_REACTORS
330
6FA
102
}
330
6FA
100
AcDbXrecord
280
     1
102
RTVSPropertyOp0
 70
     1
102
RTVSPropertyOp1
 70
     1
102
RTVSPropertyOp2
 70
     1
102
RTVSPropertyOp3
 70
     1
102
RTVSPropertyOp4
 70
     1
102
RTVSPropertyOp5
 70
     1
102
RTVSPropertyOp6
 70
     1
102
RTVSPropertyOp7
 70
     1
102
RTVSPropertyOp8
 70
     1
102
RTVSPropertyOp9
 70
     1
102
RTVSPropertyOp10
 70
     1
102
RTVSPropertyOp11
 70
     1
102
RTVSPropertyOp12
 70
     1
102
RTVSPropertyOp13
 70
     1
102
RTVSPropertyOp14
 70
     1
102
RTVSPropertyOp15
 70
     1
102
RTVSPropertyOp16
 70
     1
102
RTVSPropertyOp17
 70
     1
102
RTVSPropertyOp18
 70
     1
102
RTVSPropertyOp19
 70
     1
102
RTVSPropertyOp20
 70
     1
102
RTVSPropertyOp21
 70
     1
102
RTVSPropertyOp22
 70
     1
102
RTVSPropertyOp23
 70
     1
102
RTVSPropertyOp24
 70
     1
102
RTVSPropertyOp25
 70
     1
102
RTVSPropertyOp26
 70
     1
102
RTVSPropertyOp27
 70
     1
102
RTVSPropertyOp28
 70
     1
102
RTVSPropertyOp29
 70
     1
102
RTVSPropertyOp30
 70
     1
102
RTVSPropertyOp31
 70
     1
102
RTVSPropertyOp32
 70
     1
102
RTVSPropertyOp33
 70
     1
102
RTVSPropertyOp34
 70
     1
102
RTVSPropertyOp35
 70
     1
102
RTVSPropertyOp36
 70
     1
102
RTVSPropertyOp37
 70
     1
102
RTVSPropertyOp38
 70
     1
102
RTVSPropertyOp39
 70
     1
102
RTVSPropertyOp40
 70
     1
102
RTVSPropertyOp41
 70
     1
102
RTVSPropertyOp42
 70
     1
102
RTVSPropertyOp43
 70
     1
102
RTVSPropertyOp44
 70
     1
102
RTVSPropertyOp45
 70
     1
102
RTVSPropertyOp46
 70
     1
102
RTVSPropertyOp47
 70
     1
102
RTVSPropertyOp48
 70
     1
102
RTVSPropertyOp49
 70
     1
102
RTVSPropertyOp50
 70
     1
102
RTVSPropertyOp51
 70
     0
102
RTVSPropertyOp52
 70
     0
102
RTVSPropertyOp53
 70
     1
102
RTVSPropertyOp54
 70
     1
102
RTVSPropertyOp55
 70
     1
102
RTVSPropertyOp56
 70
     1
102
RTVSPropertyOp57
 70
     1
102
RTVSPost2010Prop28
280
     0
102
RTVSPost2010PropOp28
 70
     1
102
RTVSPost2010Prop29
280
     1
102
RTVSPost2010PropOp29
 70
     1
102
RTVSPost2010Prop30
280
     1
102
RTVSPost2010PropOp30
 70
     1
102
RTVSPost2010Prop31
280
     0
102
RTVSPost2010PropOp31
 70
     1
102
RTVSPost2010Prop32
280
     0
102
RTVSPost2010PropOp32
 70
     1
102
RTVSPost2010Prop33
280
     0
102
RTVSPost2010PropOp33
 70
     1
102
RTVSPost2010Prop34
280
     0
102
RTVSPost2010PropOp34
 70
     1
102
RTVSPost2010Prop35
280
     0
102
RTVSPost2010PropOp35
 70
     1
102
RTVSPost2010Prop36
280
     0
102
RTVSPost2010PropOp36
 70
     1
102
RTVSPost2010Prop37
 90
       50
102
RTVSPost2010PropOp37
 70
     1
102
RTVSPost2010Prop38
140
0.0
102
RTVSPost2010PropOp38
 70
     1
102
RTVSPost2010Prop39
140
1.0
102
RTVSPost2010PropOp39
 70
     1
102
RTVSPost2010Prop40
 90
        0
102
RTVSPost2010PropOp40
 70
     1
102
RTVSPost2010Prop41ColorIndex
 90
       18
102
RTVSPost2010Prop41ColorRGB
 90
        0
102
RTVSPost2010PropOp41
 70
     1
102
RTVSPost2010Prop42
 90
       50
102
RTVSPost2010PropOp42
 70
     1
102
RTVSPost2010Prop43
 90
        3
102
RTVSPost2010PropOp43
 70
     1
102
RTVSPost2010Prop44ColorIndex
 90
        5
102
RTVSPost2010Prop44ColorRGB
 90
      255
102
RTVSPost2010PropOp44
 70
     1
102
RTVSPost2010Prop45
280
     0
102
RTVSPost2010PropOp45
 70
     1
102
RTVSPost2010Prop46
 90
       50
102
RTVSPost2010PropOp46
 70
     1
102
RTVSPost2010Prop47
 90
       50
102
RTVSPost2010PropOp47
 70
     1
102
RTVSPost2010Prop48
 90
       50
102
RTVSPost2010PropOp48
 70
     1
102
RTVSPost2010Prop49
280
     0
102
RTVSPost2010PropOp49
 70
     1
102
RTVSPost2010Prop50
 90
       50
102
RTVSPost2010PropOp50
 70
     1
102
RTVSPost2010Prop51ColorIndex
 90
      256
102
RTVSPost2010Prop51ColorRGB
 90
-16777216
102
RTVSPost2010PropOp51
 70
     0
102
RTVSPost2010Prop52
140
1.0
102
RTVSPost2010PropOp52
 70
     0
102
RTVSPost2010Prop53
 90
        2
102
RTVSPost2010PropOp53
 70
     1
102
RTVSPost2010Prop54
  1
strokes_ogs.tif
102
RTVSPost2010PropOp54
 70
     1
102
RTVSPost2010Prop55
280
     0
102
RTVSPost2010PropOp55
 70
     1
102
RTVSPost2010Prop56
140
1.0
102
RTVSPost2010PropOp56
 70
     1
102
RTVSPost2010Prop57
140
1.0
102
RTVSPost2010PropOp57
 70
     1
  0
XRECORD
  5
6FD
102
{ACAD_REACTORS
330
6FC
102
}
330
6FC
100
AcDbXrecord
280
     1
102
RTVSPropertyOp0
 70
     1
102
RTVSPropertyOp1
 70
     1
102
RTVSPropertyOp2
 70
     1
102
RTVSPropertyOp3
 70
     1
102
RTVSPropertyOp4
 70
     1
102
RTVSPropertyOp5
 70
     1
102
RTVSPropertyOp6
 70
     1
102
RTVSPropertyOp7
 70
     1
102
RTVSPropertyOp8
 70
     1
102
RTVSPropertyOp9
 70
     1
102
RTVSPropertyOp10
 70
     1
102
RTVSPropertyOp11
 70
     1
102
RTVSPropertyOp12
 70
     1
102
RTVSPropertyOp13
 70
     1
102
RTVSPropertyOp14
 70
     1
102
RTVSPropertyOp15
 70
     1
102
RTVSPropertyOp16
 70
     1
102
RTVSPropertyOp17
 70
     1
102
RTVSPropertyOp18
 70
     1
102
RTVSPropertyOp19
 70
     1
102
RTVSPropertyOp20
 70
     1
102
RTVSPropertyOp21
 70
     1
102
RTVSPropertyOp22
 70
     1
102
RTVSPropertyOp23
 70
     1
102
RTVSPropertyOp24
 70
     1
102
RTVSPropertyOp25
 70
     1
102
RTVSPropertyOp26
 70
     1
102
RTVSPropertyOp27
 70
     1
102
RTVSPropertyOp28
 70
     1
102
RTVSPropertyOp29
 70
     1
102
RTVSPropertyOp30
 70
     1
102
RTVSPropertyOp31
 70
     1
102
RTVSPropertyOp32
 70
     1
102
RTVSPropertyOp33
 70
     1
102
RTVSPropertyOp34
 70
     1
102
RTVSPropertyOp35
 70
     1
102
RTVSPropertyOp36
 70
     1
102
RTVSPropertyOp37
 70
     1
102
RTVSPropertyOp38
 70
     1
102
RTVSPropertyOp39
 70
     1
102
RTVSPropertyOp40
 70
     1
102
RTVSPropertyOp41
 70
     1
102
RTVSPropertyOp42
 70
     1
102
RTVSPropertyOp43
 70
     1
102
RTVSPropertyOp44
 70
     1
102
RTVSPropertyOp45
 70
     1
102
RTVSPropertyOp46
 70
     1
102
RTVSPropertyOp47
 70
     1
102
RTVSPropertyOp48
 70
     1
102
RTVSPropertyOp49
 70
     1
102
RTVSPropertyOp50
 70
     1
102
RTVSPropertyOp51
 70
     0
102
RTVSPropertyOp52
 70
     0
102
RTVSPropertyOp53
 70
     1
102
RTVSPropertyOp54
 70
     1
102
RTVSPropertyOp55
 70
     1
102
RTVSPropertyOp56
 70
     1
102
RTVSPropertyOp57
 70
     1
102
RTVSPost2010Prop28
280
     0
102
RTVSPost2010PropOp28
 70
     1
102
RTVSPost2010Prop29
280
     1
102
RTVSPost2010PropOp29
 70
     1
102
RTVSPost2010Prop30
280
     1
102
RTVSPost2010PropOp30
 70
     1
102
RTVSPost2010Prop31
280
     0
102
RTVSPost2010PropOp31
 70
     1
102
RTVSPost2010Prop32
280
     0
102
RTVSPost2010PropOp32
 70
     1
102
RTVSPost2010Prop33
280
     0
102
RTVSPost2010PropOp33
 70
     1
102
RTVSPost2010Prop34
280
     0
102
RTVSPost2010PropOp34
 70
     1
102
RTVSPost2010Prop35
280
     0
102
RTVSPost2010PropOp35
 70
     1
102
RTVSPost2010Prop36
280
     0
102
RTVSPost2010PropOp36
 70
     1
102
RTVSPost2010Prop37
 90
       50
102
RTVSPost2010PropOp37
 70
     1
102
RTVSPost2010Prop38
140
0.0
102
RTVSPost2010PropOp38
 70
     1
102
RTVSPost2010Prop39
140
1.0
102
RTVSPost2010PropOp39
 70
     1
102
RTVSPost2010Prop40
 90
        0
102
RTVSPost2010PropOp40
 70
     1
102
RTVSPost2010Prop41ColorIndex
 90
       18
102
RTVSPost2010Prop41ColorRGB
 90
        0
102
RTVSPost2010PropOp41
 70
     1
102
RTVSPost2010Prop42
 90
       50
102
RTVSPost2010PropOp42
 70
     1
102
RTVSPost2010Prop43
 90
        3
102
RTVSPost2010PropOp43
 70
     1
102
RTVSPost2010Prop44ColorIndex
 90
        5
102
RTVSPost2010Prop44ColorRGB
 90
      255
102
RTVSPost2010PropOp44
 70
     1
102
RTVSPost2010Prop45
280
     0
102
RTVSPost2010PropOp45
 70
     1
102
RTVSPost2010Prop46
 90
       50
102
RTVSPost2010PropOp46
 70
     1
102
RTVSPost2010Prop47
 90
       50
102
RTVSPost2010PropOp47
 70
     1
102
RTVSPost2010Prop48
 90
       50
102
RTVSPost2010PropOp48
 70
     1
102
RTVSPost2010Prop49
280
     0
102
RTVSPost2010PropOp49
 70
     1
102
RTVSPost2010Prop50
 90
       50
102
RTVSPost2010PropOp50
 70
     1
102
RTVSPost2010Prop51ColorIndex
 90
      256
102
RTVSPost2010Prop51ColorRGB
 90
-16777216
102
RTVSPost2010PropOp51
 70
     0
102
RTVSPost2010Prop52
140
1.0
102
RTVSPost2010PropOp52
 70
     0
102
RTVSPost2010Prop53
 90
        2
102
RTVSPost2010PropOp53
 70
     1
102
RTVSPost2010Prop54
  1
strokes_ogs.tif
102
RTVSPost2010PropOp54
 70
     1
102
RTVSPost2010Prop55
280
     0
102
RTVSPost2010PropOp55
 70
     1
102
RTVSPost2010Prop56
140
1.0
102
RTVSPost2010PropOp56
 70
     1
102
RTVSPost2010Prop57
140
1.0
102
RTVSPost2010PropOp57
 70
     1
  0
XRECORD
  5
6FF
102
{ACAD_REACTORS
330
6FE
102
}
330
6FE
100
AcDbXrecord
280
     1
102
RTVSPropertyOp0
 70
     1
102
RTVSPropertyOp1
 70
     1
102
RTVSPropertyOp2
 70
     1
102
RTVSPropertyOp3
 70
     1
102
RTVSPropertyOp4
 70
     1
102
RTVSPropertyOp5
 70
     1
102
RTVSPropertyOp6
 70
     1
102
RTVSPropertyOp7
 70
     1
102
RTVSPropertyOp8
 70
     1
102
RTVSPropertyOp9
 70
     1
102
RTVSPropertyOp10
 70
     1
102
RTVSPropertyOp11
 70
     1
102
RTVSPropertyOp12
 70
     1
102
RTVSPropertyOp13
 70
     1
102
RTVSPropertyOp14
 70
     1
102
RTVSPropertyOp15
 70
     1
102
RTVSPropertyOp16
 70
     1
102
RTVSPropertyOp17
 70
     1
102
RTVSPropertyOp18
 70
     1
102
RTVSPropertyOp19
 70
     1
102
RTVSPropertyOp20
 70
     1
102
RTVSPropertyOp21
 70
     1
102
RTVSPropertyOp22
 70
     1
102
RTVSPropertyOp23
 70
     1
102
RTVSPropertyOp24
 70
     1
102
RTVSPropertyOp25
 70
     1
102
RTVSPropertyOp26
 70
     1
102
RTVSPropertyOp27
 70
     1
102
RTVSPropertyOp28
 70
     1
102
RTVSPropertyOp29
 70
     1
102
RTVSPropertyOp30
 70
     1
102
RTVSPropertyOp31
 70
     1
102
RTVSPropertyOp32
 70
     1
102
RTVSPropertyOp33
 70
     1
102
RTVSPropertyOp34
 70
     1
102
RTVSPropertyOp35
 70
     1
102
RTVSPropertyOp36
 70
     1
102
RTVSPropertyOp37
 70
     1
102
RTVSPropertyOp38
 70
     1
102
RTVSPropertyOp39
 70
     1
102
RTVSPropertyOp40
 70
     1
102
RTVSPropertyOp41
 70
     1
102
RTVSPropertyOp42
 70
     1
102
RTVSPropertyOp43
 70
     1
102
RTVSPropertyOp44
 70
     1
102
RTVSPropertyOp45
 70
     1
102
RTVSPropertyOp46
 70
     1
102
RTVSPropertyOp47
 70
     1
102
RTVSPropertyOp48
 70
     1
102
RTVSPropertyOp49
 70
     1
102
RTVSPropertyOp50
 70
     1
102
RTVSPropertyOp51
 70
     0
102
RTVSPropertyOp52
 70
     0
102
RTVSPropertyOp53
 70
     1
102
RTVSPropertyOp54
 70
     1
102
RTVSPropertyOp55
 70
     1
102
RTVSPropertyOp56
 70
     1
102
RTVSPropertyOp57
 70
     1
102
RTVSPost2010Prop28
280
     0
102
RTVSPost2010PropOp28
 70
     1
102
RTVSPost2010Prop29
280
     1
102
RTVSPost2010PropOp29
 70
     1
102
RTVSPost2010Prop30
280
     1
102
RTVSPost2010PropOp30
 70
     1
102
RTVSPost2010Prop31
280
     0
102
RTVSPost2010PropOp31
 70
     1
102
RTVSPost2010Prop32
280
     0
102
RTVSPost2010PropOp32
 70
     1
102
RTVSPost2010Prop33
280
     0
102
RTVSPost2010PropOp33
 70
     1
102
RTVSPost2010Prop34
280
     0
102
RTVSPost2010PropOp34
 70
     1
102
RTVSPost2010Prop35
280
     0
102
RTVSPost2010PropOp35
 70
     1
102
RTVSPost2010Prop36
280
     0
102
RTVSPost2010PropOp36
 70
     1
102
RTVSPost2010Prop37
 90
       50
102
RTVSPost2010PropOp37
 70
     1
102
RTVSPost2010Prop38
140
0.0
102
RTVSPost2010PropOp38
 70
     1
102
RTVSPost2010Prop39
140
1.0
102
RTVSPost2010PropOp39
 70
     1
102
RTVSPost2010Prop40
 90
        0
102
RTVSPost2010PropOp40
 70
     1
102
RTVSPost2010Prop41ColorIndex
 90
       18
102
RTVSPost2010Prop41ColorRGB
 90
        0
102
RTVSPost2010PropOp41
 70
     1
102
RTVSPost2010Prop42
 90
       50
102
RTVSPost2010PropOp42
 70
     1
102
RTVSPost2010Prop43
 90
        3
102
RTVSPost2010PropOp43
 70
     1
102
RTVSPost2010Prop44ColorIndex
 90
        5
102
RTVSPost2010Prop44ColorRGB
 90
      255
102
RTVSPost2010PropOp44
 70
     1
102
RTVSPost2010Prop45
280
     0
102
RTVSPost2010PropOp45
 70
     1
102
RTVSPost2010Prop46
 90
       50
102
RTVSPost2010PropOp46
 70
     1
102
RTVSPost2010Prop47
 90
       50
102
RTVSPost2010PropOp47
 70
     1
102
RTVSPost2010Prop48
 90
       50
102
RTVSPost2010PropOp48
 70
     1
102
RTVSPost2010Prop49
280
     0
102
RTVSPost2010PropOp49
 70
     1
102
RTVSPost2010Prop50
 90
       50
102
RTVSPost2010PropOp50
 70
     1
102
RTVSPost2010Prop51ColorIndex
 90
      256
102
RTVSPost2010Prop51ColorRGB
 90
-16777216
102
RTVSPost2010PropOp51
 70
     0
102
RTVSPost2010Prop52
140
1.0
102
RTVSPost2010PropOp52
 70
     0
102
RTVSPost2010Prop53
 90
        2
102
RTVSPost2010PropOp53
 70
     1
102
RTVSPost2010Prop54
  1
strokes_ogs.tif
102
RTVSPost2010PropOp54
 70
     1
102
RTVSPost2010Prop55
280
     0
102
RTVSPost2010PropOp55
 70
     1
102
RTVSPost2010Prop56
140
1.0
102
RTVSPost2010PropOp56
 70
     1
102
RTVSPost2010Prop57
140
1.0
102
RTVSPost2010PropOp57
 70
     1
  0
XRECORD
  5
701
102
{ACAD_REACTORS
330
700
102
}
330
700
100
AcDbXrecord
280
     1
102
RTVSPropertyOp0
 70
     1
102
RTVSPropertyOp1
 70
     1
102
RTVSPropertyOp2
 70
     1
102
RTVSPropertyOp3
 70
     1
102
RTVSPropertyOp4
 70
     1
102
RTVSPropertyOp5
 70
     1
102
RTVSPropertyOp6
 70
     1
102
RTVSPropertyOp7
 70
     1
102
RTVSPropertyOp8
 70
     1
102
RTVSPropertyOp9
 70
     1
102
RTVSPropertyOp10
 70
     1
102
RTVSPropertyOp11
 70
     1
102
RTVSPropertyOp12
 70
     1
102
RTVSPropertyOp13
 70
     1
102
RTVSPropertyOp14
 70
     1
102
RTVSPropertyOp15
 70
     1
102
RTVSPropertyOp16
 70
     1
102
RTVSPropertyOp17
 70
     1
102
RTVSPropertyOp18
 70
     1
102
RTVSPropertyOp19
 70
     1
102
RTVSPropertyOp20
 70
     1
102
RTVSPropertyOp21
 70
     1
102
RTVSPropertyOp22
 70
     1
102
RTVSPropertyOp23
 70
     1
102
RTVSPropertyOp24
 70
     1
102
RTVSPropertyOp25
 70
     1
102
RTVSPropertyOp26
 70
     1
102
RTVSPropertyOp27
 70
     1
102
RTVSPropertyOp28
 70
     1
102
RTVSPropertyOp29
 70
     1
102
RTVSPropertyOp30
 70
     1
102
RTVSPropertyOp31
 70
     1
102
RTVSPropertyOp32
 70
     1
102
RTVSPropertyOp33
 70
     1
102
RTVSPropertyOp34
 70
     1
102
RTVSPropertyOp35
 70
     1
102
RTVSPropertyOp36
 70
     1
102
RTVSPropertyOp37
 70
     1
102
RTVSPropertyOp38
 70
     1
102
RTVSPropertyOp39
 70
     1
102
RTVSPropertyOp40
 70
     1
102
RTVSPropertyOp41
 70
     1
102
RTVSPropertyOp42
 70
     1
102
RTVSPropertyOp43
 70
     1
102
RTVSPropertyOp44
 70
     1
102
RTVSPropertyOp45
 70
     1
102
RTVSPropertyOp46
 70
     1
102
RTVSPropertyOp47
 70
     1
102
RTVSPropertyOp48
 70
     1
102
RTVSPropertyOp49
 70
     1
102
RTVSPropertyOp50
 70
     1
102
RTVSPropertyOp51
 70
     0
102
RTVSPropertyOp52
 70
     0
102
RTVSPropertyOp53
 70
     1
102
RTVSPropertyOp54
 70
     1
102
RTVSPropertyOp55
 70
     1
102
RTVSPropertyOp56
 70
     1
102
RTVSPropertyOp57
 70
     1
102
RTVSPost2010Prop28
280
     0
102
RTVSPost2010PropOp28
 70
     1
102
RTVSPost2010Prop29
280
     1
102
RTVSPost2010PropOp29
 70
     1
102
RTVSPost2010Prop30
280
     1
102
RTVSPost2010PropOp30
 70
     1
102
RTVSPost2010Prop31
280
     0
102
RTVSPost2010PropOp31
 70
     1
102
RTVSPost2010Prop32
280
     0
102
RTVSPost2010PropOp32
 70
     1
102
RTVSPost2010Prop33
280
     0
102
RTVSPost2010PropOp33
 70
     1
102
RTVSPost2010Prop34
280
     0
102
RTVSPost2010PropOp34
 70
     1
102
RTVSPost2010Prop35
280
     0
102
RTVSPost2010PropOp35
 70
     1
102
RTVSPost2010Prop36
280
     0
102
RTVSPost2010PropOp36
 70
     1
102
RTVSPost2010Prop37
 90
       50
102
RTVSPost2010PropOp37
 70
     1
102
RTVSPost2010Prop38
140
0.0
102
RTVSPost2010PropOp38
 70
     1
102
RTVSPost2010Prop39
140
1.0
102
RTVSPost2010PropOp39
 70
     1
102
RTVSPost2010Prop40
 90
        0
102
RTVSPost2010PropOp40
 70
     1
102
RTVSPost2010Prop41ColorIndex
 90
       18
102
RTVSPost2010Prop41ColorRGB
 90
        0
102
RTVSPost2010PropOp41
 70
     1
102
RTVSPost2010Prop42
 90
       50
102
RTVSPost2010PropOp42
 70
     1
102
RTVSPost2010Prop43
 90
        3
102
RTVSPost2010PropOp43
 70
     1
102
RTVSPost2010Prop44ColorIndex
 90
        5
102
RTVSPost2010Prop44ColorRGB
 90
      255
102
RTVSPost2010PropOp44
 70
     1
102
RTVSPost2010Prop45
280
     0
102
RTVSPost2010PropOp45
 70
     1
102
RTVSPost2010Prop46
 90
       50
102
RTVSPost2010PropOp46
 70
     1
102
RTVSPost2010Prop47
 90
       50
102
RTVSPost2010PropOp47
 70
     1
102
RTVSPost2010Prop48
 90
       50
102
RTVSPost2010PropOp48
 70
     1
102
RTVSPost2010Prop49
280
     0
102
RTVSPost2010PropOp49
 70
     1
102
RTVSPost2010Prop50
 90
       50
102
RTVSPost2010PropOp50
 70
     1
102
RTVSPost2010Prop51ColorIndex
 90
      256
102
RTVSPost2010Prop51ColorRGB
 90
-16777216
102
RTVSPost2010PropOp51
 70
     0
102
RTVSPost2010Prop52
140
1.0
102
RTVSPost2010PropOp52
 70
     0
102
RTVSPost2010Prop53
 90
        2
102
RTVSPost2010PropOp53
 70
     1
102
RTVSPost2010Prop54
  1
strokes_ogs.tif
102
RTVSPost2010PropOp54
 70
     1
102
RTVSPost2010Prop55
280
     0
102
RTVSPost2010PropOp55
 70
     1
102
RTVSPost2010Prop56
140
1.0
102
RTVSPost2010PropOp56
 70
     1
102
RTVSPost2010Prop57
140
1.0
102
RTVSPost2010PropOp57
 70
     1
  0
XRECORD
  5
707
102
{ACAD_REACTORS
330
706
102
}
330
706
100
AcDbXrecord
280
     1
102
RTVSPropertyOp0
 70
     1
102
RTVSPropertyOp1
 70
     1
102
RTVSPropertyOp2
 70
     1
102
RTVSPropertyOp3
 70
     1
102
RTVSPropertyOp4
 70
     1
102
RTVSPropertyOp5
 70
     1
102
RTVSPropertyOp6
 70
     1
102
RTVSPropertyOp7
 70
     1
102
RTVSPropertyOp8
 70
     1
102
RTVSPropertyOp9
 70
     1
102
RTVSPropertyOp10
 70
     1
102
RTVSPropertyOp11
 70
     1
102
RTVSPropertyOp12
 70
     1
102
RTVSPropertyOp13
 70
     1
102
RTVSPropertyOp14
 70
     1
102
RTVSPropertyOp15
 70
     1
102
RTVSPropertyOp16
 70
     1
102
RTVSPropertyOp17
 70
     1
102
RTVSPropertyOp18
 70
     1
102
RTVSPropertyOp19
 70
     1
102
RTVSPropertyOp20
 70
     1
102
RTVSPropertyOp21
 70
     1
102
RTVSPropertyOp22
 70
     1
102
RTVSPropertyOp23
 70
     1
102
RTVSPropertyOp24
 70
     1
102
RTVSPropertyOp25
 70
     1
102
RTVSPropertyOp26
 70
     1
102
RTVSPropertyOp27
 70
     1
102
RTVSPropertyOp28
 70
     1
102
RTVSPropertyOp29
 70
     1
102
RTVSPropertyOp30
 70
     1
102
RTVSPropertyOp31
 70
     1
102
RTVSPropertyOp32
 70
     1
102
RTVSPropertyOp33
 70
     1
102
RTVSPropertyOp34
 70
     1
102
RTVSPropertyOp35
 70
     1
102
RTVSPropertyOp36
 70
     1
102
RTVSPropertyOp37
 70
     1
102
RTVSPropertyOp38
 70
     1
102
RTVSPropertyOp39
 70
     1
102
RTVSPropertyOp40
 70
     1
102
RTVSPropertyOp41
 70
     1
102
RTVSPropertyOp42
 70
     1
102
RTVSPropertyOp43
 70
     1
102
RTVSPropertyOp44
 70
     1
102
RTVSPropertyOp45
 70
     1
102
RTVSPropertyOp46
 70
     1
102
RTVSPropertyOp47
 70
     1
102
RTVSPropertyOp48
 70
     1
102
RTVSPropertyOp49
 70
     1
102
RTVSPropertyOp50
 70
     1
102
RTVSPropertyOp51
 70
     0
102
RTVSPropertyOp52
 70
     0
102
RTVSPropertyOp53
 70
     1
102
RTVSPropertyOp54
 70
     1
102
RTVSPropertyOp55
 70
     1
102
RTVSPropertyOp56
 70
     1
102
RTVSPropertyOp57
 70
     1
102
RTVSPost2010Prop28
280
     0
102
RTVSPost2010PropOp28
 70
     1
102
RTVSPost2010Prop29
280
     1
102
RTVSPost2010PropOp29
 70
     1
102
RTVSPost2010Prop30
280
     1
102
RTVSPost2010PropOp30
 70
     1
102
RTVSPost2010Prop31
280
     0
102
RTVSPost2010PropOp31
 70
     1
102
RTVSPost2010Prop32
280
     0
102
RTVSPost2010PropOp32
 70
     1
102
RTVSPost2010Prop33
280
     0
102
RTVSPost2010PropOp33
 70
     1
102
RTVSPost2010Prop34
280
     0
102
RTVSPost2010PropOp34
 70
     1
102
RTVSPost2010Prop35
280
     0
102
RTVSPost2010PropOp35
 70
     1
102
RTVSPost2010Prop36
280
     0
102
RTVSPost2010PropOp36
 70
     1
102
RTVSPost2010Prop37
 90
       50
102
RTVSPost2010PropOp37
 70
     1
102
RTVSPost2010Prop38
140
0.0
102
RTVSPost2010PropOp38
 70
     1
102
RTVSPost2010Prop39
140
1.0
102
RTVSPost2010PropOp39
 70
     1
102
RTVSPost2010Prop40
 90
        0
102
RTVSPost2010PropOp40
 70
     1
102
RTVSPost2010Prop41ColorIndex
 90
       18
102
RTVSPost2010Prop41ColorRGB
 90
        0
102
RTVSPost2010PropOp41
 70
     1
102
RTVSPost2010Prop42
 90
       50
102
RTVSPost2010PropOp42
 70
     1
102
RTVSPost2010Prop43
 90
        3
102
RTVSPost2010PropOp43
 70
     1
102
RTVSPost2010Prop44ColorIndex
 90
        5
102
RTVSPost2010Prop44ColorRGB
 90
      255
102
RTVSPost2010PropOp44
 70
     1
102
RTVSPost2010Prop45
280
     0
102
RTVSPost2010PropOp45
 70
     1
102
RTVSPost2010Prop46
 90
       50
102
RTVSPost2010PropOp46
 70
     1
102
RTVSPost2010Prop47
 90
       50
102
RTVSPost2010PropOp47
 70
     1
102
RTVSPost2010Prop48
 90
       50
102
RTVSPost2010PropOp48
 70
     1
102
RTVSPost2010Prop49
280
     0
102
RTVSPost2010PropOp49
 70
     1
102
RTVSPost2010Prop50
 90
       50
102
RTVSPost2010PropOp50
 70
     1
102
RTVSPost2010Prop51ColorIndex
 90
      256
102
RTVSPost2010Prop51ColorRGB
 90
-16777216
102
RTVSPost2010PropOp51
 70
     0
102
RTVSPost2010Prop52
140
1.0
102
RTVSPost2010PropOp52
 70
     0
102
RTVSPost2010Prop53
 90
        2
102
RTVSPost2010PropOp53
 70
     1
102
RTVSPost2010Prop54
  1
strokes_ogs.tif
102
RTVSPost2010PropOp54
 70
     1
102
RTVSPost2010Prop55
280
     0
102
RTVSPost2010PropOp55
 70
     1
102
RTVSPost2010Prop56
140
1.0
102
RTVSPost2010PropOp56
 70
     1
102
RTVSPost2010Prop57
140
1.0
102
RTVSPost2010PropOp57
 70
     1
  0
XRECORD
  5
71B
102
{ACAD_REACTORS
330
71A
102
}
330
71A
100
AcDbXrecord
280
     1
102
RTVSPropertyOp0
 70
     0
102
RTVSPropertyOp1
 70
     0
102
RTVSPropertyOp2
 70
     0
102
RTVSPropertyOp3
 70
     0
102
RTVSPropertyOp4
 70
     0
102
RTVSPropertyOp5
 70
     0
102
RTVSPropertyOp6
 70
     0
102
RTVSPropertyOp7
 70
     0
102
RTVSPropertyOp8
 70
     0
102
RTVSPropertyOp9
 70
     0
102
RTVSPropertyOp10
 70
     0
102
RTVSPropertyOp11
 70
     0
102
RTVSPropertyOp12
 70
     0
102
RTVSPropertyOp13
 70
     0
102
RTVSPropertyOp14
 70
     2
102
RTVSPropertyOp15
 70
     0
102
RTVSPropertyOp16
 70
     0
102
RTVSPropertyOp17
 70
     0
102
RTVSPropertyOp18
 70
     0
102
RTVSPropertyOp19
 70
     0
102
RTVSPropertyOp20
 70
     0
102
RTVSPropertyOp21
 70
     0
102
RTVSPropertyOp22
 70
     0
102
RTVSPropertyOp23
 70
     0
102
RTVSPropertyOp24
 70
     0
102
RTVSPropertyOp25
 70
     0
102
RTVSPropertyOp26
 70
     0
102
RTVSPropertyOp27
 70
     0
102
RTVSPropertyOp28
 70
     0
102
RTVSPropertyOp29
 70
     0
102
RTVSPropertyOp30
 70
     0
102
RTVSPropertyOp31
 70
     0
102
RTVSPropertyOp32
 70
     0
102
RTVSPropertyOp33
 70
     0
102
RTVSPropertyOp34
 70
     0
102
RTVSPropertyOp35
 70
     0
102
RTVSPropertyOp36
 70
     0
102
RTVSPropertyOp37
 70
     0
102
RTVSPropertyOp38
 70
     0
102
RTVSPropertyOp39
 70
     0
102
RTVSPropertyOp40
 70
     0
102
RTVSPropertyOp41
 70
     0
102
RTVSPropertyOp42
 70
     0
102
RTVSPropertyOp43
 70
     0
102
RTVSPropertyOp44
 70
     0
102
RTVSPropertyOp45
 70
     0
102
RTVSPropertyOp46
 70
     0
102
RTVSPropertyOp47
 70
     0
102
RTVSPropertyOp48
 70
     0
102
RTVSPropertyOp49
 70
     0
102
RTVSPropertyOp50
 70
     0
102
RTVSPropertyOp51
 70
     0
102
RTVSPropertyOp52
 70
     0
102
RTVSPropertyOp53
 70
     0
102
RTVSPropertyOp54
 70
     0
102
RTVSPropertyOp55
 70
     0
102
RTVSPropertyOp56
 70
     0
102
RTVSPropertyOp57
 70
     0
102
RTVSPost2010Prop28
280
     0
102
RTVSPost2010PropOp28
 70
     0
102
RTVSPost2010Prop29
280
     1
102
RTVSPost2010PropOp29
 70
     0
102
RTVSPost2010Prop30
280
     1
102
RTVSPost2010PropOp30
 70
     0
102
RTVSPost2010Prop31
280
     0
102
RTVSPost2010PropOp31
 70
     0
102
RTVSPost2010Prop32
280
     0
102
RTVSPost2010PropOp32
 70
     0
102
RTVSPost2010Prop33
280
     0
102
RTVSPost2010PropOp33
 70
     0
102
RTVSPost2010Prop34
280
     0
102
RTVSPost2010PropOp34
 70
     0
102
RTVSPost2010Prop35
280
     0
102
RTVSPost2010PropOp35
 70
     0
102
RTVSPost2010Prop36
280
     0
102
RTVSPost2010PropOp36
 70
     0
102
RTVSPost2010Prop37
 90
       50
102
RTVSPost2010PropOp37
 70
     0
102
RTVSPost2010Prop38
140
0.0
102
RTVSPost2010PropOp38
 70
     0
102
RTVSPost2010Prop39
140
1.0
102
RTVSPost2010PropOp39
 70
     0
102
RTVSPost2010Prop40
 90
        0
102
RTVSPost2010PropOp40
 70
     0
102
RTVSPost2010Prop41ColorIndex
 90
       18
102
RTVSPost2010Prop41ColorRGB
 90
        0
102
RTVSPost2010PropOp41
 70
     0
102
RTVSPost2010Prop42
 90
       50
102
RTVSPost2010PropOp42
 70
     0
102
RTVSPost2010Prop43
 90
        3
102
RTVSPost2010PropOp43
 70
     0
102
RTVSPost2010Prop44ColorIndex
 90
        5
102
RTVSPost2010Prop44ColorRGB
 90
      255
102
RTVSPost2010PropOp44
 70
     0
102
RTVSPost2010Prop45
280
     0
102
RTVSPost2010PropOp45
 70
     0
102
RTVSPost2010Prop46
 90
       50
102
RTVSPost2010PropOp46
 70
     0
102
RTVSPost2010Prop47
 90
       50
102
RTVSPost2010PropOp47
 70
     0
102
RTVSPost2010Prop48
 90
       50
102
RTVSPost2010PropOp48
 70
     0
102
RTVSPost2010Prop49
280
     0
102
RTVSPost2010PropOp49
 70
     0
102
RTVSPost2010Prop50
 90
       50
102
RTVSPost2010PropOp50
 70
     0
102
RTVSPost2010Prop51ColorIndex
 90
      256
102
RTVSPost2010Prop51ColorRGB
 90
-16777216
102
RTVSPost2010PropOp51
 70
     0
102
RTVSPost2010Prop52
140
1.0
102
RTVSPost2010PropOp52
 70
     0
102
RTVSPost2010Prop53
 90
        2
102
RTVSPost2010PropOp53
 70
     0
102
RTVSPost2010Prop54
  1
strokes_ogs.tif
102
RTVSPost2010PropOp54
 70
     0
102
RTVSPost2010Prop55
280
     0
102
RTVSPost2010PropOp55
 70
     0
102
RTVSPost2010Prop56
140
1.0
102
RTVSPost2010PropOp56
 70
     0
102
RTVSPost2010Prop57
140
1.0
102
RTVSPost2010PropOp57
 70
     0
  0
XRECORD
  5
715
102
{ACAD_REACTORS
330
714
102
}
330
714
100
AcDbXrecord
280
     1
102
RTVSPropertyOp0
 70
     1
102
RTVSPropertyOp1
 70
     1
102
RTVSPropertyOp2
 70
     1
102
RTVSPropertyOp3
 70
     1
102
RTVSPropertyOp4
 70
     1
102
RTVSPropertyOp5
 70
     1
102
RTVSPropertyOp6
 70
     1
102
RTVSPropertyOp7
 70
     1
102
RTVSPropertyOp8
 70
     1
102
RTVSPropertyOp9
 70
     1
102
RTVSPropertyOp10
 70
     1
102
RTVSPropertyOp11
 70
     1
102
RTVSPropertyOp12
 70
     1
102
RTVSPropertyOp13
 70
     1
102
RTVSPropertyOp14
 70
     1
102
RTVSPropertyOp15
 70
     1
102
RTVSPropertyOp16
 70
     1
102
RTVSPropertyOp17
 70
     1
102
RTVSPropertyOp18
 70
     1
102
RTVSPropertyOp19
 70
     1
102
RTVSPropertyOp20
 70
     1
102
RTVSPropertyOp21
 70
     1
102
RTVSPropertyOp22
 70
     1
102
RTVSPropertyOp23
 70
     1
102
RTVSPropertyOp24
 70
     1
102
RTVSPropertyOp25
 70
     1
102
RTVSPropertyOp26
 70
     1
102
RTVSPropertyOp27
 70
     1
102
RTVSPropertyOp28
 70
     1
102
RTVSPropertyOp29
 70
     1
102
RTVSPropertyOp30
 70
     1
102
RTVSPropertyOp31
 70
     1
102
RTVSPropertyOp32
 70
     1
102
RTVSPropertyOp33
 70
     1
102
RTVSPropertyOp34
 70
     1
102
RTVSPropertyOp35
 70
     1
102
RTVSPropertyOp36
 70
     1
102
RTVSPropertyOp37
 70
     1
102
RTVSPropertyOp38
 70
     1
102
RTVSPropertyOp39
 70
     1
102
RTVSPropertyOp40
 70
     1
102
RTVSPropertyOp41
 70
     1
102
RTVSPropertyOp42
 70
     1
102
RTVSPropertyOp43
 70
     1
102
RTVSPropertyOp44
 70
     1
102
RTVSPropertyOp45
 70
     1
102
RTVSPropertyOp46
 70
     1
102
RTVSPropertyOp47
 70
     1
102
RTVSPropertyOp48
 70
     1
102
RTVSPropertyOp49
 70
     1
102
RTVSPropertyOp50
 70
     1
102
RTVSPropertyOp51
 70
     0
102
RTVSPropertyOp52
 70
     0
102
RTVSPropertyOp53
 70
     1
102
RTVSPropertyOp54
 70
     1
102
RTVSPropertyOp55
 70
     1
102
RTVSPropertyOp56
 70
     1
102
RTVSPropertyOp57
 70
     1
102
RTVSPost2010Prop28
280
     0
102
RTVSPost2010PropOp28
 70
     1
102
RTVSPost2010Prop29
280
     1
102
RTVSPost2010PropOp29
 70
     1
102
RTVSPost2010Prop30
280
     1
102
RTVSPost2010PropOp30
 70
     1
102
RTVSPost2010Prop31
280
     0
102
RTVSPost2010PropOp31
 70
     1
102
RTVSPost2010Prop32
280
     0
102
RTVSPost2010PropOp32
 70
     1
102
RTVSPost2010Prop33
280
     0
102
RTVSPost2010PropOp33
 70
     1
102
RTVSPost2010Prop34
280
     0
102
RTVSPost2010PropOp34
 70
     1
102
RTVSPost2010Prop35
280
     0
102
RTVSPost2010PropOp35
 70
     1
102
RTVSPost2010Prop36
280
     0
102
RTVSPost2010PropOp36
 70
     1
102
RTVSPost2010Prop37
 90
       50
102
RTVSPost2010PropOp37
 70
     1
102
RTVSPost2010Prop38
140
0.0
102
RTVSPost2010PropOp38
 70
     1
102
RTVSPost2010Prop39
140
1.0
102
RTVSPost2010PropOp39
 70
     1
102
RTVSPost2010Prop40
 90
        0
102
RTVSPost2010PropOp40
 70
     1
102
RTVSPost2010Prop41ColorIndex
 90
       18
102
RTVSPost2010Prop41ColorRGB
 90
        0
102
RTVSPost2010PropOp41
 70
     1
102
RTVSPost2010Prop42
 90
       50
102
RTVSPost2010PropOp42
 70
     1
102
RTVSPost2010Prop43
 90
        3
102
RTVSPost2010PropOp43
 70
     1
102
RTVSPost2010Prop44ColorIndex
 90
        5
102
RTVSPost2010Prop44ColorRGB
 90
      255
102
RTVSPost2010PropOp44
 70
     1
102
RTVSPost2010Prop45
280
     0
102
RTVSPost2010PropOp45
 70
     1
102
RTVSPost2010Prop46
 90
       50
102
RTVSPost2010PropOp46
 70
     1
102
RTVSPost2010Prop47
 90
       50
102
RTVSPost2010PropOp47
 70
     1
102
RTVSPost2010Prop48
 90
       50
102
RTVSPost2010PropOp48
 70
     1
102
RTVSPost2010Prop49
280
     0
102
RTVSPost2010PropOp49
 70
     1
102
RTVSPost2010Prop50
 90
       50
102
RTVSPost2010PropOp50
 70
     1
102
RTVSPost2010Prop51ColorIndex
 90
      256
102
RTVSPost2010Prop51ColorRGB
 90
-16777216
102
RTVSPost2010PropOp51
 70
     0
102
RTVSPost2010Prop52
140
1.0
102
RTVSPost2010PropOp52
 70
     0
102
RTVSPost2010Prop53
 90
        2
102
RTVSPost2010PropOp53
 70
     1
102
RTVSPost2010Prop54
  1
strokes_ogs.tif
102
RTVSPost2010PropOp54
 70
     1
102
RTVSPost2010Prop55
280
     0
102
RTVSPost2010PropOp55
 70
     1
102
RTVSPost2010Prop56
140
1.0
102
RTVSPost2010PropOp56
 70
     1
102
RTVSPost2010Prop57
140
1.0
102
RTVSPost2010PropOp57
 70
     1
  0
XRECORD
  5
71D
102
{ACAD_REACTORS
330
71C
102
}
330
71C
100
AcDbXrecord
280
     1
102
RTVSPropertyOp0
 70
     0
102
RTVSPropertyOp1
 70
     0
102
RTVSPropertyOp2
 70
     0
102
RTVSPropertyOp3
 70
     0
102
RTVSPropertyOp4
 70
     0
102
RTVSPropertyOp5
 70
     0
102
RTVSPropertyOp6
 70
     0
102
RTVSPropertyOp7
 70
     0
102
RTVSPropertyOp8
 70
     0
102
RTVSPropertyOp9
 70
     0
102
RTVSPropertyOp10
 70
     0
102
RTVSPropertyOp11
 70
     0
102
RTVSPropertyOp12
 70
     0
102
RTVSPropertyOp13
 70
     0
102
RTVSPropertyOp14
 70
     2
102
RTVSPropertyOp15
 70
     0
102
RTVSPropertyOp16
 70
     0
102
RTVSPropertyOp17
 70
     0
102
RTVSPropertyOp18
 70
     0
102
RTVSPropertyOp19
 70
     0
102
RTVSPropertyOp20
 70
     0
102
RTVSPropertyOp21
 70
     0
102
RTVSPropertyOp22
 70
     0
102
RTVSPropertyOp23
 70
     0
102
RTVSPropertyOp24
 70
     0
102
RTVSPropertyOp25
 70
     0
102
RTVSPropertyOp26
 70
     0
102
RTVSPropertyOp27
 70
     0
102
RTVSPropertyOp28
 70
     0
102
RTVSPropertyOp29
 70
     0
102
RTVSPropertyOp30
 70
     0
102
RTVSPropertyOp31
 70
     0
102
RTVSPropertyOp32
 70
     0
102
RTVSPropertyOp33
 70
     0
102
RTVSPropertyOp34
 70
     0
102
RTVSPropertyOp35
 70
     0
102
RTVSPropertyOp36
 70
     0
102
RTVSPropertyOp37
 70
     0
102
RTVSPropertyOp38
 70
     0
102
RTVSPropertyOp39
 70
     0
102
RTVSPropertyOp40
 70
     0
102
RTVSPropertyOp41
 70
     0
102
RTVSPropertyOp42
 70
     0
102
RTVSPropertyOp43
 70
     0
102
RTVSPropertyOp44
 70
     0
102
RTVSPropertyOp45
 70
     0
102
RTVSPropertyOp46
 70
     0
102
RTVSPropertyOp47
 70
     0
102
RTVSPropertyOp48
 70
     0
102
RTVSPropertyOp49
 70
     0
102
RTVSPropertyOp50
 70
     0
102
RTVSPropertyOp51
 70
     0
102
RTVSPropertyOp52
 70
     0
102
RTVSPropertyOp53
 70
     0
102
RTVSPropertyOp54
 70
     0
102
RTVSPropertyOp55
 70
     0
102
RTVSPropertyOp56
 70
     0
102
RTVSPropertyOp57
 70
     0
102
RTVSPost2010Prop28
280
     0
102
RTVSPost2010PropOp28
 70
     0
102
RTVSPost2010Prop29
280
     1
102
RTVSPost2010PropOp29
 70
     0
102
RTVSPost2010Prop30
280
     1
102
RTVSPost2010PropOp30
 70
     0
102
RTVSPost2010Prop31
280
     0
102
RTVSPost2010PropOp31
 70
     0
102
RTVSPost2010Prop32
280
     0
102
RTVSPost2010PropOp32
 70
     0
102
RTVSPost2010Prop33
280
     0
102
RTVSPost2010PropOp33
 70
     0
102
RTVSPost2010Prop34
280
     0
102
RTVSPost2010PropOp34
 70
     0
102
RTVSPost2010Prop35
280
     0
102
RTVSPost2010PropOp35
 70
     0
102
RTVSPost2010Prop36
280
     0
102
RTVSPost2010PropOp36
 70
     0
102
RTVSPost2010Prop37
 90
       50
102
RTVSPost2010PropOp37
 70
     0
102
RTVSPost2010Prop38
140
0.0
102
RTVSPost2010PropOp38
 70
     0
102
RTVSPost2010Prop39
140
1.0
102
RTVSPost2010PropOp39
 70
     0
102
RTVSPost2010Prop40
 90
        0
102
RTVSPost2010PropOp40
 70
     0
102
RTVSPost2010Prop41ColorIndex
 90
       18
102
RTVSPost2010Prop41ColorRGB
 90
        0
102
RTVSPost2010PropOp41
 70
     0
102
RTVSPost2010Prop42
 90
       50
102
RTVSPost2010PropOp42
 70
     0
102
RTVSPost2010Prop43
 90
        3
102
RTVSPost2010PropOp43
 70
     0
102
RTVSPost2010Prop44ColorIndex
 90
        5
102
RTVSPost2010Prop44ColorRGB
 90
      255
102
RTVSPost2010PropOp44
 70
     0
102
RTVSPost2010Prop45
280
     0
102
RTVSPost2010PropOp45
 70
     0
102
RTVSPost2010Prop46
 90
       50
102
RTVSPost2010PropOp46
 70
     0
102
RTVSPost2010Prop47
 90
       50
102
RTVSPost2010PropOp47
 70
     0
102
RTVSPost2010Prop48
 90
       50
102
RTVSPost2010PropOp48
 70
     0
102
RTVSPost2010Prop49
280
     0
102
RTVSPost2010PropOp49
 70
     0
102
RTVSPost2010Prop50
 90
       50
102
RTVSPost2010PropOp50
 70
     0
102
RTVSPost2010Prop51ColorIndex
 90
      256
102
RTVSPost2010Prop51ColorRGB
 90
-16777216
102
RTVSPost2010PropOp51
 70
     0
102
RTVSPost2010Prop52
140
1.0
102
RTVSPost2010PropOp52
 70
     0
102
RTVSPost2010Prop53
 90
        2
102
RTVSPost2010PropOp53
 70
     0
102
RTVSPost2010Prop54
  1
strokes_ogs.tif
102
RTVSPost2010PropOp54
 70
     0
102
RTVSPost2010Prop55
280
     0
102
RTVSPost2010PropOp55
 70
     0
102
RTVSPost2010Prop56
140
1.0
102
RTVSPost2010PropOp56
 70
     0
102
RTVSPost2010Prop57
140
1.0
102
RTVSPost2010PropOp57
 70
     0
  0
XRECORD
  5
70B
102
{ACAD_REACTORS
330
70A
102
}
330
70A
100
AcDbXrecord
280
     1
102
RTVSPropertyOp0
 70
     1
102
RTVSPropertyOp1
 70
     1
102
RTVSPropertyOp2
 70
     1
102
RTVSPropertyOp3
 70
     1
102
RTVSPropertyOp4
 70
     1
102
RTVSPropertyOp5
 70
     1
102
RTVSPropertyOp6
 70
     1
102
RTVSPropertyOp7
 70
     1
102
RTVSPropertyOp8
 70
     1
102
RTVSPropertyOp9
 70
     1
102
RTVSPropertyOp10
 70
     1
102
RTVSPropertyOp11
 70
     1
102
RTVSPropertyOp12
 70
     1
102
RTVSPropertyOp13
 70
     1
102
RTVSPropertyOp14
 70
     1
102
RTVSPropertyOp15
 70
     1
102
RTVSPropertyOp16
 70
     1
102
RTVSPropertyOp17
 70
     1
102
RTVSPropertyOp18
 70
     1
102
RTVSPropertyOp19
 70
     1
102
RTVSPropertyOp20
 70
     1
102
RTVSPropertyOp21
 70
     1
102
RTVSPropertyOp22
 70
     1
102
RTVSPropertyOp23
 70
     1
102
RTVSPropertyOp24
 70
     1
102
RTVSPropertyOp25
 70
     1
102
RTVSPropertyOp26
 70
     1
102
RTVSPropertyOp27
 70
     1
102
RTVSPropertyOp28
 70
     1
102
RTVSPropertyOp29
 70
     1
102
RTVSPropertyOp30
 70
     1
102
RTVSPropertyOp31
 70
     1
102
RTVSPropertyOp32
 70
     1
102
RTVSPropertyOp33
 70
     1
102
RTVSPropertyOp34
 70
     1
102
RTVSPropertyOp35
 70
     1
102
RTVSPropertyOp36
 70
     1
102
RTVSPropertyOp37
 70
     1
102
RTVSPropertyOp38
 70
     1
102
RTVSPropertyOp39
 70
     1
102
RTVSPropertyOp40
 70
     1
102
RTVSPropertyOp41
 70
     1
102
RTVSPropertyOp42
 70
     1
102
RTVSPropertyOp43
 70
     1
102
RTVSPropertyOp44
 70
     1
102
RTVSPropertyOp45
 70
     1
102
RTVSPropertyOp46
 70
     1
102
RTVSPropertyOp47
 70
     1
102
RTVSPropertyOp48
 70
     1
102
RTVSPropertyOp49
 70
     1
102
RTVSPropertyOp50
 70
     1
102
RTVSPropertyOp51
 70
     0
102
RTVSPropertyOp52
 70
     0
102
RTVSPropertyOp53
 70
     1
102
RTVSPropertyOp54
 70
     1
102
RTVSPropertyOp55
 70
     1
102
RTVSPropertyOp56
 70
     1
102
RTVSPropertyOp57
 70
     1
102
RTVSPost2010Prop28
280
     0
102
RTVSPost2010PropOp28
 70
     1
102
RTVSPost2010Prop29
280
     1
102
RTVSPost2010PropOp29
 70
     1
102
RTVSPost2010Prop30
280
     1
102
RTVSPost2010PropOp30
 70
     1
102
RTVSPost2010Prop31
280
     0
102
RTVSPost2010PropOp31
 70
     1
102
RTVSPost2010Prop32
280
     0
102
RTVSPost2010PropOp32
 70
     1
102
RTVSPost2010Prop33
280
     0
102
RTVSPost2010PropOp33
 70
     1
102
RTVSPost2010Prop34
280
     0
102
RTVSPost2010PropOp34
 70
     1
102
RTVSPost2010Prop35
280
     0
102
RTVSPost2010PropOp35
 70
     1
102
RTVSPost2010Prop36
280
     0
102
RTVSPost2010PropOp36
 70
     1
102
RTVSPost2010Prop37
 90
       50
102
RTVSPost2010PropOp37
 70
     1
102
RTVSPost2010Prop38
140
0.0
102
RTVSPost2010PropOp38
 70
     1
102
RTVSPost2010Prop39
140
1.0
102
RTVSPost2010PropOp39
 70
     1
102
RTVSPost2010Prop40
 90
        0
102
RTVSPost2010PropOp40
 70
     1
102
RTVSPost2010Prop41ColorIndex
 90
       18
102
RTVSPost2010Prop41ColorRGB
 90
        0
102
RTVSPost2010PropOp41
 70
     1
102
RTVSPost2010Prop42
 90
       50
102
RTVSPost2010PropOp42
 70
     1
102
RTVSPost2010Prop43
 90
        3
102
RTVSPost2010PropOp43
 70
     1
102
RTVSPost2010Prop44ColorIndex
 90
        5
102
RTVSPost2010Prop44ColorRGB
 90
      255
102
RTVSPost2010PropOp44
 70
     1
102
RTVSPost2010Prop45
280
     0
102
RTVSPost2010PropOp45
 70
     1
102
RTVSPost2010Prop46
 90
       50
102
RTVSPost2010PropOp46
 70
     1
102
RTVSPost2010Prop47
 90
       50
102
RTVSPost2010PropOp47
 70
     1
102
RTVSPost2010Prop48
 90
       50
102
RTVSPost2010PropOp48
 70
     1
102
RTVSPost2010Prop49
280
     0
102
RTVSPost2010PropOp49
 70
     1
102
RTVSPost2010Prop50
 90
       50
102
RTVSPost2010PropOp50
 70
     1
102
RTVSPost2010Prop51ColorIndex
 90
      256
102
RTVSPost2010Prop51ColorRGB
 90
-16777216
102
RTVSPost2010PropOp51
 70
     0
102
RTVSPost2010Prop52
140
1.0
102
RTVSPost2010PropOp52
 70
     0
102
RTVSPost2010Prop53
 90
        2
102
RTVSPost2010PropOp53
 70
     1
102
RTVSPost2010Prop54
  1
strokes_ogs.tif
102
RTVSPost2010PropOp54
 70
     1
102
RTVSPost2010Prop55
280
     0
102
RTVSPost2010PropOp55
 70
     1
102
RTVSPost2010Prop56
140
1.0
102
RTVSPost2010PropOp56
 70
     1
102
RTVSPost2010Prop57
140
1.0
102
RTVSPost2010PropOp57
 70
     1
  0
XRECORD
  5
729
102
{ACAD_REACTORS
330
728
102
}
330
728
100
AcDbXrecord
280
     1
102
RTVSPropertyOp0
 70
     1
102
RTVSPropertyOp1
 70
     1
102
RTVSPropertyOp2
 70
     1
102
RTVSPropertyOp3
 70
     1
102
RTVSPropertyOp4
 70
     1
102
RTVSPropertyOp5
 70
     1
102
RTVSPropertyOp6
 70
     1
102
RTVSPropertyOp7
 70
     1
102
RTVSPropertyOp8
 70
     1
102
RTVSPropertyOp9
 70
     1
102
RTVSPropertyOp10
 70
     1
102
RTVSPropertyOp11
 70
     1
102
RTVSPropertyOp12
 70
     1
102
RTVSPropertyOp13
 70
     1
102
RTVSPropertyOp14
 70
     1
102
RTVSPropertyOp15
 70
     1
102
RTVSPropertyOp16
 70
     1
102
RTVSPropertyOp17
 70
     1
102
RTVSPropertyOp18
 70
     1
102
RTVSPropertyOp19
 70
     1
102
RTVSPropertyOp20
 70
     1
102
RTVSPropertyOp21
 70
     1
102
RTVSPropertyOp22
 70
     1
102
RTVSPropertyOp23
 70
     1
102
RTVSPropertyOp24
 70
     1
102
RTVSPropertyOp25
 70
     1
102
RTVSPropertyOp26
 70
     1
102
RTVSPropertyOp27
 70
     1
102
RTVSPropertyOp28
 70
     1
102
RTVSPropertyOp29
 70
     1
102
RTVSPropertyOp30
 70
     1
102
RTVSPropertyOp31
 70
     1
102
RTVSPropertyOp32
 70
     1
102
RTVSPropertyOp33
 70
     1
102
RTVSPropertyOp34
 70
     1
102
RTVSPropertyOp35
 70
     1
102
RTVSPropertyOp36
 70
     1
102
RTVSPropertyOp37
 70
     1
102
RTVSPropertyOp38
 70
     1
102
RTVSPropertyOp39
 70
     1
102
RTVSPropertyOp40
 70
     1
102
RTVSPropertyOp41
 70
     1
102
RTVSPropertyOp42
 70
     1
102
RTVSPropertyOp43
 70
     1
102
RTVSPropertyOp44
 70
     1
102
RTVSPropertyOp45
 70
     1
102
RTVSPropertyOp46
 70
     1
102
RTVSPropertyOp47
 70
     1
102
RTVSPropertyOp48
 70
     1
102
RTVSPropertyOp49
 70
     1
102
RTVSPropertyOp50
 70
     1
102
RTVSPropertyOp51
 70
     0
102
RTVSPropertyOp52
 70
     0
102
RTVSPropertyOp53
 70
     1
102
RTVSPropertyOp54
 70
     1
102
RTVSPropertyOp55
 70
     1
102
RTVSPropertyOp56
 70
     1
102
RTVSPropertyOp57
 70
     1
102
RTVSPost2010Prop28
280
     0
102
RTVSPost2010PropOp28
 70
     1
102
RTVSPost2010Prop29
280
     1
102
RTVSPost2010PropOp29
 70
     1
102
RTVSPost2010Prop30
280
     1
102
RTVSPost2010PropOp30
 70
     1
102
RTVSPost2010Prop31
280
     0
102
RTVSPost2010PropOp31
 70
     1
102
RTVSPost2010Prop32
280
     0
102
RTVSPost2010PropOp32
 70
     1
102
RTVSPost2010Prop33
280
     0
102
RTVSPost2010PropOp33
 70
     1
102
RTVSPost2010Prop34
280
     0
102
RTVSPost2010PropOp34
 70
     1
102
RTVSPost2010Prop35
280
     0
102
RTVSPost2010PropOp35
 70
     1
102
RTVSPost2010Prop36
280
     0
102
RTVSPost2010PropOp36
 70
     1
102
RTVSPost2010Prop37
 90
       50
102
RTVSPost2010PropOp37
 70
     1
102
RTVSPost2010Prop38
140
0.0
102
RTVSPost2010PropOp38
 70
     1
102
RTVSPost2010Prop39
140
1.0
102
RTVSPost2010PropOp39
 70
     1
102
RTVSPost2010Prop40
 90
        0
102
RTVSPost2010PropOp40
 70
     1
102
RTVSPost2010Prop41ColorIndex
 90
       18
102
RTVSPost2010Prop41ColorRGB
 90
        0
102
RTVSPost2010PropOp41
 70
     1
102
RTVSPost2010Prop42
 90
       50
102
RTVSPost2010PropOp42
 70
     1
102
RTVSPost2010Prop43
 90
        3
102
RTVSPost2010PropOp43
 70
     1
102
RTVSPost2010Prop44ColorIndex
 90
        5
102
RTVSPost2010Prop44ColorRGB
 90
      255
102
RTVSPost2010PropOp44
 70
     1
102
RTVSPost2010Prop45
280
     0
102
RTVSPost2010PropOp45
 70
     1
102
RTVSPost2010Prop46
 90
       50
102
RTVSPost2010PropOp46
 70
     1
102
RTVSPost2010Prop47
 90
       50
102
RTVSPost2010PropOp47
 70
     1
102
RTVSPost2010Prop48
 90
       50
102
RTVSPost2010PropOp48
 70
     1
102
RTVSPost2010Prop49
280
     0
102
RTVSPost2010PropOp49
 70
     1
102
RTVSPost2010Prop50
 90
       50
102
RTVSPost2010PropOp50
 70
     1
102
RTVSPost2010Prop51ColorIndex
 90
      256
102
RTVSPost2010Prop51ColorRGB
 90
-16777216
102
RTVSPost2010PropOp51
 70
     0
102
RTVSPost2010Prop52
140
1.0
102
RTVSPost2010PropOp52
 70
     0
102
RTVSPost2010Prop53
 90
        2
102
RTVSPost2010PropOp53
 70
     1
102
RTVSPost2010Prop54
  1
strokes_ogs.tif
102
RTVSPost2010PropOp54
 70
     1
102
RTVSPost2010Prop55
280
     0
102
RTVSPost2010PropOp55
 70
     1
102
RTVSPost2010Prop56
140
1.0
102
RTVSPost2010PropOp56
 70
     1
102
RTVSPost2010Prop57
140
1.0
102
RTVSPost2010PropOp57
 70
     1
  0
XRECORD
  5
727
102
{ACAD_REACTORS
330
726
102
}
330
726
100
AcDbXrecord
280
     1
102
RTVSPropertyOp0
 70
     1
102
RTVSPropertyOp1
 70
     1
102
RTVSPropertyOp2
 70
     1
102
RTVSPropertyOp3
 70
     1
102
RTVSPropertyOp4
 70
     1
102
RTVSPropertyOp5
 70
     1
102
RTVSPropertyOp6
 70
     1
102
RTVSPropertyOp7
 70
     1
102
RTVSPropertyOp8
 70
     1
102
RTVSPropertyOp9
 70
     1
102
RTVSPropertyOp10
 70
     1
102
RTVSPropertyOp11
 70
     1
102
RTVSPropertyOp12
 70
     1
102
RTVSPropertyOp13
 70
     1
102
RTVSPropertyOp14
 70
     1
102
RTVSPropertyOp15
 70
     1
102
RTVSPropertyOp16
 70
     1
102
RTVSPropertyOp17
 70
     1
102
RTVSPropertyOp18
 70
     1
102
RTVSPropertyOp19
 70
     1
102
RTVSPropertyOp20
 70
     1
102
RTVSPropertyOp21
 70
     1
102
RTVSPropertyOp22
 70
     1
102
RTVSPropertyOp23
 70
     1
102
RTVSPropertyOp24
 70
     1
102
RTVSPropertyOp25
 70
     1
102
RTVSPropertyOp26
 70
     1
102
RTVSPropertyOp27
 70
     1
102
RTVSPropertyOp28
 70
     1
102
RTVSPropertyOp29
 70
     1
102
RTVSPropertyOp30
 70
     1
102
RTVSPropertyOp31
 70
     1
102
RTVSPropertyOp32
 70
     1
102
RTVSPropertyOp33
 70
     1
102
RTVSPropertyOp34
 70
     1
102
RTVSPropertyOp35
 70
     1
102
RTVSPropertyOp36
 70
     1
102
RTVSPropertyOp37
 70
     1
102
RTVSPropertyOp38
 70
     1
102
RTVSPropertyOp39
 70
     1
102
RTVSPropertyOp40
 70
     1
102
RTVSPropertyOp41
 70
     1
102
RTVSPropertyOp42
 70
     1
102
RTVSPropertyOp43
 70
     1
102
RTVSPropertyOp44
 70
     1
102
RTVSPropertyOp45
 70
     1
102
RTVSPropertyOp46
 70
     1
102
RTVSPropertyOp47
 70
     1
102
RTVSPropertyOp48
 70
     1
102
RTVSPropertyOp49
 70
     1
102
RTVSPropertyOp50
 70
     1
102
RTVSPropertyOp51
 70
     0
102
RTVSPropertyOp52
 70
     0
102
RTVSPropertyOp53
 70
     1
102
RTVSPropertyOp54
 70
     1
102
RTVSPropertyOp55
 70
     1
102
RTVSPropertyOp56
 70
     1
102
RTVSPropertyOp57
 70
     1
102
RTVSPost2010Prop28
280
     0
102
RTVSPost2010PropOp28
 70
     1
102
RTVSPost2010Prop29
280
     1
102
RTVSPost2010PropOp29
 70
     1
102
RTVSPost2010Prop30
280
     1
102
RTVSPost2010PropOp30
 70
     1
102
RTVSPost2010Prop31
280
     0
102
RTVSPost2010PropOp31
 70
     1
102
RTVSPost2010Prop32
280
     0
102
RTVSPost2010PropOp32
 70
     1
102
RTVSPost2010Prop33
280
     0
102
RTVSPost2010PropOp33
 70
     1
102
RTVSPost2010Prop34
280
     0
102
RTVSPost2010PropOp34
 70
     1
102
RTVSPost2010Prop35
280
     0
102
RTVSPost2010PropOp35
 70
     1
102
RTVSPost2010Prop36
280
     0
102
RTVSPost2010PropOp36
 70
     1
102
RTVSPost2010Prop37
 90
       50
102
RTVSPost2010PropOp37
 70
     1
102
RTVSPost2010Prop38
140
0.0
102
RTVSPost2010PropOp38
 70
     1
102
RTVSPost2010Prop39
140
1.0
102
RTVSPost2010PropOp39
 70
     1
102
RTVSPost2010Prop40
 90
        0
102
RTVSPost2010PropOp40
 70
     1
102
RTVSPost2010Prop41ColorIndex
 90
       18
102
RTVSPost2010Prop41ColorRGB
 90
        0
102
RTVSPost2010PropOp41
 70
     1
102
RTVSPost2010Prop42
 90
       50
102
RTVSPost2010PropOp42
 70
     1
102
RTVSPost2010Prop43
 90
        3
102
RTVSPost2010PropOp43
 70
     1
102
RTVSPost2010Prop44ColorIndex
 90
        5
102
RTVSPost2010Prop44ColorRGB
 90
      255
102
RTVSPost2010PropOp44
 70
     1
102
RTVSPost2010Prop45
280
     0
102
RTVSPost2010PropOp45
 70
     1
102
RTVSPost2010Prop46
 90
       50
102
RTVSPost2010PropOp46
 70
     1
102
RTVSPost2010Prop47
 90
       50
102
RTVSPost2010PropOp47
 70
     1
102
RTVSPost2010Prop48
 90
       50
102
RTVSPost2010PropOp48
 70
     1
102
RTVSPost2010Prop49
280
     0
102
RTVSPost2010PropOp49
 70
     1
102
RTVSPost2010Prop50
 90
       50
102
RTVSPost2010PropOp50
 70
     1
102
RTVSPost2010Prop51ColorIndex
 90
      256
102
RTVSPost2010Prop51ColorRGB
 90
-16777216
102
RTVSPost2010PropOp51
 70
     0
102
RTVSPost2010Prop52
140
1.0
102
RTVSPost2010PropOp52
 70
     0
102
RTVSPost2010Prop53
 90
        2
102
RTVSPost2010PropOp53
 70
     1
102
RTVSPost2010Prop54
  1
strokes_ogs.tif
102
RTVSPost2010PropOp54
 70
     1
102
RTVSPost2010Prop55
280
     0
102
RTVSPost2010PropOp55
 70
     1
102
RTVSPost2010Prop56
140
1.0
102
RTVSPost2010PropOp56
 70
     1
102
RTVSPost2010Prop57
140
1.0
102
RTVSPost2010PropOp57
 70
     1
  0
XRECORD
  5
721
102
{ACAD_REACTORS
330
720
102
}
330
720
100
AcDbXrecord
280
     1
102
RTVSPropertyOp0
 70
     1
102
RTVSPropertyOp1
 70
     1
102
RTVSPropertyOp2
 70
     1
102
RTVSPropertyOp3
 70
     1
102
RTVSPropertyOp4
 70
     1
102
RTVSPropertyOp5
 70
     1
102
RTVSPropertyOp6
 70
     1
102
RTVSPropertyOp7
 70
     1
102
RTVSPropertyOp8
 70
     1
102
RTVSPropertyOp9
 70
     1
102
RTVSPropertyOp10
 70
     1
102
RTVSPropertyOp11
 70
     1
102
RTVSPropertyOp12
 70
     1
102
RTVSPropertyOp13
 70
     1
102
RTVSPropertyOp14
 70
     1
102
RTVSPropertyOp15
 70
     1
102
RTVSPropertyOp16
 70
     1
102
RTVSPropertyOp17
 70
     1
102
RTVSPropertyOp18
 70
     1
102
RTVSPropertyOp19
 70
     1
102
RTVSPropertyOp20
 70
     1
102
RTVSPropertyOp21
 70
     1
102
RTVSPropertyOp22
 70
     1
102
RTVSPropertyOp23
 70
     1
102
RTVSPropertyOp24
 70
     1
102
RTVSPropertyOp25
 70
     1
102
RTVSPropertyOp26
 70
     1
102
RTVSPropertyOp27
 70
     1
102
RTVSPropertyOp28
 70
     1
102
RTVSPropertyOp29
 70
     1
102
RTVSPropertyOp30
 70
     1
102
RTVSPropertyOp31
 70
     1
102
RTVSPropertyOp32
 70
     1
102
RTVSPropertyOp33
 70
     1
102
RTVSPropertyOp34
 70
     1
102
RTVSPropertyOp35
 70
     1
102
RTVSPropertyOp36
 70
     1
102
RTVSPropertyOp37
 70
     1
102
RTVSPropertyOp38
 70
     1
102
RTVSPropertyOp39
 70
     1
102
RTVSPropertyOp40
 70
     1
102
RTVSPropertyOp41
 70
     1
102
RTVSPropertyOp42
 70
     1
102
RTVSPropertyOp43
 70
     1
102
RTVSPropertyOp44
 70
     1
102
RTVSPropertyOp45
 70
     1
102
RTVSPropertyOp46
 70
     1
102
RTVSPropertyOp47
 70
     1
102
RTVSPropertyOp48
 70
     1
102
RTVSPropertyOp49
 70
     1
102
RTVSPropertyOp50
 70
     1
102
RTVSPropertyOp51
 70
     0
102
RTVSPropertyOp52
 70
     0
102
RTVSPropertyOp53
 70
     1
102
RTVSPropertyOp54
 70
     1
102
RTVSPropertyOp55
 70
     1
102
RTVSPropertyOp56
 70
     1
102
RTVSPropertyOp57
 70
     1
102
RTVSPost2010Prop28
280
     0
102
RTVSPost2010PropOp28
 70
     1
102
RTVSPost2010Prop29
280
     1
102
RTVSPost2010PropOp29
 70
     1
102
RTVSPost2010Prop30
280
     1
102
RTVSPost2010PropOp30
 70
     1
102
RTVSPost2010Prop31
280
     0
102
RTVSPost2010PropOp31
 70
     1
102
RTVSPost2010Prop32
280
     0
102
RTVSPost2010PropOp32
 70
     1
102
RTVSPost2010Prop33
280
     0
102
RTVSPost2010PropOp33
 70
     1
102
RTVSPost2010Prop34
280
     0
102
RTVSPost2010PropOp34
 70
     1
102
RTVSPost2010Prop35
280
     0
102
RTVSPost2010PropOp35
 70
     1
102
RTVSPost2010Prop36
280
     0
102
RTVSPost2010PropOp36
 70
     1
102
RTVSPost2010Prop37
 90
       50
102
RTVSPost2010PropOp37
 70
     1
102
RTVSPost2010Prop38
140
0.0
102
RTVSPost2010PropOp38
 70
     1
102
RTVSPost2010Prop39
140
1.0
102
RTVSPost2010PropOp39
 70
     1
102
RTVSPost2010Prop40
 90
        0
102
RTVSPost2010PropOp40
 70
     1
102
RTVSPost2010Prop41ColorIndex
 90
       18
102
RTVSPost2010Prop41ColorRGB
 90
        0
102
RTVSPost2010PropOp41
 70
     1
102
RTVSPost2010Prop42
 90
       50
102
RTVSPost2010PropOp42
 70
     1
102
RTVSPost2010Prop43
 90
        3
102
RTVSPost2010PropOp43
 70
     1
102
RTVSPost2010Prop44ColorIndex
 90
        5
102
RTVSPost2010Prop44ColorRGB
 90
      255
102
RTVSPost2010PropOp44
 70
     1
102
RTVSPost2010Prop45
280
     0
102
RTVSPost2010PropOp45
 70
     1
102
RTVSPost2010Prop46
 90
       50
102
RTVSPost2010PropOp46
 70
     1
102
RTVSPost2010Prop47
 90
       50
102
RTVSPost2010PropOp47
 70
     1
102
RTVSPost2010Prop48
 90
       50
102
RTVSPost2010PropOp48
 70
     1
102
RTVSPost2010Prop49
280
     0
102
RTVSPost2010PropOp49
 70
     1
102
RTVSPost2010Prop50
 90
       50
102
RTVSPost2010PropOp50
 70
     1
102
RTVSPost2010Prop51ColorIndex
 90
      256
102
RTVSPost2010Prop51ColorRGB
 90
-16777216
102
RTVSPost2010PropOp51
 70
     0
102
RTVSPost2010Prop52
140
1.0
102
RTVSPost2010PropOp52
 70
     0
102
RTVSPost2010Prop53
 90
        2
102
RTVSPost2010PropOp53
 70
     1
102
RTVSPost2010Prop54
  1
strokes_ogs.tif
102
RTVSPost2010PropOp54
 70
     1
102
RTVSPost2010Prop55
280
     0
102
RTVSPost2010PropOp55
 70
     1
102
RTVSPost2010Prop56
140
1.0
102
RTVSPost2010PropOp56
 70
     1
102
RTVSPost2010Prop57
140
1.0
102
RTVSPost2010PropOp57
 70
     1
  0
XRECORD
  5
723
102
{ACAD_REACTORS
330
722
102
}
330
722
100
AcDbXrecord
280
     1
102
RTVSPropertyOp0
 70
     1
102
RTVSPropertyOp1
 70
     1
102
RTVSPropertyOp2
 70
     1
102
RTVSPropertyOp3
 70
     1
102
RTVSPropertyOp4
 70
     1
102
RTVSPropertyOp5
 70
     1
102
RTVSPropertyOp6
 70
     1
102
RTVSPropertyOp7
 70
     1
102
RTVSPropertyOp8
 70
     1
102
RTVSPropertyOp9
 70
     1
102
RTVSPropertyOp10
 70
     1
102
RTVSPropertyOp11
 70
     1
102
RTVSPropertyOp12
 70
     1
102
RTVSPropertyOp13
 70
     1
102
RTVSPropertyOp14
 70
     1
102
RTVSPropertyOp15
 70
     1
102
RTVSPropertyOp16
 70
     1
102
RTVSPropertyOp17
 70
     1
102
RTVSPropertyOp18
 70
     1
102
RTVSPropertyOp19
 70
     1
102
RTVSPropertyOp20
 70
     1
102
RTVSPropertyOp21
 70
     1
102
RTVSPropertyOp22
 70
     1
102
RTVSPropertyOp23
 70
     1
102
RTVSPropertyOp24
 70
     1
102
RTVSPropertyOp25
 70
     1
102
RTVSPropertyOp26
 70
     1
102
RTVSPropertyOp27
 70
     1
102
RTVSPropertyOp28
 70
     1
102
RTVSPropertyOp29
 70
     1
102
RTVSPropertyOp30
 70
     1
102
RTVSPropertyOp31
 70
     1
102
RTVSPropertyOp32
 70
     1
102
RTVSPropertyOp33
 70
     1
102
RTVSPropertyOp34
 70
     1
102
RTVSPropertyOp35
 70
     1
102
RTVSPropertyOp36
 70
     1
102
RTVSPropertyOp37
 70
     1
102
RTVSPropertyOp38
 70
     1
102
RTVSPropertyOp39
 70
     1
102
RTVSPropertyOp40
 70
     1
102
RTVSPropertyOp41
 70
     1
102
RTVSPropertyOp42
 70
     1
102
RTVSPropertyOp43
 70
     1
102
RTVSPropertyOp44
 70
     1
102
RTVSPropertyOp45
 70
     1
102
RTVSPropertyOp46
 70
     1
102
RTVSPropertyOp47
 70
     1
102
RTVSPropertyOp48
 70
     1
102
RTVSPropertyOp49
 70
     1
102
RTVSPropertyOp50
 70
     1
102
RTVSPropertyOp51
 70
     0
102
RTVSPropertyOp52
 70
     0
102
RTVSPropertyOp53
 70
     1
102
RTVSPropertyOp54
 70
     1
102
RTVSPropertyOp55
 70
     1
102
RTVSPropertyOp56
 70
     1
102
RTVSPropertyOp57
 70
     1
102
RTVSPost2010Prop28
280
     0
102
RTVSPost2010PropOp28
 70
     1
102
RTVSPost2010Prop29
280
     1
102
RTVSPost2010PropOp29
 70
     1
102
RTVSPost2010Prop30
280
     1
102
RTVSPost2010PropOp30
 70
     1
102
RTVSPost2010Prop31
280
     0
102
RTVSPost2010PropOp31
 70
     1
102
RTVSPost2010Prop32
280
     0
102
RTVSPost2010PropOp32
 70
     1
102
RTVSPost2010Prop33
280
     0
102
RTVSPost2010PropOp33
 70
     1
102
RTVSPost2010Prop34
280
     0
102
RTVSPost2010PropOp34
 70
     1
102
RTVSPost2010Prop35
280
     0
102
RTVSPost2010PropOp35
 70
     1
102
RTVSPost2010Prop36
280
     0
102
RTVSPost2010PropOp36
 70
     1
102
RTVSPost2010Prop37
 90
       50
102
RTVSPost2010PropOp37
 70
     1
102
RTVSPost2010Prop38
140
0.0
102
RTVSPost2010PropOp38
 70
     1
102
RTVSPost2010Prop39
140
1.0
102
RTVSPost2010PropOp39
 70
     1
102
RTVSPost2010Prop40
 90
        0
102
RTVSPost2010PropOp40
 70
     1
102
RTVSPost2010Prop41ColorIndex
 90
       18
102
RTVSPost2010Prop41ColorRGB
 90
        0
102
RTVSPost2010PropOp41
 70
     1
102
RTVSPost2010Prop42
 90
       50
102
RTVSPost2010PropOp42
 70
     1
102
RTVSPost2010Prop43
 90
        3
102
RTVSPost2010PropOp43
 70
     1
102
RTVSPost2010Prop44ColorIndex
 90
        5
102
RTVSPost2010Prop44ColorRGB
 90
      255
102
RTVSPost2010PropOp44
 70
     1
102
RTVSPost2010Prop45
280
     0
102
RTVSPost2010PropOp45
 70
     1
102
RTVSPost2010Prop46
 90
       50
102
RTVSPost2010PropOp46
 70
     1
102
RTVSPost2010Prop47
 90
       50
102
RTVSPost2010PropOp47
 70
     1
102
RTVSPost2010Prop48
 90
       50
102
RTVSPost2010PropOp48
 70
     1
102
RTVSPost2010Prop49
280
     0
102
RTVSPost2010PropOp49
 70
     1
102
RTVSPost2010Prop50
 90
       50
102
RTVSPost2010PropOp50
 70
     1
102
RTVSPost2010Prop51ColorIndex
 90
      256
102
RTVSPost2010Prop51ColorRGB
 90
-16777216
102
RTVSPost2010PropOp51
 70
     0
102
RTVSPost2010Prop52
140
1.0
102
RTVSPost2010PropOp52
 70
     0
102
RTVSPost2010Prop53
 90
        2
102
RTVSPost2010PropOp53
 70
     1
102
RTVSPost2010Prop54
  1
strokes_ogs.tif
102
RTVSPost2010PropOp54
 70
     1
102
RTVSPost2010Prop55
280
     0
102
RTVSPost2010PropOp55
 70
     1
102
RTVSPost2010Prop56
140
1.0
102
RTVSPost2010PropOp56
 70
     1
102
RTVSPost2010Prop57
140
1.0
102
RTVSPost2010PropOp57
 70
     1
  0
XRECORD
  5
713
102
{ACAD_REACTORS
330
712
102
}
330
712
100
AcDbXrecord
280
     1
102
RTVSPropertyOp0
 70
     1
102
RTVSPropertyOp1
 70
     1
102
RTVSPropertyOp2
 70
     1
102
RTVSPropertyOp3
 70
     1
102
RTVSPropertyOp4
 70
     1
102
RTVSPropertyOp5
 70
     1
102
RTVSPropertyOp6
 70
     1
102
RTVSPropertyOp7
 70
     1
102
RTVSPropertyOp8
 70
     1
102
RTVSPropertyOp9
 70
     1
102
RTVSPropertyOp10
 70
     1
102
RTVSPropertyOp11
 70
     1
102
RTVSPropertyOp12
 70
     1
102
RTVSPropertyOp13
 70
     1
102
RTVSPropertyOp14
 70
     1
102
RTVSPropertyOp15
 70
     1
102
RTVSPropertyOp16
 70
     1
102
RTVSPropertyOp17
 70
     1
102
RTVSPropertyOp18
 70
     1
102
RTVSPropertyOp19
 70
     1
102
RTVSPropertyOp20
 70
     1
102
RTVSPropertyOp21
 70
     1
102
RTVSPropertyOp22
 70
     1
102
RTVSPropertyOp23
 70
     1
102
RTVSPropertyOp24
 70
     1
102
RTVSPropertyOp25
 70
     1
102
RTVSPropertyOp26
 70
     1
102
RTVSPropertyOp27
 70
     1
102
RTVSPropertyOp28
 70
     1
102
RTVSPropertyOp29
 70
     1
102
RTVSPropertyOp30
 70
     1
102
RTVSPropertyOp31
 70
     1
102
RTVSPropertyOp32
 70
     1
102
RTVSPropertyOp33
 70
     1
102
RTVSPropertyOp34
 70
     1
102
RTVSPropertyOp35
 70
     1
102
RTVSPropertyOp36
 70
     1
102
RTVSPropertyOp37
 70
     1
102
RTVSPropertyOp38
 70
     1
102
RTVSPropertyOp39
 70
     1
102
RTVSPropertyOp40
 70
     1
102
RTVSPropertyOp41
 70
     1
102
RTVSPropertyOp42
 70
     1
102
RTVSPropertyOp43
 70
     1
102
RTVSPropertyOp44
 70
     1
102
RTVSPropertyOp45
 70
     1
102
RTVSPropertyOp46
 70
     1
102
RTVSPropertyOp47
 70
     1
102
RTVSPropertyOp48
 70
     1
102
RTVSPropertyOp49
 70
     1
102
RTVSPropertyOp50
 70
     1
102
RTVSPropertyOp51
 70
     0
102
RTVSPropertyOp52
 70
     0
102
RTVSPropertyOp53
 70
     1
102
RTVSPropertyOp54
 70
     1
102
RTVSPropertyOp55
 70
     1
102
RTVSPropertyOp56
 70
     1
102
RTVSPropertyOp57
 70
     1
102
RTVSPost2010Prop28
280
     0
102
RTVSPost2010PropOp28
 70
     1
102
RTVSPost2010Prop29
280
     1
102
RTVSPost2010PropOp29
 70
     1
102
RTVSPost2010Prop30
280
     1
102
RTVSPost2010PropOp30
 70
     1
102
RTVSPost2010Prop31
280
     0
102
RTVSPost2010PropOp31
 70
     1
102
RTVSPost2010Prop32
280
     0
102
RTVSPost2010PropOp32
 70
     1
102
RTVSPost2010Prop33
280
     0
102
RTVSPost2010PropOp33
 70
     1
102
RTVSPost2010Prop34
280
     0
102
RTVSPost2010PropOp34
 70
     1
102
RTVSPost2010Prop35
280
     0
102
RTVSPost2010PropOp35
 70
     1
102
RTVSPost2010Prop36
280
     0
102
RTVSPost2010PropOp36
 70
     1
102
RTVSPost2010Prop37
 90
       50
102
RTVSPost2010PropOp37
 70
     1
102
RTVSPost2010Prop38
140
0.0
102
RTVSPost2010PropOp38
 70
     1
102
RTVSPost2010Prop39
140
1.0
102
RTVSPost2010PropOp39
 70
     1
102
RTVSPost2010Prop40
 90
        0
102
RTVSPost2010PropOp40
 70
     1
102
RTVSPost2010Prop41ColorIndex
 90
       18
102
RTVSPost2010Prop41ColorRGB
 90
        0
102
RTVSPost2010PropOp41
 70
     1
102
RTVSPost2010Prop42
 90
       50
102
RTVSPost2010PropOp42
 70
     1
102
RTVSPost2010Prop43
 90
        3
102
RTVSPost2010PropOp43
 70
     1
102
RTVSPost2010Prop44ColorIndex
 90
        5
102
RTVSPost2010Prop44ColorRGB
 90
      255
102
RTVSPost2010PropOp44
 70
     1
102
RTVSPost2010Prop45
280
     0
102
RTVSPost2010PropOp45
 70
     1
102
RTVSPost2010Prop46
 90
       50
102
RTVSPost2010PropOp46
 70
     1
102
RTVSPost2010Prop47
 90
       50
102
RTVSPost2010PropOp47
 70
     1
102
RTVSPost2010Prop48
 90
       50
102
RTVSPost2010PropOp48
 70
     1
102
RTVSPost2010Prop49
280
     0
102
RTVSPost2010PropOp49
 70
     1
102
RTVSPost2010Prop50
 90
       50
102
RTVSPost2010PropOp50
 70
     1
102
RTVSPost2010Prop51ColorIndex
 90
      256
102
RTVSPost2010Prop51ColorRGB
 90
-16777216
102
RTVSPost2010PropOp51
 70
     0
102
RTVSPost2010Prop52
140
1.0
102
RTVSPost2010PropOp52
 70
     0
102
RTVSPost2010Prop53
 90
        2
102
RTVSPost2010PropOp53
 70
     1
102
RTVSPost2010Prop54
  1
strokes_ogs.tif
102
RTVSPost2010PropOp54
 70
     1
102
RTVSPost2010Prop55
280
     0
102
RTVSPost2010PropOp55
 70
     1
102
RTVSPost2010Prop56
140
1.0
102
RTVSPost2010PropOp56
 70
     1
102
RTVSPost2010Prop57
140
1.0
102
RTVSPost2010PropOp57
 70
     1
  0
XRECORD
  5
705
102
{ACAD_REACTORS
330
704
102
}
330
704
100
AcDbXrecord
280
     1
102
RTVSPropertyOp0
 70
     1
102
RTVSPropertyOp1
 70
     1
102
RTVSPropertyOp2
 70
     1
102
RTVSPropertyOp3
 70
     1
102
RTVSPropertyOp4
 70
     1
102
RTVSPropertyOp5
 70
     1
102
RTVSPropertyOp6
 70
     1
102
RTVSPropertyOp7
 70
     1
102
RTVSPropertyOp8
 70
     1
102
RTVSPropertyOp9
 70
     1
102
RTVSPropertyOp10
 70
     1
102
RTVSPropertyOp11
 70
     1
102
RTVSPropertyOp12
 70
     1
102
RTVSPropertyOp13
 70
     1
102
RTVSPropertyOp14
 70
     1
102
RTVSPropertyOp15
 70
     1
102
RTVSPropertyOp16
 70
     1
102
RTVSPropertyOp17
 70
     1
102
RTVSPropertyOp18
 70
     1
102
RTVSPropertyOp19
 70
     1
102
RTVSPropertyOp20
 70
     1
102
RTVSPropertyOp21
 70
     1
102
RTVSPropertyOp22
 70
     1
102
RTVSPropertyOp23
 70
     1
102
RTVSPropertyOp24
 70
     1
102
RTVSPropertyOp25
 70
     1
102
RTVSPropertyOp26
 70
     1
102
RTVSPropertyOp27
 70
     1
102
RTVSPropertyOp28
 70
     1
102
RTVSPropertyOp29
 70
     1
102
RTVSPropertyOp30
 70
     1
102
RTVSPropertyOp31
 70
     1
102
RTVSPropertyOp32
 70
     1
102
RTVSPropertyOp33
 70
     1
102
RTVSPropertyOp34
 70
     1
102
RTVSPropertyOp35
 70
     1
102
RTVSPropertyOp36
 70
     1
102
RTVSPropertyOp37
 70
     1
102
RTVSPropertyOp38
 70
     1
102
RTVSPropertyOp39
 70
     1
102
RTVSPropertyOp40
 70
     1
102
RTVSPropertyOp41
 70
     1
102
RTVSPropertyOp42
 70
     1
102
RTVSPropertyOp43
 70
     1
102
RTVSPropertyOp44
 70
     1
102
RTVSPropertyOp45
 70
     1
102
RTVSPropertyOp46
 70
     1
102
RTVSPropertyOp47
 70
     1
102
RTVSPropertyOp48
 70
     1
102
RTVSPropertyOp49
 70
     1
102
RTVSPropertyOp50
 70
     1
102
RTVSPropertyOp51
 70
     0
102
RTVSPropertyOp52
 70
     0
102
RTVSPropertyOp53
 70
     1
102
RTVSPropertyOp54
 70
     1
102
RTVSPropertyOp55
 70
     1
102
RTVSPropertyOp56
 70
     1
102
RTVSPropertyOp57
 70
     1
102
RTVSPost2010Prop28
280
     0
102
RTVSPost2010PropOp28
 70
     1
102
RTVSPost2010Prop29
280
     1
102
RTVSPost2010PropOp29
 70
     1
102
RTVSPost2010Prop30
280
     1
102
RTVSPost2010PropOp30
 70
     1
102
RTVSPost2010Prop31
280
     0
102
RTVSPost2010PropOp31
 70
     1
102
RTVSPost2010Prop32
280
     0
102
RTVSPost2010PropOp32
 70
     1
102
RTVSPost2010Prop33
280
     0
102
RTVSPost2010PropOp33
 70
     1
102
RTVSPost2010Prop34
280
     0
102
RTVSPost2010PropOp34
 70
     1
102
RTVSPost2010Prop35
280
     0
102
RTVSPost2010PropOp35
 70
     1
102
RTVSPost2010Prop36
280
     0
102
RTVSPost2010PropOp36
 70
     1
102
RTVSPost2010Prop37
 90
       50
102
RTVSPost2010PropOp37
 70
     1
102
RTVSPost2010Prop38
140
0.0
102
RTVSPost2010PropOp38
 70
     1
102
RTVSPost2010Prop39
140
1.0
102
RTVSPost2010PropOp39
 70
     1
102
RTVSPost2010Prop40
 90
        0
102
RTVSPost2010PropOp40
 70
     1
102
RTVSPost2010Prop41ColorIndex
 90
       18
102
RTVSPost2010Prop41ColorRGB
 90
        0
102
RTVSPost2010PropOp41
 70
     1
102
RTVSPost2010Prop42
 90
       50
102
RTVSPost2010PropOp42
 70
     1
102
RTVSPost2010Prop43
 90
        3
102
RTVSPost2010PropOp43
 70
     1
102
RTVSPost2010Prop44ColorIndex
 90
        5
102
RTVSPost2010Prop44ColorRGB
 90
      255
102
RTVSPost2010PropOp44
 70
     1
102
RTVSPost2010Prop45
280
     0
102
RTVSPost2010PropOp45
 70
     1
102
RTVSPost2010Prop46
 90
       50
102
RTVSPost2010PropOp46
 70
     1
102
RTVSPost2010Prop47
 90
       50
102
RTVSPost2010PropOp47
 70
     1
102
RTVSPost2010Prop48
 90
       50
102
RTVSPost2010PropOp48
 70
     1
102
RTVSPost2010Prop49
280
     0
102
RTVSPost2010PropOp49
 70
     1
102
RTVSPost2010Prop50
 90
       50
102
RTVSPost2010PropOp50
 70
     1
102
RTVSPost2010Prop51ColorIndex
 90
      256
102
RTVSPost2010Prop51ColorRGB
 90
-16777216
102
RTVSPost2010PropOp51
 70
     0
102
RTVSPost2010Prop52
140
1.0
102
RTVSPost2010PropOp52
 70
     0
102
RTVSPost2010Prop53
 90
        2
102
RTVSPost2010PropOp53
 70
     1
102
RTVSPost2010Prop54
  1
strokes_ogs.tif
102
RTVSPost2010PropOp54
 70
     1
102
RTVSPost2010Prop55
280
     0
102
RTVSPost2010PropOp55
 70
     1
102
RTVSPost2010Prop56
140
1.0
102
RTVSPost2010PropOp56
 70
     1
102
RTVSPost2010Prop57
140
1.0
102
RTVSPost2010PropOp57
 70
     1
  0
XRECORD
  5
725
102
{ACAD_REACTORS
330
724
102
}
330
724
100
AcDbXrecord
280
     1
102
RTVSPropertyOp0
 70
     1
102
RTVSPropertyOp1
 70
     1
102
RTVSPropertyOp2
 70
     1
102
RTVSPropertyOp3
 70
     1
102
RTVSPropertyOp4
 70
     1
102
RTVSPropertyOp5
 70
     1
102
RTVSPropertyOp6
 70
     1
102
RTVSPropertyOp7
 70
     1
102
RTVSPropertyOp8
 70
     1
102
RTVSPropertyOp9
 70
     1
102
RTVSPropertyOp10
 70
     1
102
RTVSPropertyOp11
 70
     1
102
RTVSPropertyOp12
 70
     1
102
RTVSPropertyOp13
 70
     1
102
RTVSPropertyOp14
 70
     1
102
RTVSPropertyOp15
 70
     1
102
RTVSPropertyOp16
 70
     1
102
RTVSPropertyOp17
 70
     1
102
RTVSPropertyOp18
 70
     1
102
RTVSPropertyOp19
 70
     1
102
RTVSPropertyOp20
 70
     1
102
RTVSPropertyOp21
 70
     1
102
RTVSPropertyOp22
 70
     1
102
RTVSPropertyOp23
 70
     1
102
RTVSPropertyOp24
 70
     1
102
RTVSPropertyOp25
 70
     1
102
RTVSPropertyOp26
 70
     1
102
RTVSPropertyOp27
 70
     1
102
RTVSPropertyOp28
 70
     1
102
RTVSPropertyOp29
 70
     1
102
RTVSPropertyOp30
 70
     1
102
RTVSPropertyOp31
 70
     1
102
RTVSPropertyOp32
 70
     1
102
RTVSPropertyOp33
 70
     1
102
RTVSPropertyOp34
 70
     1
102
RTVSPropertyOp35
 70
     1
102
RTVSPropertyOp36
 70
     1
102
RTVSPropertyOp37
 70
     1
102
RTVSPropertyOp38
 70
     1
102
RTVSPropertyOp39
 70
     1
102
RTVSPropertyOp40
 70
     1
102
RTVSPropertyOp41
 70
     1
102
RTVSPropertyOp42
 70
     1
102
RTVSPropertyOp43
 70
     1
102
RTVSPropertyOp44
 70
     1
102
RTVSPropertyOp45
 70
     1
102
RTVSPropertyOp46
 70
     1
102
RTVSPropertyOp47
 70
     1
102
RTVSPropertyOp48
 70
     1
102
RTVSPropertyOp49
 70
     1
102
RTVSPropertyOp50
 70
     1
102
RTVSPropertyOp51
 70
     0
102
RTVSPropertyOp52
 70
     0
102
RTVSPropertyOp53
 70
     1
102
RTVSPropertyOp54
 70
     1
102
RTVSPropertyOp55
 70
     1
102
RTVSPropertyOp56
 70
     1
102
RTVSPropertyOp57
 70
     1
102
RTVSPost2010Prop28
280
     0
102
RTVSPost2010PropOp28
 70
     1
102
RTVSPost2010Prop29
280
     1
102
RTVSPost2010PropOp29
 70
     1
102
RTVSPost2010Prop30
280
     1
102
RTVSPost2010PropOp30
 70
     1
102
RTVSPost2010Prop31
280
     0
102
RTVSPost2010PropOp31
 70
     1
102
RTVSPost2010Prop32
280
     0
102
RTVSPost2010PropOp32
 70
     1
102
RTVSPost2010Prop33
280
     0
102
RTVSPost2010PropOp33
 70
     1
102
RTVSPost2010Prop34
280
     0
102
RTVSPost2010PropOp34
 70
     1
102
RTVSPost2010Prop35
280
     0
102
RTVSPost2010PropOp35
 70
     1
102
RTVSPost2010Prop36
280
     0
102
RTVSPost2010PropOp36
 70
     1
102
RTVSPost2010Prop37
 90
       50
102
RTVSPost2010PropOp37
 70
     1
102
RTVSPost2010Prop38
140
0.0
102
RTVSPost2010PropOp38
 70
     1
102
RTVSPost2010Prop39
140
1.0
102
RTVSPost2010PropOp39
 70
     1
102
RTVSPost2010Prop40
 90
        0
102
RTVSPost2010PropOp40
 70
     1
102
RTVSPost2010Prop41ColorIndex
 90
       18
102
RTVSPost2010Prop41ColorRGB
 90
        0
102
RTVSPost2010PropOp41
 70
     1
102
RTVSPost2010Prop42
 90
       50
102
RTVSPost2010PropOp42
 70
     1
102
RTVSPost2010Prop43
 90
        3
102
RTVSPost2010PropOp43
 70
     1
102
RTVSPost2010Prop44ColorIndex
 90
        5
102
RTVSPost2010Prop44ColorRGB
 90
      255
102
RTVSPost2010PropOp44
 70
     1
102
RTVSPost2010Prop45
280
     0
102
RTVSPost2010PropOp45
 70
     1
102
RTVSPost2010Prop46
 90
       50
102
RTVSPost2010PropOp46
 70
     1
102
RTVSPost2010Prop47
 90
       50
102
RTVSPost2010PropOp47
 70
     1
102
RTVSPost2010Prop48
 90
       50
102
RTVSPost2010PropOp48
 70
     1
102
RTVSPost2010Prop49
280
     0
102
RTVSPost2010PropOp49
 70
     1
102
RTVSPost2010Prop50
 90
       50
102
RTVSPost2010PropOp50
 70
     1
102
RTVSPost2010Prop51ColorIndex
 90
      256
102
RTVSPost2010Prop51ColorRGB
 90
-16777216
102
RTVSPost2010PropOp51
 70
     0
102
RTVSPost2010Prop52
140
1.0
102
RTVSPost2010PropOp52
 70
     0
102
RTVSPost2010Prop53
 90
        2
102
RTVSPost2010PropOp53
 70
     1
102
RTVSPost2010Prop54
  1
strokes_ogs.tif
102
RTVSPost2010PropOp54
 70
     1
102
RTVSPost2010Prop55
280
     0
102
RTVSPost2010PropOp55
 70
     1
102
RTVSPost2010Prop56
140
1.0
102
RTVSPost2010PropOp56
 70
     1
102
RTVSPost2010Prop57
140
1.0
102
RTVSPost2010PropOp57
 70
     1
  0
ENDSEC
  0
EOF
