0
SECTION
2
HEADER
9
$INSUNITS
70
4
9
$ACADVER
1
AC1014
9
$HANDSEED
5
FFFF
0
ENDSEC
0
SECTION
2
TABLES
0
TABLE
2
VPORT
5
8
100
AcDbSymbolTable
0
ENDTAB
0
TABLE
2
LTYPE
5
5
100
AcDbSymbolTable
0
LTYPE
5
14
100
AcDbSymbolTableRecord
100
AcDbLinetypeTableRecord
2
BYBLOCK
70
0
0
LTYPE
5
15
100
AcDbSymbolTableRecord
100
AcDbLinetypeTableRecord
2
BYLAYER
70
0
0
ENDTAB
0
TABLE
2
LAYER
5
2
100
AcDbSymbolTable
70
2
0
LAYER
5
50
100
AcDbSymbolTableRecord
100
AcDbLayerTableRecord
2
0
70
0
6
CONTINUOUS
0
ENDTAB
0
TABLE
2
STYLE
5
3
100
AcDbSymbolTable
70
1
0
STYLE
5
11
100
AcDbSymbolTableRecord
100
AcDbTextStyleTableRecord
2
STANDARD
70
0
0
ENDTAB
0
TABLE
2
VIEW
5
6
100
AcDbSymbolTable
70
0
0
ENDTAB
0
TABLE
2
UCS
5
7
100
AcDbSymbolTable
70
0
0
ENDTAB
0
TABLE
2
APPID
5
9
100
AcDbSymbolTable
70
2
0
APPID
5
12
100
AcDbSymbolTableRecord
100
AcDbRegAppTableRecord
2
ACAD
70
0
0
ENDTAB
0
TABLE
2
DIMSTYLE
5
A
100
AcDbSymbolTable
70
1
0
ENDTAB
0
TABLE
2
BLOCK_RECORD
5
1
100
AcDbSymbolTable
70
1
0
BLOCK_RECORD
5
1F
100
AcDbSymbolTableRecord
100
AcDbBlockTableRecord
2
*MODEL_SPACE
0
BLOCK_RECORD
5
1B
100
AcDbSymbolTableRecord
100
AcDbBlockTableRecord
2
*PAPER_SPACE
0
ENDTAB
0
ENDSEC
0
SECTION
2
BLOCKS
0
BLOCK
5
20
100
AcDbEntity
100
AcDbBlockBegin
2
*MODEL_SPACE
0
ENDBLK
5
21
100
AcDbEntity
100
AcDbBlockEnd
0
BLOCK
5
1C
100
AcDbEntity
100
AcDbBlockBegin
2
*PAPER_SPACE
0
ENDBLK
5
1D
100
AcDbEntity
100
AcDbBlockEnd
0
ENDSEC
0
SECTION
2
ENTITIES
0
LINE
5
100
100
AcDbEntity
8
0
100
AcDbLine
10
734.99999999999989
20
785.00000000000023
30
0
11
14.999999999999858
21
785.00000000000011
31
0
0
LINE
5
101
100
AcDbEntity
8
0
100
AcDbLine
10
14.999999999999858
20
785.00000000000011
30
0
11
15
21
15
31
0
0
LINE
5
102
100
AcDbEntity
8
0
100
AcDbLine
10
15
20
15
30
0
11
735.00000000000011
21
15.000000000000142
31
0
0
LWPOLYLINE
5
103
100
AcDbEntity
8
0
100
AcDbPolyline
90
12
70
1
43
0.0
10
765.00000000000011
20
350.00000000000057
10
1265.0000000000002
20
350.00000000000057
10
1265.0000000000002
20
330.00000000000068
10
1042.5000000000002
20
50.000000000000249
10
1022.5000000000001
20
50.000000000000249
10
1022.5000000000001
20
195.75735931288091
42
0.99999999999999989
10
1018.2573593128809
20
200.0000000000004
10
1011.7426406871193
20
200.0000000000004
42
0.99999999999999989
10
1007.5000000000001
20
195.75735931288091
10
1007.5000000000001
20
50.000000000000249
10
987.50000000000011
20
50.000000000000249
10
765.00000000000011
20
330.00000000000068
0
LINE
5
104
100
AcDbEntity
8
0
100
AcDbLine
10
734.99999999999989
20
750.00000000000023
30
0
11
589.24264068711921
21
750.00000000000023
31
0
0
LINE
5
105
100
AcDbEntity
8
0
100
AcDbLine
10
585
20
754.24264068711955
30
0
11
585
21
760.75735931288114
31
0
0
LINE
5
106
100
AcDbEntity
8
0
100
AcDbLine
10
589.24264068711921
20
765.00000000000023
30
0
11
734.99999999999989
21
765.00000000000023
31
0
0
LINE
5
107
100
AcDbEntity
8
0
100
AcDbLine
10
735.00000000000011
20
50.000000000000142
30
0
11
589.24264068711932
21
50.000000000000142
31
0
0
LINE
5
108
100
AcDbEntity
8
0
100
AcDbLine
10
585.00000000000011
20
45.757359312880936
30
0
11
585.00000000000011
21
39.24264068711949
31
0
0
LINE
5
109
100
AcDbEntity
8
0
100
AcDbLine
10
589.24264068711966
20
35.000000000000142
30
0
11
735.00000000000011
21
35.000000000000142
31
0
0
LINE
5
110
100
AcDbEntity
8
0
100
AcDbLine
10
735.00000000000011
20
15.000000000000142
30
0
11
735.00000000000011
21
35.000000000000142
31
0
0
LINE
5
111
100
AcDbEntity
8
0
100
AcDbLine
10
734.99999999999989
20
765.00000000000023
30
0
11
734.99999999999989
21
785.00000000000023
31
0
0
ARC
5
112
100
AcDbEntity
8
0
100
AcDbCircle
10
587.12132034355989
20
37.121320343559816
30
0
40
3.000000000000095
210
0
220
0
230
1
100
AcDbArc
50
135.00000000000136
51
315.00000000000131
0
ARC
5
113
100
AcDbEntity
8
0
100
AcDbCircle
10
587.12132034355977
20
47.878679656440539
30
0
40
2.999999999999944
210
0
220
-0
230
1
100
AcDbArc
50
45.000000000000767
51
224.99999999999923
0
ARC
5
114
100
AcDbEntity
8
0
100
AcDbCircle
10
587.12132034355955
20
762.87867965644068
30
0
40
2.999999999999944
210
0
220
-0
230
1
100
AcDbArc
50
44.999999999998465
51
225
0
ARC
5
115
100
AcDbEntity
8
0
100
AcDbCircle
10
587.12132034355955
20
752.12132034355989
30
0
40
2.999999999999944
210
0
220
0
230
1
100
AcDbArc
50
134.99999999999847
51
315
0
CIRCLE
5
116
100
AcDbEntity
8
0
100
AcDbCircle
10
162.45000000000005
20
163.00000000000011
30
0
40
2.750000000000052
210
-0
220
0
230
1
0
CIRCLE
5
117
100
AcDbEntity
8
0
100
AcDbCircle
10
130.45000000000016
20
163.00000000000011
30
0
40
2.7499999999997904
210
-0
220
0
230
1
0
CIRCLE
5
118
100
AcDbEntity
8
0
100
AcDbCircle
10
72.450000000000045
20
163.00000000000011
30
0
40
2.7500000000000573
210
-0
220
0
230
1
0
CIRCLE
5
119
100
AcDbEntity
8
0
100
AcDbCircle
10
40.450000000000159
20
163.00000000000011
30
0
40
2.7499999999998654
210
-0
220
0
230
1
0
CIRCLE
5
120
100
AcDbEntity
8
0
100
AcDbCircle
10
40.450000000000301
20
637
30
0
40
2.7499999999998166
210
-0
220
0
230
1
0
CIRCLE
5
121
100
AcDbEntity
8
0
100
AcDbCircle
10
72.450000000000188
20
637
30
0
40
2.7500000000000457
210
-0
220
0
230
1
0
CIRCLE
5
122
100
AcDbEntity
8
0
100
AcDbCircle
10
130.4500000000003
20
637
30
0
40
2.750000000000123
210
-0
220
0
230
1
0
CIRCLE
5
123
100
AcDbEntity
8
0
100
AcDbCircle
10
162.45000000000019
20
637
30
0
40
2.7500000000001523
210
-0
220
0
230
1
0
CIRCLE
5
124
100
AcDbEntity
8
0
100
AcDbCircle
10
129.45000000000036
20
685.00000000000011
30
0
40
2.7499999999998677
210
-0
220
0
230
1
0
CIRCLE
5
125
100
AcDbEntity
8
0
100
AcDbCircle
10
129.45000000000036
20
705.00000000000011
30
0
40
2.7500000000001905
210
-0
220
0
230
1
0
CIRCLE
5
126
100
AcDbEntity
8
0
100
AcDbCircle
10
73.450000000000415
20
705.00000000000011
30
0
40
2.7499999999999982
210
-0
220
0
230
1
0
CIRCLE
5
127
100
AcDbEntity
8
0
100
AcDbCircle
10
73.450000000000415
20
685.00000000000011
30
0
40
2.7500000000000253
210
-0
220
0
230
1
0
CIRCLE
5
128
100
AcDbEntity
8
0
100
AcDbCircle
10
657.00000000000034
20
705.00000000000023
30
0
40
2.7500000000001905
210
0
220
0
230
1
0
CIRCLE
5
129
100
AcDbEntity
8
0
100
AcDbCircle
10
601.00000000000045
20
705.00000000000023
30
0
40
2.7499999999999982
210
0
220
0
230
1
0
CIRCLE
5
130
100
AcDbEntity
8
0
100
AcDbCircle
10
657.00000000000034
20
685.00000000000023
30
0
40
2.7499999999998677
210
0
220
0
230
1
0
CIRCLE
5
131
100
AcDbEntity
8
0
100
AcDbCircle
10
658.00000000000057
20
637.00000000000023
30
0
40
2.750000000000123
210
0
220
0
230
1
0
CIRCLE
5
132
100
AcDbEntity
8
0
100
AcDbCircle
10
658.00000000000023
20
163.00000000000026
30
0
40
2.7499999999997904
210
0
220
0
230
1
0
CIRCLE
5
133
100
AcDbEntity
8
0
100
AcDbCircle
10
568.00000000000023
20
163.00000000000026
30
0
40
2.7499999999998654
210
0
220
0
230
1
0
CIRCLE
5
134
100
AcDbEntity
8
0
100
AcDbCircle
10
600.00000000000023
20
637.00000000000023
30
0
40
2.7500000000000457
210
0
220
0
230
1
0
CIRCLE
5
135
100
AcDbEntity
8
0
100
AcDbCircle
10
568.00000000000045
20
637.00000000000023
30
0
40
2.7499999999998166
210
0
220
0
230
1
0
CIRCLE
5
136
100
AcDbEntity
8
0
100
AcDbCircle
10
600.00000000000011
20
163.00000000000026
30
0
40
2.7500000000000573
210
0
220
0
230
1
0
CIRCLE
5
137
100
AcDbEntity
8
0
100
AcDbCircle
10
601.00000000000045
20
685.00000000000023
30
0
40
2.7500000000000253
210
0
220
0
230
1
0
CIRCLE
5
138
100
AcDbEntity
8
0
100
AcDbCircle
10
690.00000000000045
20
637.00000000000023
30
0
40
2.7500000000001523
210
0
220
0
230
1
0
CIRCLE
5
139
100
AcDbEntity
8
0
100
AcDbCircle
10
690.00000000000011
20
163.00000000000026
30
0
40
2.750000000000052
210
0
220
0
230
1
0
LWPOLYLINE
5
140
100
AcDbEntity
8
0
100
AcDbPolyline
90
12
70
1
43
0.0
10
1011.7426406871193
20
530.00000000000057
42
-0.99999999999999989
10
1007.5000000000001
20
534.24264068712
10
1007.5000000000001
20
680.00000000000136
10
987.50000000000011
20
680.00000000000136
10
765.00000000000011
20
400.00000000000045
10
765.00000000000011
20
380.00000000000057
10
1265.0000000000002
20
380.00000000000045
10
1265.0000000000002
20
400.00000000000028
10
1042.5000000000002
20
680.00000000000136
10
1022.5000000000001
20
680.00000000000136
10
1022.5000000000001
20
534.24264068712
42
-0.99999999999999989
10
1018.2573593128809
20
530.00000000000057
0
CIRCLE
5
141
100
AcDbEntity
8
0
100
AcDbCircle
10
80.450000000000159
20
101.00000000000023
30
0
40
2.5500000000000362
210
0
220
0
230
1
0
CIRCLE
5
142
100
AcDbEntity
8
0
100
AcDbCircle
10
122.45000000000005
20
101.0000000000003
30
0
40
2.549999999999955
210
0
220
0
230
1
0
CIRCLE
5
143
100
AcDbEntity
8
0
100
AcDbCircle
10
608.00000000000023
20
101.00000000000037
30
0
40
2.5499999999999772
210
0
220
0
230
1
0
CIRCLE
5
144
100
AcDbEntity
8
0
100
AcDbCircle
10
650.00000000000011
20
101.00000000000037
30
0
40
2.550000000000026
210
0
220
0
230
1
0
LWPOLYLINE
5
145
100
AcDbEntity
8
0
100
AcDbPolyline
90
4
70
1
43
0.0
10
2399.9999999999995
20
0
10
0
20
0
10
0
20
1200
10
2399.9999999999995
20
1200
0
LINE
5
146
100
AcDbEntity
8
0
100
AcDbLine
10
735.00000000000011
20
50.000000000000142
30
0
11
734.99999999999989
21
750.00000000000023
31
0
0
ENDSEC
0
SECTION
2
OBJECTS
0
DICTIONARY
5
C
100
AcDbDictionary
3
ACAD_GROUP
350
D
3
ACAD_MLINESTYLE
350
17
0
DICTIONARY
5
D
100
AcDbDictionary
0
DICTIONARY
5
1A
330
C
100
AcDbDictionary
0
DICTIONARY
5
17
100
AcDbDictionary
0
ENDSEC
0
EOF
