999
dxfrw 0.6.3
  0
SECTION
  2
HEADER
  9
$ACADVER
  1
AC1021
  9
$DWGCODEPAGE
  3
ANSI_1252
  9
$INSBASE
 10
0
 20
0
 30
0
  9
$EXTMIN
 10
81.74802352341689
 20
-17.49877029779979
 30
0
  9
$EXTMAX
 10
322.5796966938106
 20
190.9280755282919
 30
0
  9
$LIMMIN
 10
0
 20
0
  9
$LIMMAX
 10
420
 20
297
  9
$ORTHOMODE
 70
    0
  9
$REGENMODE
 70
    1
  9
$FILLMODE
 70
    1
  9
$QTEXTMODE
 70
    0
  9
$MIRRTEXT
 70
    0
  9
$LTSCALE
 40
1
  9
$ATTMODE
 70
    0
  9
$TEXTSIZE
 40
2.5
  9
$TRACEWID
 40
15.68
  9
$TEXTSTYLE
  7
STANDARD
  9
$CLAYER
  8
0
  9
$CELTYPE
  6
BYLAYER
  9
$CECOLOR
 62
  256
  9
$CELTSCALE
 40
1
  9
$DISPSILH
 70
    0
  9
$DIMSCALE
 40
2.5
  9
$DIMASZ
 40
2.5
  9
$DIMEXO
 40
0.625
  9
$DIMDLI
 40
3.75
  9
$DIMRND
 40
0
  9
$DIMDLE
 40
0
  9
$DIMEXE
 40
1.25
  9
$DIMTP
 40
0
  9
$DIMTM
 40
0
  9
$DIMTXT
 40
2.5
  9
$DIMCEN
 40
2.5
  9
$DIMTSZ
 40
0
  9
$DIMTOL
 70
    0
  9
$DIMLIM
 70
    0
  9
$DIMTIH
 70
    0
  9
$DIMTOH
 70
    0
  9
$DIMSE1
 70
    0
  9
$DIMSE2
 70
    0
  9
$DIMTAD
 70
    1
  9
$DIMZIN
 70
    8
  9
$DIMBLK
  1

  9
$DIMASO
 70
    1
  9
$DIMSHO
 70
    1
  9
$DIMPOST
  1

  9
$DIMAPOST
  1

  9
$DIMALT
 70
    0
  9
$DIMALTD
 70
    3
  9
$DIMALTF
 40
0.03937
  9
$DIMLFAC
 40
1
  9
$DIMTOFL
 70
    1
  9
$DIMTVP
 40
0
  9
$DIMTIX
 70
    0
  9
$DIMSOXD
 70
    0
  9
$DIMSAH
 70
    0
  9
$DIMBLK1
  1

  9
$DIMBLK2
  1

  9
$DIMSTYLE
  2
Standard
  9
$DIMCLRD
 70
    0
  9
$DIMCLRE
 70
    0
  9
$DIMCLRT
 70
    0
  9
$DIMTFAC
 40
1
  9
$DIMGAP
 40
0.625
  9
$DIMJUST
 70
    0
  9
$DIMSD1
 70
    0
  9
$DIMSD2
 70
    0
  9
$DIMTOLJ
 70
    0
  9
$DIMTZIN
 70
    8
  9
$DIMALTZ
 70
    0
  9
$DIMALTTZ
 70
    0
  9
$DIMUPT
 70
    0
  9
$DIMDEC
 70
    2
  9
$DIMTDEC
 70
    2
  9
$DIMALTU
 70
    2
  9
$DIMALTTD
 70
    3
  9
$DIMTXSTY
  7
STANDARD
  9
$DIMAUNIT
 70
    0
  9
$DIMADEC
 70
    0
  9
$DIMALTRND
 40
0
  9
$DIMAZIN
 70
    0
  9
$DIMDSEP
 70
   44
  9
$DIMATFIT
 70
    3
  9
$DIMFRAC
 70
    0
  9
$DIMLDRBLK
  1
STANDARD
  9
$DIMLUNIT
 70
    2
  9
$DIMLWD
 70
   -2
  9
$DIMLWE
 70
   -2
  9
$DIMTMOVE
 70
    0
  9
$DIMFXL
 40
1
  9
$DIMFXLON
 70
    0
  9
$DIMJOGANG
 40
0.7854
  9
$DIMTFILL
 70
    0
  9
$DIMTFILLCLR
 70
    0
  9
$DIMARCSYM
 70
    0
  9
$DIMLTYPE
  6

  9
$DIMLTEX1
  6

  9
$DIMLTEX2
  6

  9
$LUNITS
 70
    2
  9
$LUPREC
 70
    4
  9
$SKETCHINC
 40
1
  9
$FILLETRAD
 40
0
  9
$AUNITS
 70
    0
  9
$AUPREC
 70
    2
  9
$MENU
  1
.
  9
$ELEVATION
 40
0
  9
$PELEVATION
 40
0
  9
$THICKNESS
 40
0
  9
$LIMCHECK
 70
    0
  9
$CHAMFERA
 40
0
  9
$CHAMFERB
 40
0
  9
$CHAMFERC
 40
0
  9
$CHAMFERD
 40
0
  9
$SKPOLY
 70
    0
  9
$USRTIMER
 70
    1
  9
$ANGBASE
 50
0
  9
$ANGDIR
 70
    0
  9
$PDMODE
 70
   34
  9
$PDSIZE
 40
0
  9
$PLINEWID
 40
0
  9
$SPLFRAME
 70
    0
  9
$SPLINETYPE
 70
    2
  9
$SPLINESEGS
 70
    8
  9
$HANDSEED
  5
20000
  9
$SURFTAB1
 70
    6
  9
$SURFTAB2
 70
    6
  9
$SURFTYPE
 70
    6
  9
$SURFU
 70
    6
  9
$SURFV
 70
    6
  9
$UCSBASE
  2

  9
$UCSNAME
  2

  9
$UCSORG
 10
0
 20
0
 30
0
  9
$UCSXDIR
 10
1
 20
0
 30
0
  9
$UCSYDIR
 10
0
 20
1
 30
0
  9
$UCSORTHOREF
  2

  9
$UCSORTHOVIEW
 70
    0
  9
$UCSORGTOP
 10
0
 20
0
 30
0
  9
$UCSORGBOTTOM
 10
0
 20
0
 30
0
  9
$UCSORGLEFT
 10
0
 20
0
 30
0
  9
$UCSORGRIGHT
 10
0
 20
0
 30
0
  9
$UCSORGFRONT
 10
0
 20
0
 30
0
  9
$UCSORGBACK
 10
0
 20
0
 30
0
  9
$PUCSBASE
  2

  9
$PUCSNAME
  2

  9
$PUCSORG
 10
0
 20
0
 30
0
  9
$PUCSXDIR
 10
1
 20
0
 30
0
  9
$PUCSYDIR
 10
0
 20
1
 30
0
  9
$PUCSORTHOREF
  2

  9
$PUCSORTHOVIEW
 70
    0
  9
$PUCSORGTOP
 10
0
 20
0
 30
0
  9
$PUCSORGBOTTOM
 10
0
 20
0
 30
0
  9
$PUCSORGLEFT
 10
0
 20
0
 30
0
  9
$PUCSORGRIGHT
 10
0
 20
0
 30
0
  9
$PUCSORGFRONT
 10
0
 20
0
 30
0
  9
$PUCSORGBACK
 10
0
 20
0
 30
0
  9
$USERI1
 70
    0
  9
$USERI2
 70
    0
  9
$USERI3
 70
    0
  9
$USERI4
 70
    0
  9
$USERI5
 70
    0
  9
$USERR1
 40
0
  9
$USERR2
 40
0
  9
$USERR3
 40
0
  9
$USERR4
 40
0
  9
$USERR5
 40
0
  9
$WORLDVIEW
 70
    1
  9
$SHADEDGE
 70
    3
  9
$SHADEDIF
 70
   70
  9
$TILEMODE
 70
    1
  9
$MAXACTVP
 70
   64
  9
$PINSBASE
 10
0
 20
0
 30
0
  9
$PLIMCHECK
 70
    0
  9
$PEXTMIN
 10
0
 20
0
 30
0
  9
$PEXTMAX
 10
0
 20
0
 30
0
  9
$SNAPSTYLE
 70
    0
  9
$PLIMMIN
 10
0
 20
0
  9
$PLIMMAX
 10
210
 20
297
  9
$UNITMODE
 70
    0
  9
$VISRETAIN
 70
    1
  9
$PLINEGEN
 70
    0
  9
$PSLTSCALE
 70
    1
  9
$TREEDEPTH
 70
 3020
  9
$CMLSTYLE
  2
Standard
  9
$CMLJUST
 70
    0
  9
$CMLSCALE
 40
20
  9
$PROXYGRAPHICS
 70
    1
  9
$MEASUREMENT
 70
    1
  9
$CELWEIGHT
370
   -1
  9
$ENDCAPS
280
    0
  9
$JOINSTYLE
280
    0
  9
$LWDISPLAY
290
    0
  9
$INSUNITS
 70
    4
  9
$HYPERLINKBASE
  1

  9
$STYLESHEET
  1

  9
$XEDIT
290
    1
  9
$CEPSNTYPE
380
    0
  9
$PSTYLEMODE
290
    1
  9
$EXTNAMES
290
    1
  9
$PSVPSCALE
 40
1
  9
$OLESTARTUP
290
    0
  9
$SORTENTS
280
  127
  9
$INDEXCTL
280
    0
  9
$HIDETEXT
280
    1
  9
$XCLIPFRAME
290
    0
  9
$HALOGAP
280
    0
  9
$OBSCOLOR
 70
  257
  9
$OBSLTYPE
280
    0
  9
$INTERSECTIONDISPLAY
280
    0
  9
$INTERSECTIONCOLOR
 70
  257
  9
$DIMASSOC
280
    1
  9
$PROJECTNAME
  1

  9
$CAMERADISPLAY
290
    0
  9
$LENSLENGTH
 40
50
  9
$CAMERAHEIGHT
 40
0
  9
$STEPSPERSEC
 40
2
  9
$STEPSIZE
 40
50
  9
$3DDWFPREC
 40
2
  9
$PSOLWIDTH
 40
5
  9
$PSOLHEIGHT
 40
80
  9
$LOFTANG1
 40
1.570796326794897
  9
$LOFTANG2
 40
1.570796326794897
  9
$LOFTMAG1
 40
0
  9
$LOFTMAG2
 40
0
  9
$LOFTPARAM
 70
    7
  9
$LOFTNORMALS
280
    1
  9
$LATITUDE
 40
1
  9
$LONGITUDE
 40
1
  9
$NORTHDIRECTION
 40
0
  9
$TIMEZONE
 70
-8000
  9
$LIGHTGLYPHDISPLAY
280
    1
  9
$TILEMODELIGHTSYNCH
280
    1
  9
$SOLIDHIST
280
    1
  9
$SHOWHIST
280
    1
  9
$DWFFRAME
280
    2
  9
$DGNFRAME
280
    0
  9
$REALWORLDSCALE
290
    1
  9
$INTERFERECOLOR
 62
    1
  9
$CSHADOW
280
    0
  9
$SHADOWPLANELOCATION
 40
0
  0
ENDSEC
  0
SECTION
  2
CLASSES
  0
ENDSEC
  0
SECTION
  2
TABLES
  0
TABLE
  2
VPORT
  5
8
330
0
100
AcDbSymbolTable
 70
    1
  0
VPORT
  5
31
330
2
100
AcDbSymbolTableRecord
100
AcDbViewportTableRecord
  2
*ACTIVE
 70
    0
 10
0
 20
0
 11
1
 21
1
 12
202.8031368750001
 22
103.42152
 13
0
 23
0
 14
10
 24
10
 15
10
 25
10
 16
0
 26
0
 36
1
 17
0
 27
0
 37
0
 40
252.7363395000001
 41
1.615089514066496
 42
50
 43
0
 44
0
 50
0
 51
0
 71
    0
 72
  100
 73
    1
 74
    3
 75
    0
 76
    1
 77
    0
 78
    0
281
    0
 65
    1
110
0
120
0
130
0
111
1
121
0
131
0
112
0
122
1
132
0
 79
    0
146
0
348
10020
 60
    7
 61
    5
292
1
282
    1
141
0
142
0
 63
  250
421
3358443
  0
ENDTAB
  0
TABLE
  2
LTYPE
  5
5
330
0
100
AcDbSymbolTable
 70
    4
  0
LTYPE
  5
14
330
5
100
AcDbSymbolTableRecord
100
AcDbLinetypeTableRecord
  2
ByBlock
 70
    0
  3

 72
   65
 73
    0
 40
0
  0
LTYPE
  5
15
330
5
100
AcDbSymbolTableRecord
100
AcDbLinetypeTableRecord
  2
ByLayer
 70
    0
  3

 72
   65
 73
    0
 40
0
  0
LTYPE
  5
16
330
5
100
AcDbSymbolTableRecord
100
AcDbLinetypeTableRecord
  2
Continuous
 70
    0
  3
Solid line
 72
   65
 73
    0
 40
0
  0
LTYPE
  5
32
330
5
100
AcDbSymbolTableRecord
100
AcDbLinetypeTableRecord
  2
DOT
 70
    0
  3
Dot . . . . . . . . . . . . . . . . . . . . . .
 72
   65
 73
    2
 40
6.35
 49
0
 74
    0
 49
-6.35
 74
    0
  0
LTYPE
  5
33
330
5
100
AcDbSymbolTableRecord
100
AcDbLinetypeTableRecord
  2
DOTTINY
 70
    0
  3
Dot (.15x) .....................................
 72
   65
 73
    2
 40
0.9525
 49
0
 74
    0
 49
-0.9525
 74
    0
  0
LTYPE
  5
34
330
5
100
AcDbSymbolTableRecord
100
AcDbLinetypeTableRecord
  2
DOT2
 70
    0
  3
Dot (.5x) .....................................
 72
   65
 73
    2
 40
3.175
 49
0
 74
    0
 49
-3.175
 74
    0
  0
LTYPE
  5
35
330
5
100
AcDbSymbolTableRecord
100
AcDbLinetypeTableRecord
  2
DOTX2
 70
    0
  3
Dot (2x) .  .  .  .  .  .  .  .  .  .  .  .  .
 72
   65
 73
    2
 40
12.7
 49
0
 74
    0
 49
-12.7
 74
    0
  0
LTYPE
  5
36
330
5
100
AcDbSymbolTableRecord
100
AcDbLinetypeTableRecord
  2
DASHED
 70
    0
  3
Dashed _ _ _ _ _ _ _ _ _ _ _ _ _ _ _ _ _
 72
   65
 73
    2
 40
19.05
 49
12.7
 74
    0
 49
-6.35
 74
    0
  0
LTYPE
  5
37
330
5
100
AcDbSymbolTableRecord
100
AcDbLinetypeTableRecord
  2
DASHEDTINY
 70
    0
  3
Dashed (.15x) _ _ _ _ _ _ _ _ _ _ _ _ _ _ _ _ _
 72
   65
 73
    2
 40
2.8575
 49
1.905
 74
    0
 49
-0.9525
 74
    0
  0
LTYPE
  5
38
330
5
100
AcDbSymbolTableRecord
100
AcDbLinetypeTableRecord
  2
DASHED2
 70
    0
  3
Dashed (.5x) _ _ _ _ _ _ _ _ _ _ _ _ _ _ _ _ _
 72
   65
 73
    2
 40
9.524999999999999
 49
6.35
 74
    0
 49
-3.175
 74
    0
  0
LTYPE
  5
39
330
5
100
AcDbSymbolTableRecord
100
AcDbLinetypeTableRecord
  2
DASHEDX2
 70
    0
  3
Dashed (2x) ____  ____  ____  ____  ____  ___
 72
   65
 73
    2
 40
38.09999999999999
 49
25.4
 74
    0
 49
-12.7
 74
    0
  0
LTYPE
  5
3A
330
5
100
AcDbSymbolTableRecord
100
AcDbLinetypeTableRecord
  2
DASHDOT
 70
    0
  3
Dash dot __ . __ . __ . __ . __ . __ . __ . __
 72
   65
 73
    4
 40
25.4
 49
12.7
 74
    0
 49
-6.35
 74
    0
 49
0
 74
    0
 49
-6.35
 74
    0
  0
LTYPE
  5
3B
330
5
100
AcDbSymbolTableRecord
100
AcDbLinetypeTableRecord
  2
DASHDOTTINY
 70
    0
  3
Dash dot (.15x) _._._._._._._._._._._._._._._.
 72
   65
 73
    4
 40
3.81
 49
1.905
 74
    0
 49
-0.9525
 74
    0
 49
0
 74
    0
 49
-0.9525
 74
    0
  0
LTYPE
  5
3C
330
5
100
AcDbSymbolTableRecord
100
AcDbLinetypeTableRecord
  2
DASHDOT2
 70
    0
  3
Dash dot (.5x) _._._._._._._._._._._._._._._.
 72
   65
 73
    4
 40
12.7
 49
6.35
 74
    0
 49
-3.175
 74
    0
 49
0
 74
    0
 49
-3.175
 74
    0
  0
LTYPE
  5
3D
330
5
100
AcDbSymbolTableRecord
100
AcDbLinetypeTableRecord
  2
DASHDOTX2
 70
    0
  3
Dash dot (2x) ____  .  ____  .  ____  .  ___
 72
   65
 73
    4
 40
50.8
 49
25.4
 74
    0
 49
-12.7
 74
    0
 49
0
 74
    0
 49
-12.7
 74
    0
  0
LTYPE
  5
3E
330
5
100
AcDbSymbolTableRecord
100
AcDbLinetypeTableRecord
  2
DIVIDE
 70
    0
  3
Divide ____ . . ____ . . ____ . . ____ . . ____
 72
   65
 73
    6
 40
31.75
 49
12.7
 74
    0
 49
-6.35
 74
    0
 49
0
 74
    0
 49
-6.35
 74
    0
 49
0
 74
    0
 49
-6.35
 74
    0
  0
LTYPE
  5
3F
330
5
100
AcDbSymbolTableRecord
100
AcDbLinetypeTableRecord
  2
DIVIDETINY
 70
    0
  3
Divide (.15x) __..__..__..__..__..__..__..__.._
 72
   65
 73
    6
 40
4.7625
 49
1.905
 74
    0
 49
-0.9525
 74
    0
 49
0
 74
    0
 49
-0.9525
 74
    0
 49
0
 74
    0
 49
-0.9525
 74
    0
  0
LTYPE
  5
40
330
5
100
AcDbSymbolTableRecord
100
AcDbLinetypeTableRecord
  2
DIVIDE2
 70
    0
  3
Divide (.5x) __..__..__..__..__..__..__..__.._
 72
   65
 73
    6
 40
15.875
 49
6.35
 74
    0
 49
-3.175
 74
    0
 49
0
 74
    0
 49
-3.175
 74
    0
 49
0
 74
    0
 49
-3.175
 74
    0
  0
LTYPE
  5
41
330
5
100
AcDbSymbolTableRecord
100
AcDbLinetypeTableRecord
  2
DIVIDEX2
 70
    0
  3
Divide (2x) ________  .  .  ________  .  .  _
 72
   65
 73
    6
 40
63.5
 49
25.4
 74
    0
 49
-12.7
 74
    0
 49
0
 74
    0
 49
-12.7
 74
    0
 49
0
 74
    0
 49
-12.7
 74
    0
  0
LTYPE
  5
42
330
5
100
AcDbSymbolTableRecord
100
AcDbLinetypeTableRecord
  2
BORDER
 70
    0
  3
Border __ __ . __ __ . __ __ . __ __ . __ __ .
 72
   65
 73
    6
 40
44.45
 49
12.7
 74
    0
 49
-6.35
 74
    0
 49
12.7
 74
    0
 49
-6.35
 74
    0
 49
0
 74
    0
 49
-6.35
 74
    0
  0
LTYPE
  5
43
330
5
100
AcDbSymbolTableRecord
100
AcDbLinetypeTableRecord
  2
BORDERTINY
 70
    0
  3
Border (.15x) __.__.__.__.__.__.__.__.__.__.__.
 72
   65
 73
    6
 40
6.6675
 49
1.905
 74
    0
 49
-0.9525
 74
    0
 49
1.905
 74
    0
 49
-0.9525
 74
    0
 49
0
 74
    0
 49
-0.9525
 74
    0
  0
LTYPE
  5
44
330
5
100
AcDbSymbolTableRecord
100
AcDbLinetypeTableRecord
  2
BORDER2
 70
    0
  3
Border (.5x) __.__.__.__.__.__.__.__.__.__.__.
 72
   65
 73
    6
 40
22.225
 49
6.35
 74
    0
 49
-3.175
 74
    0
 49
6.35
 74
    0
 49
-3.175
 74
    0
 49
0
 74
    0
 49
-3.175
 74
    0
  0
LTYPE
  5
45
330
5
100
AcDbSymbolTableRecord
100
AcDbLinetypeTableRecord
  2
BORDERX2
 70
    0
  3
Border (2x) ____  ____  .  ____  ____  .  ___
 72
   65
 73
    6
 40
88.89999999999999
 49
25.4
 74
    0
 49
-12.7
 74
    0
 49
25.4
 74
    0
 49
-12.7
 74
    0
 49
0
 74
    0
 49
-12.7
 74
    0
  0
LTYPE
  5
46
330
5
100
AcDbSymbolTableRecord
100
AcDbLinetypeTableRecord
  2
CENTER
 70
    0
  3
Center ____ _ ____ _ ____ _ ____ _ ____ _ ____
 72
   65
 73
    4
 40
50.8
 49
31.75
 74
    0
 49
-6.35
 74
    0
 49
6.35
 74
    0
 49
-6.35
 74
    0
  0
LTYPE
  5
47
330
5
100
AcDbSymbolTableRecord
100
AcDbLinetypeTableRecord
  2
CENTERTINY
 70
    0
  3
Center (.15x) ___ _ ___ _ ___ _ ___ _ ___ _ ___
 72
   65
 73
    4
 40
7.62
 49
4.7625
 74
    0
 49
-0.9525
 74
    0
 49
0.9525
 74
    0
 49
-0.9525
 74
    0
  0
LTYPE
  5
48
330
5
100
AcDbSymbolTableRecord
100
AcDbLinetypeTableRecord
  2
CENTER2
 70
    0
  3
Center (.5x) ___ _ ___ _ ___ _ ___ _ ___ _ ___
 72
   65
 73
    4
 40
28.575
 49
19.05
 74
    0
 49
-3.175
 74
    0
 49
3.175
 74
    0
 49
-3.175
 74
    0
  0
LTYPE
  5
49
330
5
100
AcDbSymbolTableRecord
100
AcDbLinetypeTableRecord
  2
CENTERX2
 70
    0
  3
Center (2x) ________  __  ________  __  _____
 72
   65
 73
    4
 40
101.6
 49
63.5
 74
    0
 49
-12.7
 74
    0
 49
12.7
 74
    0
 49
-12.7
 74
    0
  0
ENDTAB
  0
TABLE
  2
LAYER
  5
2
330
0
100
AcDbSymbolTable
 70
    1
  0
LAYER
  5
10
330
2
100
AcDbSymbolTableRecord
100
AcDbLayerTableRecord
  2
0
 70
    0
 62
    7
  6
CONTINUOUS
370
   -3
390
F
  0
ENDTAB
  0
TABLE
  2
STYLE
  5
3
330
0
100
AcDbSymbolTable
 70
    3
  0
STYLE
  5
4A
330
2
100
AcDbSymbolTableRecord
100
AcDbTextStyleTableRecord
  2
Standard
 70
    0
 40
0
 41
1
 50
0
 71
    0
 42
1
  3
txt
  4

  0
ENDTAB
  0
TABLE
  2
VIEW
  5
6
330
0
100
AcDbSymbolTable
 70
    0
  0
ENDTAB
  0
TABLE
  2
UCS
  5
7
330
0
100
AcDbSymbolTable
 70
    0
  0
ENDTAB
  0
TABLE
  2
APPID
  5
9
330
0
100
AcDbSymbolTable
 70
    1
  0
APPID
  5
12
330
9
100
AcDbSymbolTableRecord
100
AcDbRegAppTableRecord
  2
ACAD
 70
    0
  0
APPID
  5
4B
330
9
100
AcDbSymbolTableRecord
100
AcDbRegAppTableRecord
  2
LibreCad
 70
    0
  0
ENDTAB
  0
TABLE
  2
DIMSTYLE
  5
A
330
0
100
AcDbSymbolTable
 70
    1
100
AcDbDimStyleTable
 71
    1
  0
DIMSTYLE
105
4C
330
A
100
AcDbSymbolTableRecord
100
AcDbDimStyleTableRecord
  2
Standard
 70
    0
 40
1
 41
2.5
 42
0.625
 43
0.38
 44
1.25
 45
0
 46
0
 47
0
 48
0
 49
1
140
2.5
141
0.09
142
2.5
143
25.4
144
1
145
0
146
1
147
0.625
148
0
 71
    0
 72
    0
 73
    0
 74
    1
 75
    0
 76
    0
 77
    0
 78
    1
 79
    0
170
    0
171
    2
172
    0
173
    0
174
    0
175
    0
176
    0
177
    0
178
    0
179
    0
271
    2
272
    4
273
    2
274
    2
275
    0
276
    0
277
    2
278
    0
279
    0
280
    0
281
    0
282
    0
283
    1
284
    0
285
    0
286
    0
288
    0
289
    3
340
standard
341

371
   -2
372
   -2
  0
ENDTAB
  0
TABLE
  2
BLOCK_RECORD
  5
1
330
0
100
AcDbSymbolTable
 70
    2
  0
BLOCK_RECORD
  5
1F
330
1
100
AcDbSymbolTableRecord
100
AcDbBlockTableRecord
  2
*Model_Space
 70
    0
280
    1
281
    0
  0
BLOCK_RECORD
  5
1E
330
1
100
AcDbSymbolTableRecord
100
AcDbBlockTableRecord
  2
*Paper_Space
 70
    0
280
    1
281
    0
  0
ENDTAB
  0
ENDSEC
  0
SECTION
  2
BLOCKS
  0
BLOCK
  5
20
330
1F
100
AcDbEntity
  8
0
100
AcDbBlockBegin
  2
*Model_Space
 70
    0
 10
0
 20
0
 30
0
  3
*Model_Space
  1

  0
ENDBLK
  5
21
330
1F
100
AcDbEntity
  8
0
100
AcDbBlockEnd
  0
BLOCK
  5
1C
330
1B
100
AcDbEntity
  8
0
100
AcDbBlockBegin
  2
*Paper_Space
 70
    0
 10
0
 20
0
 30
0
  3
*Paper_Space
  1

  0
ENDBLK
  5
1D
330
1F
100
AcDbEntity
  8
0
100
AcDbBlockEnd
  0
ENDSEC
  0
SECTION
  2
ENTITIES
  0
SPLINE
  5
4D
100
AcDbEntity
  8
0
  6
ByLayer
 62
  256
370
   -1
100
AcDbSpline
210
0
220
0
230
0
 70
    8
 71
    3
 72
   14
 73
   10
 74
    0
 42
1e-007
 43
1e-007
 40
0
 40
0
 40
0
 40
0
 40
0.1953222366934639
 40
0.1953222366934639
 40
0.3906444733869279
 40
0.3906444733869279
 40
0.5859667100803904
 40
0.5859667100803904
 40
0.7834404891800583
 40
0.7834404891800583
 40
0.7834404891800583
 40
0.7834404891800583
 10
122.8366700869152
 20
-7.474847676273898
 30
0
 10
122.8484596299709
 20
-6.823880304266447
 30
0
 10
122.9872848616842
 20
-6.181439295059258
 30
0
 10
123.5033785903945
 20
-4.985932158250426
 30
0
 10
123.8757129500523
 20
-4.444295730478414
 30
0
 10
124.8070414907058
 20
-3.534231336965878
 30
0
 10
125.3571316632395
 20
-3.174504082850745
 30
0
 10
126.570886308024
 20
-2.68346573147775
 30
0
 10
127.2238735650453
 20
-2.559513083663306
 30
0
 10
127.882091345078
 20
-2.565600681526394
 30
0
  0
LINE
  5
4E
100
AcDbEntity
  8
0
  6
ByLayer
 62
  256
370
   -1
100
AcDbLine
 10
122.8366700869152
 20
-7.474847676273898
 11
122.6551287802143
 21
-17.49877029779979
  0
SPLINE
  5
4F
100
AcDbEntity
  8
0
  6
ByLayer
 62
  256
370
   -1
100
AcDbSpline
210
0
220
0
230
0
 70
    8
 71
    3
 72
  131
 73
  127
 74
    0
 42
1e-007
 43
1e-007
 40
0.005533846803177196
 40
0.005533846803177196
 40
0.005533846803177196
 40
0.005533846803177196
 40
0.06481828449591874
 40
0.06481828449591874
 40
0.06481828449591874
 40
0.09549692067303013
 40
0.09549692067303013
 40
0.09549692067303013
 40
0.1251691441903514
 40
0.1251691441903514
 40
0.1251691441903514
 40
0.1538679704151869
 40
0.1538679704151869
 40
0.1538679704151869
 40
0.1816253316457167
 40
0.1816253316457167
 40
0.1816253316457167
 40
0.208472112641079
 40
0.208472112641079
 40
0.208472112641079
 40
0.2347553445993425
 40
0.2347553445993425
 40
0.2347553445993425
 40
0.2601658236284869
 40
0.2601658236284869
 40
0.2601658236284869
 40
0.284732530094264
 40
0.284732530094264
 40
0.284732530094264
 40
0.3084834820492998
 40
0.3084834820492998
 40
0.3084834820492998
 40
0.3314457671873688
 40
0.3314457671873688
 40
0.3314457671873688
 40
0.3536455737366045
 40
0.3536455737366045
 40
0.3536455737366045
 40
0.3751082203268791
 40
0.3751082203268791
 40
0.3751082203268791
 40
0.3958581848654161
 40
0.3958581848654161
 40
0.3958581848654161
 40
0.4159191324535688
 40
0.4159191324535688
 40
0.4159191324535688
 40
0.4257349852561091
 40
0.4257349852561091
 40
0.4257349852561091
 40
0.4353858763699608
 40
0.4353858763699608
 40
0.4353858763699608
 40
0.4448745780818811
 40
0.4448745780818811
 40
0.4448745780818811
 40
0.454203816088574
 40
0.454203816088574
 40
0.454203816088574
 40
0.4723273565636225
 40
0.4723273565636225
 40
0.4723273565636225
 40
0.4898490923191935
 40
0.4898490923191935
 40
0.4898490923191935
 40
0.5067890066979944
 40
0.5067890066979944
 40
0.5067890066979944
 40
0.5231664194819915
 40
0.5231664194819915
 40
0.5231664194819915
 40
0.5390000089264038
 40
0.5390000089264038
 40
0.5390000089264038
 40
0.5543078330620433
 40
0.5543078330620433
 40
0.5543078330620433
 40
0.5691073502902968
 40
0.5691073502902968
 40
0.5691073502902968
 40
0.5834154392942353
 40
0.5834154392942353
 40
0.5834154392942353
 40
0.5972484182885636
 40
0.5972484182885636
 40
0.5972484182885636
 40
0.6106220636303594
 40
0.6106220636303594
 40
0.6106220636303594
 40
0.6235516278118328
 40
0.6235516278118328
 40
0.6235516278118328
 40
0.6482504055110985
 40
0.6482504055110985
 40
0.6482504055110985
 40
0.6713286964055153
 40
0.6713286964055153
 40
0.6713286964055153
 40
0.6928928206343494
 40
0.6928928206343494
 40
0.6928928206343494
 40
0.7130421226725298
 40
0.7130421226725298
 40
0.7130421226725298
 40
0.7318694290039851
 40
0.7318694290039851
 40
0.7318694290039851
 40
0.7494614757670337
 40
0.7494614757670337
 40
0.7494614757670337
 40
0.7658993083419586
 40
0.7658993083419586
 40
0.7658993083419586
 40
0.7962473188071232
 40
0.7962473188071232
 40
0.7962473188071232
 40
0.8993680162849034
 40
0.8993680162849034
 40
0.8993680162849034
 40
0.9251443444789583
 40
0.9251443444789583
 40
0.9251443444789583
 40
0.9630293301502837
 40
0.9630293301502837
 40
0.9630293301502837
 40
1
 40
1
 40
1
 40
1
 10
92.87534597421333
 20
188.154777863376
 30
0
 10
99.51676914977108
 20
171.7277077460169
 30
0
 10
106.6260074128568
 20
155.7576782420011
 30
0
 10
114.2024950379205
 20
140.3208748454271
 30
0
 10
118.1231918749957
 20
132.3326051818848
 30
0
 10
122.1687178531492
 20
124.4907191323763
 30
0
 10
126.336775178772
 20
116.8434585837233
 30
0
 10
130.3680993838277
 20
109.4470664173688
 30
0
 10
134.5142063403188
 20
102.2321594873035
 30
0
 10
138.769879638099
 20
95.27958141520494
 30
0
 10
142.8859455733454
 20
88.55508266676162
 30
0
 10
147.1048280221297
 20
82.07550375603772
 30
0
 10
151.4153352698139
 20
75.95742925151943
 30
0
 10
155.5844363272377
 20
70.04005818112186
 30
0
 10
159.8401104383889
 20
64.46038418965855
 30
0
 10
164.1580887024041
 20
59.37075070641905
 30
0
 10
168.3344156894684
 20
54.44808264959722
 30
0
 10
172.5692106223191
 20
49.98783650251441
 30
0
 10
176.8188395557395
 20
46.15365232081871
 30
0
 10
180.9792632211664
 20
42.39995267855539
 30
0
 10
185.1516688941036
 20
39.25246028108696
 30
0
 10
189.2830086338951
 20
36.81242382737065
 30
0
 10
193.2771643749755
 20
34.45341047482848
 30
0
 10
197.2258559662598
 20
32.755299929427
 30
0
 10
201.1423544979774
 20
31.70705938420361
 30
0
 10
204.9288029821638
 20
30.69362639262195
 30
0
 10
208.6911339528612
 20
30.27933698081645
 30
0
 10
212.5259137896259
 20
30.43845473781644
 30
0
 10
216.2333571047491
 20
30.59228887944078
 30
0
 10
220.0187612581381
 20
31.28974218398947
 30
0
 10
223.8963599251346
 20
32.50044581870331
 30
0
 10
227.6452002415622
 20
33.67094720031641
 30
0
 10
231.475779301583
 20
35.32497613329714
 30
0
 10
235.3069782874317
 20
37.32260563754189
 30
0
 10
239.0109596562748
 20
39.2539024699184
 30
0
 10
242.7101941342445
 20
41.50120333078022
 30
0
 10
246.3266184409639
 20
43.85832371976355
 30
0
 10
249.8229568727179
 20
46.13717429295563
 30
0
 10
253.2396750398136
 20
48.51522614428681
 30
0
 10
256.5495939506283
 20
50.7928873558121
 30
0
 10
259.7496047105296
 20
52.99491724859181
 30
0
 10
262.8465127668409
 20
55.10223832057137
 30
0
 10
265.8953917415233
 20
56.9551559693766
 30
0
 10
268.843030577249
 20
58.74654620374591
 30
0
 10
271.7471377298814
 20
60.30890169037992
 30
0
 10
274.7631897600031
 20
61.46989435671674
 30
0
 10
276.2389487012188
 20
62.03796987097217
 30
0
 10
277.7441027364096
 20
62.50819960351763
 30
0
 10
279.2877240443503
 20
62.84430228352777
 30
0
 10
280.8054038082627
 20
63.17475654288791
 30
0
 10
282.3613588804195
 20
63.37361609121664
 30
0
 10
283.9304851697624
 20
63.40748828739738
 30
0
 10
285.4732412875409
 20
63.44079123964242
 30
0
 10
287.0261272829637
 20
63.3128581142354
 30
0
 10
288.5427416688745
 20
63.02499812260933
 30
0
 10
290.0338683793665
 20
62.74197580237868
 30
0
 10
291.4874982847003
 20
62.30624567246422
 30
0
 10
292.8813036164212
 20
61.7494184695551
 30
0
 10
295.5889939257111
 20
60.6676923583452
 30
0
 10
298.0628241309717
 20
59.14769939105642
 30
0
 10
300.4224374967515
 20
57.36416088217634
 30
0
 10
302.7036982657181
 20
55.63984600531738
 30
0
 10
304.8947441009383
 20
53.65858749645886
 30
0
 10
307.0951218107705
 20
51.46727467717352
 30
0
 10
309.2224344540816
 20
49.34872591843767
 30
0
 10
311.3579334995397
 20
47.03044064395079
 30
0
 10
313.5012372385161
 20
44.55529737231072
 30
0
 10
315.5733710917207
 20
42.16234294805987
 30
0
 10
317.6512959299098
 20
39.62317307450748
 30
0
 10
319.6713091801958
 20
36.98809196310955
 30
0
 10
321.6242464908163
 20
34.44051054589273
 30
0
 10
323.5207656741537
 20
31.80481302263004
 30
0
 10
325.2709939918987
 20
29.12514728927768
 30
0
 10
326.9631047656002
 20
26.53446171337161
 30
0
 10
328.5180882184826
 20
23.90443542966064
 30
0
 10
329.8446861179332
 20
21.24911183501474
 30
0
 10
331.127233414918
 20
18.68196010023241
 30
0
 10
332.1994297700614
 20
16.09103930517625
 30
0
 10
332.9510599372267
 20
13.44864170475834
 30
0
 10
333.6777317038783
 20
10.89398674760912
 30
0
 10
334.1072662289022
 20
8.277711712549788
 30
0
 10
334.0578980173533
 20
5.620195789745135
 30
0
 10
334.0101691114767
 20
3.050924524579647
 30
0
 10
333.4840802251022
 20
0.4379831901363543
 30
0
 10
332.4238306581112
 20
-1.942582532748449
 30
0
 10
331.3987874126511
 20
-4.244099921284276
 30
0
 10
329.8943952251889
 20
-6.286872558019856
 30
0
 10
328.1603185000702
 20
-7.950937933815659
 30
0
 10
326.4838229941702
 20
-9.559746865758692
 30
0
 10
324.6050358439383
 20
-10.83652277039857
 30
0
 10
322.6585108664037
 20
-11.87632276780551
 30
0
 10
318.9401498272063
 20
-13.86260696325041
 30
0
 10
314.9547742059742
 20
-15.03056791274649
 30
0
 10
311.1044851293128
 20
-15.83291135312981
 30
0
 10
307.5068135189711
 20
-16.58261304038957
 30
0
 10
304.035825534343
 20
-16.99404658006348
 30
0
 10
300.9389102022348
 20
-17.24723336754539
 30
0
 10
298.0451834850662
 20
-17.48380856990061
 30
0
 10
295.4837092955386
 20
-17.58022112027665
 30
0
 10
293.2381399426371
 20
-17.62336961677475
 30
0
 10
291.1399023949793
 20
-17.66368714041761
 30
0
 10
289.3087198840538
 20
-17.65606679960094
 30
0
 10
287.5589988366331
 20
-17.63500652765838
 30
0
 10
285.9240769871336
 20
-17.61532802015797
 30
0
 10
284.3542444998234
 20
-17.58314233174936
 30
0
 10
282.6376131463575
 20
-17.55007152967885
 30
0
 10
281.0336099759925
 20
-17.5191705029322
 30
0
 10
279.2962343707913
 20
-17.48697227837897
 30
0
 10
277.2904570410718
 20
-17.45728812007057
 30
0
 10
275.4162787619553
 20
-17.42955153938878
 30
0
 10
273.3080830764522
 20
-17.40389062701824
 30
0
 10
270.91407155979
 20
-17.38211499579628
 30
0
 10
266.494177012852
 20
-17.34191218431262
 30
0
 10
261.0804219625544
 20
-17.31570770409488
 30
0
 10
254.7353315377391
 20
-17.30685866247371
 30
0
 10
233.1750994125528
 20
-17.27679015616975
 30
0
 10
200.5652786787631
 20
-17.46161849312548
 30
0
 10
174.7534515001351
 20
-17.55941812051807
 30
0
 10
168.3014574299059
 20
-17.58386437965505
 30
0
 10
162.2398643909505
 20
-17.60306370714914
 30
0
 10
156.69689602701
 20
-17.61462657058472
 30
0
 10
148.5500693935359
 20
-17.63162119108608
 30
0
 10
141.5313167777105
 20
-17.63199546174393
 30
0
 10
135.7991191275701
 20
-17.61258459153969
 30
0
 10
130.2052622715792
 20
-17.59364218306046
 30
0
 10
125.8310940068813
 20
-17.55628958431615
 30
0
 10
122.6551287802144
 20
-17.49877029779979
 30
0
  0
SPLINE
  5
50
100
AcDbEntity
  8
0
  6
ByLayer
 62
  256
370
   -1
100
AcDbSpline
210
0
220
0
230
0
 70
    8
 71
    3
 72
   14
 73
   10
 74
    0
 42
1e-007
 43
1e-007
 40
0
 40
0
 40
0
 40
0
 40
0.1953222366934662
 40
0.1953222366934662
 40
0.3906444733869294
 40
0.3906444733869294
 40
0.5859667100803931
 40
0.5859667100803931
 40
0.7846744836842433
 40
0.7846744836842433
 40
0.7846744836842433
 40
0.7846744836842433
 10
86.39553012816565
 20
190.9280755282919
 30
0
 10
87.00069200796375
 20
191.1682350835526
 30
0
 10
87.64697671184906
 20
191.2878970106441
 30
0
 10
88.9490369116935
 20
191.2727547863668
 30
0
 10
89.59236400246446
 20
191.1380954029151
 30
0
 10
90.79119025995034
 20
190.6297592392031
 30
0
 10
91.33522799423291
 20
190.2609424297325
 30
0
 10
92.25924741613932
 20
189.327510418702
 30
0
 10
92.62707864186854
 20
188.7688487889099
 30
0
 10
92.87534597421327
 20
188.1547778633761
 30
0
  0
LINE
  5
51
100
AcDbEntity
  8
0
  6
ByLayer
 62
  256
370
   -1
100
AcDbLine
 10
86.39553012816565
 20
190.9280755282919
 11
81.74802352341689
 21
189.0837043665792
  0
SPLINE
  5
52
100
AcDbEntity
  8
0
  6
ByLayer
 62
  256
370
   -1
100
AcDbSpline
210
0
220
0
230
0
 70
    8
 71
    3
 72
   16
 73
   12
 74
    0
 42
1e-007
 43
1e-007
 40
0
 40
0
 40
0
 40
0
 40
0.1953222366934631
 40
0.1953222366934631
 40
0.3906444733869284
 40
0.3906444733869284
 40
0.5859667100803934
 40
0.5859667100803934
 40
0.6882847613297841
 40
0.6882847613297841
 40
0.7906028125791787
 40
0.7906028125791787
 40
0.7906028125791787
 40
0.7906028125791787
 10
78.95679759384747
 20
182.5623693015571
 30
0
 10
78.71278497289379
 20
183.1659878512712
 30
0
 10
78.58900537083342
 20
183.8114965695587
 30
0
 10
78.59584656977511
 20
185.1136268429846
 30
0
 10
78.72640196518654
 20
185.7577993229931
 30
0
 10
79.22708520443476
 20
186.9598418949975
 30
0
 10
79.59242624361084
 20
187.5062198048412
 30
0
 10
80.29305313735054
 20
188.2086814845069
 30
0
 10
80.5579806239024
 20
188.4248868329294
 30
0
 10
81.12770716475242
 20
188.7999865918749
 30
0
 10
81.43101412766369
 20
188.9578986308925
 30
0
 10
81.74802352341689
 20
189.0837043665792
 30
0
  0
SPLINE
  5
53
100
AcDbEntity
  8
0
  6
ByLayer
 62
  256
370
   -1
100
AcDbSpline
210
0
220
0
230
0
 70
    8
 71
    3
 72
  131
 73
  127
 74
    0
 42
1e-007
 43
1e-007
 40
0.005498520636117938
 40
0.005498520636117938
 40
0.005498520636117938
 40
0.005498520636117938
 40
0.06481828449591874
 40
0.06481828449591874
 40
0.06481828449591874
 40
0.09549692067303013
 40
0.09549692067303013
 40
0.09549692067303013
 40
0.1251691441903514
 40
0.1251691441903514
 40
0.1251691441903514
 40
0.1538679704151869
 40
0.1538679704151869
 40
0.1538679704151869
 40
0.1816253316457167
 40
0.1816253316457167
 40
0.1816253316457167
 40
0.208472112641079
 40
0.208472112641079
 40
0.208472112641079
 40
0.2347553445993425
 40
0.2347553445993425
 40
0.2347553445993425
 40
0.2601658236284869
 40
0.2601658236284869
 40
0.2601658236284869
 40
0.284732530094264
 40
0.284732530094264
 40
0.284732530094264
 40
0.3084834820492998
 40
0.3084834820492998
 40
0.3084834820492998
 40
0.3314457671873688
 40
0.3314457671873688
 40
0.3314457671873688
 40
0.3753096104022056
 40
0.3753096104022056
 40
0.3753096104022056
 40
0.3960528876437459
 40
0.3960528876437459
 40
0.3960528876437459
 40
0.4161073699912325
 40
0.4161073699912325
 40
0.4161073699912325
 40
0.4259200593414765
 40
0.4259200593414765
 40
0.4259200593414765
 40
0.4355678401668726
 40
0.4355678401668726
 40
0.4355678401668726
 40
0.4450534838607254
 40
0.4450534838607254
 40
0.4450534838607254
 40
0.4543797152413015
 40
0.4543797152413015
 40
0.4543797152413015
 40
0.4724974148631012
 40
0.4724974148631012
 40
0.4724974148631012
 40
0.4900135037150027
 40
0.4900135037150027
 40
0.4900135037150027
 40
0.5069479586994833
 40
0.5069479586994833
 40
0.5069479586994833
 40
0.5392971031292102
 40
0.5392971031292102
 40
0.5392971031292102
 40
0.5545950620459857
 40
0.5545950620459857
 40
0.5545950620459857
 40
0.5693850416368033
 40
0.5693850416368033
 40
0.5693850416368033
 40
0.5836839097071657
 40
0.5836839097071657
 40
0.5836839097071657
 40
0.5975079739554063
 40
0.5975079739554063
 40
0.5975079739554063
 40
0.6108730005714357
 40
0.6108730005714357
 40
0.6108730005714357
 40
0.6237942322179036
 40
0.6237942322179036
 40
0.6237942322179036
 40
0.6362864054142849
 40
0.6362864054142849
 40
0.6362864054142849
 40
0.6601496543550537
 40
0.6601496543550537
 40
0.6601496543550537
 40
0.6824472355328186
 40
0.6824472355328186
 40
0.6824472355328186
 40
0.7032818724095103
 40
0.7032818724095103
 40
0.7032818724095103
 40
0.7417473924280237
 40
0.7417473924280237
 40
0.7417473924280237
 40
0.758691346010821
 40
0.758691346010821
 40
0.758691346010821
 40
0.7745236067990511
 40
0.7745236067990511
 40
0.7745236067990511
 40
0.8037535928022765
 40
0.8037535928022765
 40
0.8037535928022765
 40
0.8291943037083644
 40
0.8291943037083644
 40
0.8291943037083644
 40
0.8729452417549806
 40
0.8729452417549806
 40
0.8729452417549806
 40
0.9054896180679024
 40
0.9054896180679024
 40
0.9054896180679024
 40
0.9296979316923686
 40
0.9296979316923686
 40
0.9296979316923686
 40
0.9652783141225308
 40
0.9652783141225308
 40
0.9652783141225308
 40
0.9831518228448144
 40
0.9831518228448144
 40
0.9831518228448144
 40
0.9831518228448144
 10
78.95679759384744
 20
182.5623693015571
 30
0
 10
85.73058315273624
 20
165.8059302323354
 30
0
 10
92.98585849707774
 20
149.5044106280506
 30
0
 10
100.7369358983132
 20
133.7118872483938
 30
0
 10
104.7455911609191
 20
125.5444056611763
 30
0
 10
108.8869825798104
 20
117.515813576859
 30
0
 10
113.166043000659
 20
109.6648922998181
 30
0
 10
117.3047288444016
 20
102.0715204952704
 30
0
 10
121.5720612441393
 20
94.64388921448467
 30
0
 10
125.9762848426723
 20
87.448621562771
 30
0
 10
130.2360278860554
 20
80.48939466637178
 30
0
 10
134.6235123195198
 20
73.74714860563327
 30
0
 10
139.1531418655636
 20
67.318065101493
 30
0
 10
143.5341769143494
 20
61.09988768170605
 30
0
 10
148.0473071516831
 20
55.17435956869713
 30
0
 10
152.719898869877
 20
49.66674053767575
 30
0
 10
157.2392062167555
 20
44.33979894896702
 30
0
 10
161.9081635215526
 20
39.40373076824616
 30
0
 10
166.7705949269749
 20
35.0166518323342
 30
0
 10
171.5309575392351
 20
30.72166341969343
 30
0
 10
176.4800339502645
 20
26.95321349786382
 30
0
 10
181.6548723193092
 20
23.89686977939825
 30
0
 10
186.6578765946065
 20
20.94201407187901
 30
0
 10
191.8797893469002
 20
18.65818904400659
 30
0
 10
197.2641493671658
 20
17.2170792267518
 30
0
 10
202.4697179820754
 20
15.82382245954004
 30
0
 10
207.8217257109399
 20
15.23035517862264
 30
0
 10
213.1477785284061
 20
15.45135080654733
 30
0
 10
218.2969760715869
 20
15.66500812151644
 30
0
 10
223.4120716606307
 20
16.63507904972667
 30
0
 10
228.3669660651426
 20
18.18214701120096
 30
0
 10
233.1573297676511
 20
19.67784350903385
 30
0
 10
237.8010125349452
 20
21.70644396827758
 30
0
 10
242.2420382321934
 20
24.02204386134
 30
0
 10
250.7255342660528
 20
28.44543247649089
 30
0
 10
258.4921504471926
 20
33.92243268745347
 30
0
 10
265.1445287338706
 20
38.49899947531853
 30
0
 10
268.2904484026125
 20
40.66326477305242
 30
0
 10
271.186037626967
 20
42.62122867232122
 30
0
 10
273.7581452720073
 20
44.1807432736579
 30
0
 10
276.2448443004519
 20
45.68847311205212
 30
0
 10
278.4265519248986
 20
46.81210049916074
 30
0
 10
280.2019069093401
 20
47.49043683788089
 30
0
 10
281.0705908597346
 20
47.82234786163649
 30
0
 10
281.8406037153537
 20
48.05100423232585
 30
0
 10
282.5173901047705
 20
48.19599986958417
 30
0
 10
283.1828026657563
 20
48.33855876235827
 30
0
 10
283.757203627082
 20
48.40226491571664
 30
0
 10
284.2840682940201
 20
48.41156787828277
 30
0
 10
284.8020786630264
 20
48.42071449860889
 30
0
 10
285.2769552231329
 20
48.37901545193074
 30
0
 10
285.7736994281927
 20
48.28271529803813
 30
0
 10
286.2620955289603
 20
48.1880335298657
 30
0
 10
286.7741240962698
 20
48.03868497377108
 30
0
 10
287.3488890419106
 20
47.80684479357688
 30
0
 10
288.4654620941243
 20
47.35645807533926
 30
0
 10
289.8298880211402
 20
46.57223883192601
 30
0
 10
291.4224054318446
 20
45.36398986634125
 30
0
 10
292.9620421984534
 20
44.19586164486792
 30
0
 10
294.7020479965909
 20
42.64303674076709
 30
0
 10
296.562800686646
 20
40.7866061954558
 30
0
 10
298.3617657942916
 20
38.99181971274301
 30
0
 10
300.2750398420398
 20
36.91753654300017
 30
0
 10
302.2164350668081
 20
34.67294231628971
 30
0
 10
305.9249969649479
 20
30.38519270211369
 30
0
 10
309.7529933552556
 20
25.4711476651429
 30
0
 10
312.796513101774
 20
20.79357825200221
 30
0
 10
314.2357981544522
 20
18.58154866129577
 30
0
 10
315.4945410784531
 20
16.42326685021915
 30
0
 10
316.4820342889453
 20
14.43291993351823
 30
0
 10
317.4367371031381
 20
12.50866386531997
 30
0
 10
318.132887705018
 20
10.74215326655017
 30
0
 10
318.5470069933376
 20
9.260958427546932
 30
0
 10
318.9473751637407
 20
7.828947689509242
 30
0
 10
319.0804624829058
 20
6.677930325148472
 30
0
 10
319.0594552687276
 20
5.851952588783935
 30
0
 10
319.0391456136524
 20
5.053402015484581
 30
0
 10
318.9047807432239
 20
4.562917021573782
 30
0
 10
318.7105563075884
 20
4.13606716994517
 30
0
 10
318.5227812289185
 20
3.723391163408914
 30
0
 10
318.2576149414747
 20
3.329493611118268
 30
0
 10
317.7458759749535
 20
2.844650787567513
 30
0
 10
317.2511296554053
 20
2.375907505925764
 30
0
 10
316.5165671868727
 20
1.843711904849026
 30
0
 10
315.5359518452451
 20
1.325074723458216
 30
0
 10
314.5878985155155
 20
0.823659249044983
 30
0
 10
313.4183315663843
 20
0.3390788812869516
 30
0
 10
312.1083939066998
 20
-0.08694189578938845
 30
0
 10
309.6060776180502
 20
-0.9007506460761188
 30
0
 10
306.6123991687655
 20
-1.491767452268053
 30
0
 10
303.7088422863221
 20
-1.87498789352534
 30
0
 10
300.9957877709359
 20
-2.233065241631738
 30
0
 10
298.3728547973593
 20
-2.422795388264884
 30
0
 10
296.0458865991366
 20
-2.527709938103863
 30
0
 10
293.8715907843993
 20
-2.625741044327907
 30
0
 10
291.9526311861659
 20
-2.651714539352894
 30
0
 10
290.1774280903001
 20
-2.651814773474047
 30
0
 10
286.8999958688945
 20
-2.65199982865963
 30
0
 10
284.0312586418162
 20
-2.568739002459979
 30
0
 10
280.0465757966604
 20
-2.499677580956452
 30
0
 10
278.2913341896837
 20
-2.469256218662258
 30
0
 10
276.3261519825429
 20
-2.439772933594639
 30
0
 10
274.0766658199107
 20
-2.413835792276623
 30
0
 10
271.9747684444089
 20
-2.389600386800481
 30
0
 10
269.6251491050813
 20
-2.368417678879721
 30
0
 10
267.0077137917553
 20
-2.351503031765999
 30
0
 10
262.1753276533369
 20
-2.320274712260856
 30
0
 10
256.4146282125653
 20
-2.304097848880416
 30
0
 10
249.8678956261981
 20
-2.303281456167668
 30
0
 10
244.1698589904346
 20
-2.302570897805151
 30
0
 10
237.8860126058971
 20
-2.313245215998259
 30
0
 10
231.2565068503375
 20
-2.331917363141191
 30
0
 10
219.8556031310248
 20
-2.364028256420206
 30
0
 10
207.451430637472
 20
-2.419517374805371
 30
0
 10
195.5284886708242
 20
-2.472117700694158
 30
0
 10
186.6595425991702
 20
-2.511244742909414
 30
0
 10
178.067004748197
 20
-2.54847280974989
 30
0
 10
170.1714181715725
 20
-2.576018334106124
 30
0
 10
164.298242595608
 20
-2.596508224161301
 30
0
 10
158.8039521543862
 20
-2.61176770778078
 30
0
 10
153.7829637330568
 20
-2.620061233356678
 30
0
 10
146.4033217233066
 20
-2.632250715708168
 30
0
 10
140.0507658420111
 20
-2.629281969854766
 30
0
 10
134.850082569345
 20
-2.609035082060993
 30
0
 10
132.2375626500248
 20
-2.598864226638305
 30
0
 10
129.9131157569834
 20
-2.58438482903025
 30
0
 10
127.882091345078
 20
-2.565600681526392
 30
0
  0
LWPOLYLINE
  5
54
100
AcDbEntity
  8
0
  6
ByLayer
 62
  256
370
   -1
100
AcDbPolyline
 90
    4
 70
    1
 43
0
 10
97.51022358664542
 20
155.5932938433683
 10
99.97679632228048
 20
156.6914827796729
 10
95.90942989152248
 20
165.8269373560989
 10
93.44285715588745
 20
164.7287484197943
  0
LWPOLYLINE
  5
55
100
AcDbEntity
  8
0
  6
ByLayer
 62
  256
370
   -1
100
AcDbPolyline
 90
    4
 70
    1
 43
0
 10
320.3152861603581
 20
18.96284393925823
 10
322.5796966938106
 20
20.43336933379885
 10
318.494903931198
 20
26.72339859338959
 10
316.2304933977453
 20
25.25287319884905
  0
LWPOLYLINE
  5
56
100
AcDbEntity
  8
0
  6
ByLayer
 62
  256
370
   -1
100
AcDbPolyline
 90
    4
 70
    1
 43
0
 10
225.9265611297866
 20
26.92201571355984
 10
226.8500155167659
 20
24.38484563743783
 10
233.8977101726603
 20
26.94999671238043
 10
232.974255785681
 20
29.48716678850237
  0
LWPOLYLINE
  5
57
100
AcDbEntity
  8
0
  6
ByLayer
 62
  256
370
   -1
100
AcDbPolyline
 90
    4
 70
    1
 43
0
 10
293.9531586927519
 20
52.72099888097094
 10
292.404502314604
 20
50.50928836139061
 10
298.5481426467716
 20
46.20746508875779
 10
300.0967990249193
 20
48.41917560833807
  0
LWPOLYLINE
  5
58
100
AcDbEntity
  8
0
  6
ByLayer
 62
  256
370
   -1
100
AcDbPolyline
 90
    4
 70
    1
 43
0
 10
259.4616175566999
 20
44.93241304760786
 10
260.8116175566999
 20
42.59414445738987
 10
267.3068080850832
 20
46.34414445738986
 10
265.9568080850833
 20
48.68241304760787
  0
LWPOLYLINE
  5
59
100
AcDbEntity
  8
0
  6
ByLayer
 62
  256
370
   -1
100
AcDbPolyline
 90
    4
 70
    1
 43
0
 10
280.3620647578315
 20
-8.514540800013533
 10
280.3149432604508
 20
-11.21412957693578
 10
290.3134202120148
 20
-11.38865364130863
 10
290.3605417093955
 20
-8.68906486438639
  0
LWPOLYLINE
  5
5A
100
AcDbEntity
  8
0
  6
ByLayer
 62
  256
370
   -1
100
AcDbPolyline
 90
    4
 70
    1
 43
0
 10
129.8077251529321
 20
97.94898198261129
 10
127.5179952933097
 20
96.51819996918169
 10
132.8171879356418
 20
88.03771900761744
 10
135.1069177952641
 20
89.46850102104703
  0
LWPOLYLINE
  5
5B
100
AcDbEntity
  8
0
  6
ByLayer
 62
  256
370
   -1
100
AcDbPolyline
 90
    4
 70
    1
 43
0
 10
150.6187422332125
 20
66.22726456032711
 10
148.4624263560848
 20
64.60236399781665
 10
154.4805765876052
 20
56.6160088973437
 10
156.636892464733
 20
58.24090945985419
  0
LWPOLYLINE
  5
5C
100
AcDbEntity
  8
0
  6
ByLayer
 62
  256
370
   -1
100
AcDbPolyline
 90
    4
 70
    1
 43
0
 10
153.8322826673167
 20
-8.524939169038856
 10
153.785161169936
 20
-11.22452794596111
 10
163.7836381214998
 20
-11.39905201033397
 10
163.8307596188806
 20
-8.699463233411702
  0
LWPOLYLINE
  5
5D
100
AcDbEntity
  8
0
  6
ByLayer
 62
  256
370
   -1
100
AcDbPolyline
 90
    4
 70
    1
 43
0
 10
111.5141396176399
 20
131.7820307432467
 10
109.1084220023313
 20
130.5562563939499
 10
113.6483269997267
 20
121.6461911520663
 10
116.0540446150353
 20
122.871965501363
  0
LWPOLYLINE
  5
5E
100
AcDbEntity
  8
0
  6
ByLayer
 62
  256
370
   -1
100
AcDbPolyline
 90
    4
 70
    1
 43
0
 10
176.1484555152397
 20
38.92155309402711
 10
174.3770961369653
 20
36.88383722742569
 10
181.924191939193
 20
30.32324693752056
 10
183.6955513174675
 20
32.36096280412205
  0
LWPOLYLINE
  5
5F
100
AcDbEntity
  8
0
  6
ByLayer
 62
  256
370
   -1
100
AcDbPolyline
 90
    4
 70
    1
 43
0
 10
312.6678250863587
 20
35.75151051451525
 10
307.8469180137096
 20
41.4968438379076
 10
305.7785980172883
 20
39.76131729175391
 10
310.5995050899375
 20
34.01598396836157
  0
LWPOLYLINE
  5
60
100
AcDbEntity
  8
0
  6
ByLayer
 62
  256
370
   -1
100
AcDbPolyline
 90
    4
 70
    1
 43
0
 10
214.8058303226594
 20
24.46814042755393
 10
207.3058303226594
 20
24.46814042755394
 10
207.3058303226593
 20
21.7681404275539
 10
214.8058303226594
 20
21.76814042755394
  0
LWPOLYLINE
  5
61
100
AcDbEntity
  8
0
  6
ByLayer
 62
  256
370
   -1
100
AcDbPolyline
 90
    4
 70
    1
 43
0
 10
283.8716075064337
 20
53.89299195953821
 10
283.1727960846569
 20
56.5009916905187
 10
275.9283523874889
 20
54.55984885224979
 10
276.6271638092657
 20
51.95184912126932
  0
LWPOLYLINE
  5
62
100
AcDbEntity
  8
0
  6
ByLayer
 62
  256
370
   -1
100
AcDbPolyline
 90
    4
 70
    1
 43
0
 10
250.968137540246
 20
36.15829412301046
 10
249.618137540246
 20
38.49656271322841
 10
243.1229470118626
 20
34.74656271322841
 10
244.4729470118626
 20
32.40829412301036
  0
ENDSEC
  0
SECTION
  2
OBJECTS
  0
DICTIONARY
  5
C
330
0
100
AcDbDictionary
281
    1
  3
ACAD_GROUP
350
D
  0
DICTIONARY
  5
D
330
C
100
AcDbDictionary
281
    1
  0
ENDSEC
  0
EOF
