999
dxfrw 0.6.3
  0
SECTION
  2
HEADER
  9
$ACADVER
  1
AC1021
  9
$DWGCODEPAGE
  3
ANSI_1252
  9
$INSBASE
 10
0
 20
0
 30
0
  9
$EXTMIN
 10
-63.89867590752804
 20
-23.49941328633687
 30
0
  9
$EXTMAX
 10
899.1473544392693
 20
841.4507986337775
 30
0
  9
$LIMMIN
 10
0
 20
0
  9
$LIMMAX
 10
420
 20
297
  9
$ORTHOMODE
 70
    0
  9
$REGENMODE
 70
    1
  9
$FILLMODE
 70
    1
  9
$QTEXTMODE
 70
    0
  9
$MIRRTEXT
 70
    0
  9
$LTSCALE
 40
1
  9
$ATTMODE
 70
    0
  9
$TEXTSIZE
 40
2.5
  9
$TRACEWID
 40
15.68
  9
$TEXTSTYLE
  7
STANDARD
  9
$CLAYER
  8
0
  9
$CELTYPE
  6
BYLAYER
  9
$CECOLOR
 62
  256
  9
$CELTSCALE
 40
1
  9
$DISPSILH
 70
    0
  9
$DIMSCALE
 40
2.5
  9
$DIMASZ
 40
2.5
  9
$DIMEXO
 40
0.625
  9
$DIMDLI
 40
3.75
  9
$DIMRND
 40
0
  9
$DIMDLE
 40
0
  9
$DIMEXE
 40
1.25
  9
$DIMTP
 40
0
  9
$DIMTM
 40
0
  9
$DIMTXT
 40
2.5
  9
$DIMCEN
 40
2.5
  9
$DIMTSZ
 40
0
  9
$DIMTOL
 70
    0
  9
$DIMLIM
 70
    0
  9
$DIMTIH
 70
    0
  9
$DIMTOH
 70
    0
  9
$DIMSE1
 70
    0
  9
$DIMSE2
 70
    0
  9
$DIMTAD
 70
    1
  9
$DIMZIN
 70
    8
  9
$DIMBLK
  1

  9
$DIMASO
 70
    1
  9
$DIMSHO
 70
    1
  9
$DIMPOST
  1

  9
$DIMAPOST
  1

  9
$DIMALT
 70
    0
  9
$DIMALTD
 70
    3
  9
$DIMALTF
 40
0.03937
  9
$DIMLFAC
 40
1
  9
$DIMTOFL
 70
    1
  9
$DIMTVP
 40
0
  9
$DIMTIX
 70
    0
  9
$DIMSOXD
 70
    0
  9
$DIMSAH
 70
    0
  9
$DIMBLK1
  1

  9
$DIMBLK2
  1

  9
$DIMSTYLE
  2
Standard
  9
$DIMCLRD
 70
    0
  9
$DIMCLRE
 70
    0
  9
$DIMCLRT
 70
    0
  9
$DIMTFAC
 40
1
  9
$DIMGAP
 40
0.625
  9
$DIMJUST
 70
    0
  9
$DIMSD1
 70
    0
  9
$DIMSD2
 70
    0
  9
$DIMTOLJ
 70
    0
  9
$DIMTZIN
 70
    8
  9
$DIMALTZ
 70
    0
  9
$DIMALTTZ
 70
    0
  9
$DIMUPT
 70
    0
  9
$DIMDEC
 70
    2
  9
$DIMTDEC
 70
    2
  9
$DIMALTU
 70
    2
  9
$DIMALTTD
 70
    3
  9
$DIMTXSTY
  7
STANDARD
  9
$DIMAUNIT
 70
    0
  9
$DIMADEC
 70
    0
  9
$DIMALTRND
 40
0
  9
$DIMAZIN
 70
    0
  9
$DIMDSEP
 70
   44
  9
$DIMATFIT
 70
    3
  9
$DIMFRAC
 70
    0
  9
$DIMLDRBLK
  1
STANDARD
  9
$DIMLUNIT
 70
    2
  9
$DIMLWD
 70
   -2
  9
$DIMLWE
 70
   -2
  9
$DIMTMOVE
 70
    0
  9
$DIMFXL
 40
1
  9
$DIMFXLON
 70
    0
  9
$DIMJOGANG
 40
0.7854
  9
$DIMTFILL
 70
    0
  9
$DIMTFILLCLR
 70
    0
  9
$DIMARCSYM
 70
    0
  9
$DIMLTYPE
  6

  9
$DIMLTEX1
  6

  9
$DIMLTEX2
  6

  9
$LUNITS
 70
    2
  9
$LUPREC
 70
    4
  9
$SKETCHINC
 40
1
  9
$FILLETRAD
 40
0
  9
$AUNITS
 70
    0
  9
$AUPREC
 70
    2
  9
$MENU
  1
.
  9
$ELEVATION
 40
0
  9
$PELEVATION
 40
0
  9
$THICKNESS
 40
0
  9
$LIMCHECK
 70
    0
  9
$CHAMFERA
 40
0
  9
$CHAMFERB
 40
0
  9
$CHAMFERC
 40
0
  9
$CHAMFERD
 40
0
  9
$SKPOLY
 70
    0
  9
$USRTIMER
 70
    1
  9
$ANGBASE
 50
0
  9
$ANGDIR
 70
    0
  9
$PDMODE
 70
   34
  9
$PDSIZE
 40
0
  9
$PLINEWID
 40
0
  9
$SPLFRAME
 70
    0
  9
$SPLINETYPE
 70
    2
  9
$SPLINESEGS
 70
    8
  9
$HANDSEED
  5
20000
  9
$SURFTAB1
 70
    6
  9
$SURFTAB2
 70
    6
  9
$SURFTYPE
 70
    6
  9
$SURFU
 70
    6
  9
$SURFV
 70
    6
  9
$UCSBASE
  2

  9
$UCSNAME
  2

  9
$UCSORG
 10
0
 20
0
 30
0
  9
$UCSXDIR
 10
1
 20
0
 30
0
  9
$UCSYDIR
 10
0
 20
1
 30
0
  9
$UCSORTHOREF
  2

  9
$UCSORTHOVIEW
 70
    0
  9
$UCSORGTOP
 10
0
 20
0
 30
0
  9
$UCSORGBOTTOM
 10
0
 20
0
 30
0
  9
$UCSORGLEFT
 10
0
 20
0
 30
0
  9
$UCSORGRIGHT
 10
0
 20
0
 30
0
  9
$UCSORGFRONT
 10
0
 20
0
 30
0
  9
$UCSORGBACK
 10
0
 20
0
 30
0
  9
$PUCSBASE
  2

  9
$PUCSNAME
  2

  9
$PUCSORG
 10
0
 20
0
 30
0
  9
$PUCSXDIR
 10
1
 20
0
 30
0
  9
$PUCSYDIR
 10
0
 20
1
 30
0
  9
$PUCSORTHOREF
  2

  9
$PUCSORTHOVIEW
 70
    0
  9
$PUCSORGTOP
 10
0
 20
0
 30
0
  9
$PUCSORGBOTTOM
 10
0
 20
0
 30
0
  9
$PUCSORGLEFT
 10
0
 20
0
 30
0
  9
$PUCSORGRIGHT
 10
0
 20
0
 30
0
  9
$PUCSORGFRONT
 10
0
 20
0
 30
0
  9
$PUCSORGBACK
 10
0
 20
0
 30
0
  9
$USERI1
 70
    0
  9
$USERI2
 70
    0
  9
$USERI3
 70
    0
  9
$USERI4
 70
    0
  9
$USERI5
 70
    0
  9
$USERR1
 40
0
  9
$USERR2
 40
0
  9
$USERR3
 40
0
  9
$USERR4
 40
0
  9
$USERR5
 40
0
  9
$WORLDVIEW
 70
    1
  9
$SHADEDGE
 70
    3
  9
$SHADEDIF
 70
   70
  9
$TILEMODE
 70
    1
  9
$MAXACTVP
 70
   64
  9
$PINSBASE
 10
0
 20
0
 30
0
  9
$PLIMCHECK
 70
    0
  9
$PEXTMIN
 10
0
 20
0
 30
0
  9
$PEXTMAX
 10
0
 20
0
 30
0
  9
$SNAPSTYLE
 70
    0
  9
$PLIMMIN
 10
0
 20
0
  9
$PLIMMAX
 10
210
 20
297
  9
$UNITMODE
 70
    0
  9
$VISRETAIN
 70
    1
  9
$PLINEGEN
 70
    0
  9
$PSLTSCALE
 70
    1
  9
$TREEDEPTH
 70
 3020
  9
$CMLSTYLE
  2
Standard
  9
$CMLJUST
 70
    0
  9
$CMLSCALE
 40
20
  9
$PROXYGRAPHICS
 70
    1
  9
$MEASUREMENT
 70
    1
  9
$CELWEIGHT
370
   -1
  9
$ENDCAPS
280
    0
  9
$JOINSTYLE
280
    0
  9
$LWDISPLAY
290
    0
  9
$INSUNITS
 70
    4
  9
$HYPERLINKBASE
  1

  9
$STYLESHEET
  1

  9
$XEDIT
290
    1
  9
$CEPSNTYPE
380
    0
  9
$PSTYLEMODE
290
    1
  9
$EXTNAMES
290
    1
  9
$PSVPSCALE
 40
1
  9
$OLESTARTUP
290
    0
  9
$SORTENTS
280
  127
  9
$INDEXCTL
280
    0
  9
$HIDETEXT
280
    1
  9
$XCLIPFRAME
290
    0
  9
$HALOGAP
280
    0
  9
$OBSCOLOR
 70
  257
  9
$OBSLTYPE
280
    0
  9
$INTERSECTIONDISPLAY
280
    0
  9
$INTERSECTIONCOLOR
 70
  257
  9
$DIMASSOC
280
    1
  9
$PROJECTNAME
  1

  9
$CAMERADISPLAY
290
    0
  9
$LENSLENGTH
 40
50
  9
$CAMERAHEIGHT
 40
0
  9
$STEPSPERSEC
 40
2
  9
$STEPSIZE
 40
50
  9
$3DDWFPREC
 40
2
  9
$PSOLWIDTH
 40
5
  9
$PSOLHEIGHT
 40
80
  9
$LOFTANG1
 40
1.570796326794897
  9
$LOFTANG2
 40
1.570796326794897
  9
$LOFTMAG1
 40
0
  9
$LOFTMAG2
 40
0
  9
$LOFTPARAM
 70
    7
  9
$LOFTNORMALS
280
    1
  9
$LATITUDE
 40
1
  9
$LONGITUDE
 40
1
  9
$NORTHDIRECTION
 40
0
  9
$TIMEZONE
 70
-8000
  9
$LIGHTGLYPHDISPLAY
280
    1
  9
$TILEMODELIGHTSYNCH
280
    1
  9
$SOLIDHIST
280
    1
  9
$SHOWHIST
280
    1
  9
$DWFFRAME
280
    2
  9
$DGNFRAME
280
    0
  9
$REALWORLDSCALE
290
    1
  9
$INTERFERECOLOR
 62
    1
  9
$CSHADOW
280
    0
  9
$SHADOWPLANELOCATION
 40
0
  0
ENDSEC
  0
SECTION
  2
CLASSES
  0
ENDSEC
  0
SECTION
  2
TABLES
  0
TABLE
  2
VPORT
  5
8
330
0
100
AcDbSymbolTable
 70
    1
  0
VPORT
  5
31
330
2
100
AcDbSymbolTableRecord
100
AcDbViewportTableRecord
  2
*ACTIVE
 70
    0
 10
0
 20
0
 11
1
 21
1
 12
790.8576177573283
 22
577.2968060571374
 13
0
 23
0
 14
10
 24
10
 15
10
 25
10
 16
0
 26
0
 36
1
 17
0
 27
0
 37
0
 40
1525.155751137437
 41
1.615089514066496
 42
50
 43
0
 44
0
 50
0
 51
0
 71
    0
 72
  100
 73
    1
 74
    3
 75
    0
 76
    1
 77
    0
 78
    0
281
    0
 65
    1
110
0
120
0
130
0
111
1
121
0
131
0
112
0
122
1
132
0
 79
    0
146
0
348
10020
 60
    7
 61
    5
292
1
282
    1
141
0
142
0
 63
  250
421
3358443
  0
ENDTAB
  0
TABLE
  2
LTYPE
  5
5
330
0
100
AcDbSymbolTable
 70
    4
  0
LTYPE
  5
14
330
5
100
AcDbSymbolTableRecord
100
AcDbLinetypeTableRecord
  2
ByBlock
 70
    0
  3

 72
   65
 73
    0
 40
0
  0
LTYPE
  5
15
330
5
100
AcDbSymbolTableRecord
100
AcDbLinetypeTableRecord
  2
ByLayer
 70
    0
  3

 72
   65
 73
    0
 40
0
  0
LTYPE
  5
16
330
5
100
AcDbSymbolTableRecord
100
AcDbLinetypeTableRecord
  2
Continuous
 70
    0
  3
Solid line
 72
   65
 73
    0
 40
0
  0
LTYPE
  5
32
330
5
100
AcDbSymbolTableRecord
100
AcDbLinetypeTableRecord
  2
DOT
 70
    0
  3
Dot . . . . . . . . . . . . . . . . . . . . . .
 72
   65
 73
    2
 40
6.35
 49
0
 74
    0
 49
-6.35
 74
    0
  0
LTYPE
  5
33
330
5
100
AcDbSymbolTableRecord
100
AcDbLinetypeTableRecord
  2
DOTTINY
 70
    0
  3
Dot (.15x) .....................................
 72
   65
 73
    2
 40
0.9525
 49
0
 74
    0
 49
-0.9525
 74
    0
  0
LTYPE
  5
34
330
5
100
AcDbSymbolTableRecord
100
AcDbLinetypeTableRecord
  2
DOT2
 70
    0
  3
Dot (.5x) .....................................
 72
   65
 73
    2
 40
3.175
 49
0
 74
    0
 49
-3.175
 74
    0
  0
LTYPE
  5
35
330
5
100
AcDbSymbolTableRecord
100
AcDbLinetypeTableRecord
  2
DOTX2
 70
    0
  3
Dot (2x) .  .  .  .  .  .  .  .  .  .  .  .  .
 72
   65
 73
    2
 40
12.7
 49
0
 74
    0
 49
-12.7
 74
    0
  0
LTYPE
  5
36
330
5
100
AcDbSymbolTableRecord
100
AcDbLinetypeTableRecord
  2
DASHED
 70
    0
  3
Dashed _ _ _ _ _ _ _ _ _ _ _ _ _ _ _ _ _
 72
   65
 73
    2
 40
19.05
 49
12.7
 74
    0
 49
-6.35
 74
    0
  0
LTYPE
  5
37
330
5
100
AcDbSymbolTableRecord
100
AcDbLinetypeTableRecord
  2
DASHEDTINY
 70
    0
  3
Dashed (.15x) _ _ _ _ _ _ _ _ _ _ _ _ _ _ _ _ _
 72
   65
 73
    2
 40
2.8575
 49
1.905
 74
    0
 49
-0.9525
 74
    0
  0
LTYPE
  5
38
330
5
100
AcDbSymbolTableRecord
100
AcDbLinetypeTableRecord
  2
DASHED2
 70
    0
  3
Dashed (.5x) _ _ _ _ _ _ _ _ _ _ _ _ _ _ _ _ _
 72
   65
 73
    2
 40
9.524999999999999
 49
6.35
 74
    0
 49
-3.175
 74
    0
  0
LTYPE
  5
39
330
5
100
AcDbSymbolTableRecord
100
AcDbLinetypeTableRecord
  2
DASHEDX2
 70
    0
  3
Dashed (2x) ____  ____  ____  ____  ____  ___
 72
   65
 73
    2
 40
38.09999999999999
 49
25.4
 74
    0
 49
-12.7
 74
    0
  0
LTYPE
  5
3A
330
5
100
AcDbSymbolTableRecord
100
AcDbLinetypeTableRecord
  2
DASHDOT
 70
    0
  3
Dash dot __ . __ . __ . __ . __ . __ . __ . __
 72
   65
 73
    4
 40
25.4
 49
12.7
 74
    0
 49
-6.35
 74
    0
 49
0
 74
    0
 49
-6.35
 74
    0
  0
LTYPE
  5
3B
330
5
100
AcDbSymbolTableRecord
100
AcDbLinetypeTableRecord
  2
DASHDOTTINY
 70
    0
  3
Dash dot (.15x) _._._._._._._._._._._._._._._.
 72
   65
 73
    4
 40
3.81
 49
1.905
 74
    0
 49
-0.9525
 74
    0
 49
0
 74
    0
 49
-0.9525
 74
    0
  0
LTYPE
  5
3C
330
5
100
AcDbSymbolTableRecord
100
AcDbLinetypeTableRecord
  2
DASHDOT2
 70
    0
  3
Dash dot (.5x) _._._._._._._._._._._._._._._.
 72
   65
 73
    4
 40
12.7
 49
6.35
 74
    0
 49
-3.175
 74
    0
 49
0
 74
    0
 49
-3.175
 74
    0
  0
LTYPE
  5
3D
330
5
100
AcDbSymbolTableRecord
100
AcDbLinetypeTableRecord
  2
DASHDOTX2
 70
    0
  3
Dash dot (2x) ____  .  ____  .  ____  .  ___
 72
   65
 73
    4
 40
50.8
 49
25.4
 74
    0
 49
-12.7
 74
    0
 49
0
 74
    0
 49
-12.7
 74
    0
  0
LTYPE
  5
3E
330
5
100
AcDbSymbolTableRecord
100
AcDbLinetypeTableRecord
  2
DIVIDE
 70
    0
  3
Divide ____ . . ____ . . ____ . . ____ . . ____
 72
   65
 73
    6
 40
31.75
 49
12.7
 74
    0
 49
-6.35
 74
    0
 49
0
 74
    0
 49
-6.35
 74
    0
 49
0
 74
    0
 49
-6.35
 74
    0
  0
LTYPE
  5
3F
330
5
100
AcDbSymbolTableRecord
100
AcDbLinetypeTableRecord
  2
DIVIDETINY
 70
    0
  3
Divide (.15x) __..__..__..__..__..__..__..__.._
 72
   65
 73
    6
 40
4.7625
 49
1.905
 74
    0
 49
-0.9525
 74
    0
 49
0
 74
    0
 49
-0.9525
 74
    0
 49
0
 74
    0
 49
-0.9525
 74
    0
  0
LTYPE
  5
40
330
5
100
AcDbSymbolTableRecord
100
AcDbLinetypeTableRecord
  2
DIVIDE2
 70
    0
  3
Divide (.5x) __..__..__..__..__..__..__..__.._
 72
   65
 73
    6
 40
15.875
 49
6.35
 74
    0
 49
-3.175
 74
    0
 49
0
 74
    0
 49
-3.175
 74
    0
 49
0
 74
    0
 49
-3.175
 74
    0
  0
LTYPE
  5
41
330
5
100
AcDbSymbolTableRecord
100
AcDbLinetypeTableRecord
  2
DIVIDEX2
 70
    0
  3
Divide (2x) ________  .  .  ________  .  .  _
 72
   65
 73
    6
 40
63.5
 49
25.4
 74
    0
 49
-12.7
 74
    0
 49
0
 74
    0
 49
-12.7
 74
    0
 49
0
 74
    0
 49
-12.7
 74
    0
  0
LTYPE
  5
42
330
5
100
AcDbSymbolTableRecord
100
AcDbLinetypeTableRecord
  2
BORDER
 70
    0
  3
Border __ __ . __ __ . __ __ . __ __ . __ __ .
 72
   65
 73
    6
 40
44.45
 49
12.7
 74
    0
 49
-6.35
 74
    0
 49
12.7
 74
    0
 49
-6.35
 74
    0
 49
0
 74
    0
 49
-6.35
 74
    0
  0
LTYPE
  5
43
330
5
100
AcDbSymbolTableRecord
100
AcDbLinetypeTableRecord
  2
BORDERTINY
 70
    0
  3
Border (.15x) __.__.__.__.__.__.__.__.__.__.__.
 72
   65
 73
    6
 40
6.6675
 49
1.905
 74
    0
 49
-0.9525
 74
    0
 49
1.905
 74
    0
 49
-0.9525
 74
    0
 49
0
 74
    0
 49
-0.9525
 74
    0
  0
LTYPE
  5
44
330
5
100
AcDbSymbolTableRecord
100
AcDbLinetypeTableRecord
  2
BORDER2
 70
    0
  3
Border (.5x) __.__.__.__.__.__.__.__.__.__.__.
 72
   65
 73
    6
 40
22.225
 49
6.35
 74
    0
 49
-3.175
 74
    0
 49
6.35
 74
    0
 49
-3.175
 74
    0
 49
0
 74
    0
 49
-3.175
 74
    0
  0
LTYPE
  5
45
330
5
100
AcDbSymbolTableRecord
100
AcDbLinetypeTableRecord
  2
BORDERX2
 70
    0
  3
Border (2x) ____  ____  .  ____  ____  .  ___
 72
   65
 73
    6
 40
88.89999999999999
 49
25.4
 74
    0
 49
-12.7
 74
    0
 49
25.4
 74
    0
 49
-12.7
 74
    0
 49
0
 74
    0
 49
-12.7
 74
    0
  0
LTYPE
  5
46
330
5
100
AcDbSymbolTableRecord
100
AcDbLinetypeTableRecord
  2
CENTER
 70
    0
  3
Center ____ _ ____ _ ____ _ ____ _ ____ _ ____
 72
   65
 73
    4
 40
50.8
 49
31.75
 74
    0
 49
-6.35
 74
    0
 49
6.35
 74
    0
 49
-6.35
 74
    0
  0
LTYPE
  5
47
330
5
100
AcDbSymbolTableRecord
100
AcDbLinetypeTableRecord
  2
CENTERTINY
 70
    0
  3
Center (.15x) ___ _ ___ _ ___ _ ___ _ ___ _ ___
 72
   65
 73
    4
 40
7.62
 49
4.7625
 74
    0
 49
-0.9525
 74
    0
 49
0.9525
 74
    0
 49
-0.9525
 74
    0
  0
LTYPE
  5
48
330
5
100
AcDbSymbolTableRecord
100
AcDbLinetypeTableRecord
  2
CENTER2
 70
    0
  3
Center (.5x) ___ _ ___ _ ___ _ ___ _ ___ _ ___
 72
   65
 73
    4
 40
28.575
 49
19.05
 74
    0
 49
-3.175
 74
    0
 49
3.175
 74
    0
 49
-3.175
 74
    0
  0
LTYPE
  5
49
330
5
100
AcDbSymbolTableRecord
100
AcDbLinetypeTableRecord
  2
CENTERX2
 70
    0
  3
Center (2x) ________  __  ________  __  _____
 72
   65
 73
    4
 40
101.6
 49
63.5
 74
    0
 49
-12.7
 74
    0
 49
12.7
 74
    0
 49
-12.7
 74
    0
  0
ENDTAB
  0
TABLE
  2
LAYER
  5
2
330
0
100
AcDbSymbolTable
 70
    1
  0
LAYER
  5
10
330
2
100
AcDbSymbolTableRecord
100
AcDbLayerTableRecord
  2
0
 70
    0
 62
    7
  6
CONTINUOUS
370
   -3
390
F
  0
ENDTAB
  0
TABLE
  2
STYLE
  5
3
330
0
100
AcDbSymbolTable
 70
    3
  0
STYLE
  5
4A
330
2
100
AcDbSymbolTableRecord
100
AcDbTextStyleTableRecord
  2
Standard
 70
    0
 40
0
 41
1
 50
0
 71
    0
 42
1
  3
txt
  4

  0
ENDTAB
  0
TABLE
  2
VIEW
  5
6
330
0
100
AcDbSymbolTable
 70
    0
  0
ENDTAB
  0
TABLE
  2
UCS
  5
7
330
0
100
AcDbSymbolTable
 70
    0
  0
ENDTAB
  0
TABLE
  2
APPID
  5
9
330
0
100
AcDbSymbolTable
 70
    1
  0
APPID
  5
12
330
9
100
AcDbSymbolTableRecord
100
AcDbRegAppTableRecord
  2
ACAD
 70
    0
  0
APPID
  5
4B
330
9
100
AcDbSymbolTableRecord
100
AcDbRegAppTableRecord
  2
LibreCad
 70
    0
  0
ENDTAB
  0
TABLE
  2
DIMSTYLE
  5
A
330
0
100
AcDbSymbolTable
 70
    1
100
AcDbDimStyleTable
 71
    1
  0
DIMSTYLE
105
4C
330
A
100
AcDbSymbolTableRecord
100
AcDbDimStyleTableRecord
  2
Standard
 70
    0
 40
1
 41
2.5
 42
0.625
 43
0.38
 44
1.25
 45
0
 46
0
 47
0
 48
0
 49
1
140
2.5
141
0.09
142
2.5
143
25.4
144
1
145
0
146
1
147
0.625
148
0
 71
    0
 72
    0
 73
    0
 74
    1
 75
    0
 76
    0
 77
    0
 78
    1
 79
    0
170
    0
171
    2
172
    0
173
    0
174
    0
175
    0
176
    0
177
    0
178
    0
179
    0
271
    2
272
    4
273
    2
274
    2
275
    0
276
    0
277
    2
278
    0
279
    0
280
    0
281
    0
282
    0
283
    1
284
    0
285
    0
286
    0
288
    0
289
    3
340
standard
341

371
   -2
372
   -2
  0
ENDTAB
  0
TABLE
  2
BLOCK_RECORD
  5
1
330
0
100
AcDbSymbolTable
 70
    2
  0
BLOCK_RECORD
  5
1F
330
1
100
AcDbSymbolTableRecord
100
AcDbBlockTableRecord
  2
*Model_Space
 70
    0
280
    1
281
    0
  0
BLOCK_RECORD
  5
1E
330
1
100
AcDbSymbolTableRecord
100
AcDbBlockTableRecord
  2
*Paper_Space
 70
    0
280
    1
281
    0
  0
ENDTAB
  0
ENDSEC
  0
SECTION
  2
BLOCKS
  0
BLOCK
  5
20
330
1F
100
AcDbEntity
  8
0
100
AcDbBlockBegin
  2
*Model_Space
 70
    0
 10
0
 20
0
 30
0
  3
*Model_Space
  1

  0
ENDBLK
  5
21
330
1F
100
AcDbEntity
  8
0
100
AcDbBlockEnd
  0
BLOCK
  5
1C
330
1B
100
AcDbEntity
  8
0
100
AcDbBlockBegin
  2
*Paper_Space
 70
    0
 10
0
 20
0
 30
0
  3
*Paper_Space
  1

  0
ENDBLK
  5
1D
330
1F
100
AcDbEntity
  8
0
100
AcDbBlockEnd
  0
ENDSEC
  0
SECTION
  2
ENTITIES
  0
LWPOLYLINE
  5
4D
100
AcDbEntity
  8
0
  6
ByLayer
 62
  256
370
   -1
100
AcDbPolyline
 90
    4
 70
    1
 43
0
 10
884.5664480509254
 20
233.1812939171216
 10
899.1473544392693
 20
243.3909544841702
 10
876.2042969852275
 20
276.1570362557296
 10
861.6233905968835
 20
265.9473756886813
  0
LWPOLYLINE
  5
4E
100
AcDbEntity
  8
0
  6
ByLayer
 62
  256
370
   -1
100
AcDbPolyline
 90
    4
 70
    1
 43
0
 10
123.0173106895703
 20
493.8197316119067
 10
107.6020585022074
 20
484.9197316119066
 10
127.6020585022074
 20
450.2787154605292
 10
143.0173106895703
 20
459.1787154605292
  0
LWPOLYLINE
  5
4F
100
AcDbEntity
  8
0
  6
ByLayer
 62
  256
370
   -1
100
AcDbPolyline
 90
    4
 70
    1
 43
0
 10
51.25836078932777
 20
633.7642373762128
 10
35.12608218007551
 20
626.2416323172284
 10
52.0308126497035
 20
589.9893208357623
 10
68.16309125895575
 20
597.5119258947468
  0
LWPOLYLINE
  5
50
100
AcDbEntity
  8
0
  6
ByLayer
 62
  256
370
   -1
100
AcDbPolyline
 90
    4
 70
    1
 43
0
 10
680.5170649640228
 20
308.3072868931505
 10
672.9944599050384
 20
324.4395655024027
 10
636.7421484235724
 20
307.5348350327748
 10
644.2647534825568
 20
291.4025564235225
  0
LWPOLYLINE
  5
51
100
AcDbEntity
  8
0
  6
ByLayer
 62
  256
370
   -1
100
AcDbPolyline
 90
    4
 70
    1
 43
0
 10
733.3778538458671
 20
17.78513133133776
 10
773.377853845867
 20
17.78513133133779
 10
773.3778538458669
 20
35.58513133133766
 10
733.3778538458671
 20
35.58513133133762
  0
LWPOLYLINE
  5
52
100
AcDbEntity
  8
0
  6
ByLayer
 62
  256
370
   -1
100
AcDbPolyline
 90
    4
 70
    1
 43
0
 10
207.0282103527055
 20
368.0652311988503
 10
193.3926192651879
 20
356.6236117464298
 10
219.1041236526493
 20
325.9818340216707
 10
232.739714740167
 20
337.4234534740912
  0
LWPOLYLINE
  5
53
100
AcDbEntity
  8
0
  6
ByLayer
 62
  256
370
   -1
100
AcDbPolyline
 90
    4
 70
    1
 43
0
 10
-7.223319144072495
 20
727.0130821064383
 10
9.503209505916592
 20
733.1010406576353
 10
-4.177596227110183
 20
770.6887454890716
 10
-20.90412487709927
 20
764.6007869378747
  0
LWPOLYLINE
  5
54
100
AcDbEntity
  8
0
  6
ByLayer
 62
  256
370
   -1
100
AcDbPolyline
 90
    4
 70
    1
 43
0
 10
505.5418536261496
 20
225.3440326823762
 10
541.7941651076156
 20
242.2487631520042
 10
534.2715600486313
 20
258.3810417612564
 10
498.0192485671653
 20
241.4763112916285
  0
LWPOLYLINE
  5
55
100
AcDbEntity
  8
0
  6
ByLayer
 62
  256
370
   -1
100
AcDbPolyline
 90
    4
 70
    1
 43
0
 10
246.7880911960287
 20
34.81097150390291
 10
246.7880911960288
 20
17.01097150390298
 10
286.7880911960288
 20
17.01097150390302
 10
286.7880911960287
 20
34.81097150390294
  0
SPLINE
  5
56
100
AcDbEntity
  8
0
  6
ByLayer
 62
  256
370
   -1
100
AcDbSpline
210
0
220
0
230
0
 70
    8
 71
    3
 72
   14
 73
   10
 74
    0
 42
1e-007
 43
1e-007
 40
0
 40
0
 40
0
 40
0
 40
0.1953222366934638
 40
0.1953222366934638
 40
0.3906444733869276
 40
0.3906444733869276
 40
0.5859667100803916
 40
0.5859667100803916
 40
0.7856870164867406
 40
0.7856870164867406
 40
0.7856870164867406
 40
0.7856870164867406
 10
123.485972715513
 20
64.54721273098548
 30
0
 10
123.5102526170594
 20
67.1513960367996
 30
0
 10
124.0429552975649
 20
69.7259395261438
 30
0
 10
126.0652377434176
 20
74.52592020577119
 30
0
 10
127.5354833863533
 20
76.70546696456553
 30
0
 10
131.2286720750373
 20
80.37831301706714
 30
0
 10
133.4163062239784
 20
81.83649790065672
 30
0
 10
138.2815488970608
 20
83.85470670392178
 30
0
 10
140.9204456354374
 20
84.37359240290749
 30
0
 10
143.5833509238098
 20
84.36051106719248
 30
0
  0
LINE
  5
57
100
AcDbEntity
  8
0
  6
ByLayer
 62
  256
370
   -1
100
AcDbLine
 10
123.485972715513
 20
64.54721273098548
 11
122.6650768106717
 21
-23.49941328633687
  0
SPLINE
  5
58
100
AcDbEntity
  8
0
  6
ByLayer
 62
  256
370
   -1
100
AcDbSpline
210
0
220
0
230
0
 70
    8
 71
    3
 72
  134
 73
  130
 74
    0
 42
1e-007
 43
1e-007
 40
0.004697104116553651
 40
0.004697104116553651
 40
0.004697104116553651
 40
0.004697104116553651
 40
0.06481828449591874
 40
0.06481828449591874
 40
0.06481828449591874
 40
0.1254351589868436
 40
0.1254351589868436
 40
0.1254351589868436
 40
0.1541252585962802
 40
0.1541252585962802
 40
0.1541252585962802
 40
0.1818741794880293
 40
0.1818741794880293
 40
0.1818741794880293
 40
0.2090406142466446
 40
0.2090406142466446
 40
0.2090406142466446
 40
0.2353049687151742
 40
0.2353049687151742
 40
0.2353049687151742
 40
0.2606971970947118
 40
0.2606971970947118
 40
0.2606971970947118
 40
0.2852462589363483
 40
0.2852462589363483
 40
0.2852462589363483
 40
0.3089801521692142
 40
0.3089801521692142
 40
0.3089801521692142
 40
0.3319259450318032
 40
0.3319259450318032
 40
0.3319259450318032
 40
0.3541098069429938
 40
0.3541098069429938
 40
0.3541098069429938
 40
0.3755570383479778
 40
0.3755570383479778
 40
0.3755570383479778
 40
0.3962920995731332
 40
0.3962920995731332
 40
0.3962920995731332
 40
0.4163386387227519
 40
0.4163386387227519
 40
0.4163386387227519
 40
0.4261474414539462
 40
0.4261474414539462
 40
0.4261474414539462
 40
0.435791400977413
 40
0.435791400977413
 40
0.435791400977413
 40
0.4452732875887613
 40
0.4452732875887613
 40
0.4452732875887613
 40
0.463693372450709
 40
0.463693372450709
 40
0.463693372450709
 40
0.4815018056313332
 40
0.4815018056313332
 40
0.4815018056313332
 40
0.4987188974485326
 40
0.4987188974485326
 40
0.4987188974485326
 40
0.5153642838020268
 40
0.5153642838020268
 40
0.5153642838020268
 40
0.5314569485678792
 40
0.5314569485678792
 40
0.5314569485678792
 40
0.5470152452493944
 40
0.5470152452493944
 40
0.5470152452493944
 40
0.5620569179090823
 40
0.5620569179090823
 40
0.5620569179090823
 40
0.5765991214055624
 40
0.5765991214055624
 40
0.5765991214055624
 40
0.5906584409584866
 40
0.5906584409584866
 40
0.5906584409584866
 40
0.6042509110637966
 40
0.6042509110637966
 40
0.6042509110637966
 40
0.6173920337808855
 40
0.6173920337808855
 40
0.6173920337808855
 40
0.6300967964125228
 40
0.6300967964125228
 40
0.6300967964125228
 40
0.6423796885977047
 40
0.6423796885977047
 40
0.6423796885977047
 40
0.6658431572288093
 40
0.6658431572288093
 40
0.6658431572288093
 40
0.6877671876830271
 40
0.6877671876830271
 40
0.6877671876830271
 40
0.7082527824991437
 40
0.7082527824991437
 40
0.7082527824991437
 40
0.7460738907888701
 40
0.7460738907888701
 40
0.7460738907888701
 40
0.7627339828142123
 40
0.7627339828142123
 40
0.7627339828142123
 40
0.7783010062017719
 40
0.7783010062017719
 40
0.7783010062017719
 40
0.8070413031067168
 40
0.8070413031067168
 40
0.8070413031067168
 40
0.8320558065290981
 40
0.8320558065290981
 40
0.8320558065290981
 40
0.8750737863937085
 40
0.8750737863937085
 40
0.8750737863937085
 40
0.9070729477246929
 40
0.9070729477246929
 40
0.9070729477246929
 40
0.9308757001809687
 40
0.9308757001809687
 40
0.9308757001809687
 40
0.9658600055077489
 40
0.9658600055077489
 40
0.9658600055077489
 40
1
 40
1
 40
1
 40
1
 10
25.81591617720463
 20
829.0736105824102
 30
0
 10
53.46011256585079
 20
749.4706242329772
 30
0
 10
82.67880527305742
 20
676.8572485040562
 30
0
 10
113.3545573313736
 20
611.5602939039155
 30
0
 10
144.2832284037048
 20
545.7249713659892
 30
0
 10
176.7231132640503
 20
487.2708848441523
 30
0
 10
210.2483361484341
 20
437.7609665400779
 30
0
 10
226.1158976494075
 20
414.3278136477818
 30
0
 10
242.2203752325033
 20
392.9232145747116
 30
0
 10
258.4300666415601
 20
373.8548179151413
 30
0
 10
274.1079991239428
 20
355.4119600079883
 30
0
 10
289.887681572674
 20
339.1598039177628
 30
0
 10
305.5380563232129
 20
325.4229982223321
 30
0
 10
320.8599092438003
 20
311.9745460402634
 30
0
 10
336.0353206712899
 20
300.9651975625641
 30
0
 10
350.8517400575121
 20
292.502755909518
 30
0
 10
365.1761699715524
 20
284.3213154952815
 30
0
 10
379.1300302614171
 20
278.5079712881263
 30
0
 10
392.9728724594693
 20
274.8103307652553
 30
0
 10
406.3560534904752
 20
271.2354729580826
 30
0
 10
419.6766510544558
 20
269.5966230257557
 30
0
 10
433.6275681882032
 20
269.8318487855233
 30
0
 10
447.1152354517781
 20
270.0592637109473
 30
0
 10
461.2360814135593
 20
272.0753841831428
 30
0
 10
476.2517611581904
 20
276.0106530512229
 30
0
 10
490.7688348523691
 20
279.8152485897467
 30
0
 10
506.1108181805793
 20
285.4434208649978
 30
0
 10
522.0103601079077
 20
292.6161668819205
 30
0
 10
537.3819467285692
 20
299.5507368972756
 30
0
 10
553.2489127269946
 20
307.9134936501493
 30
0
 10
569.2369502621465
 20
317.0264252043893
 30
0
 10
584.6940939326538
 20
325.8367555519185
 30
0
 10
600.2508631102249
 20
335.3312187843934
 30
0
 10
615.7092460912991
 20
344.7513677188762
 30
0
 10
630.6543227542004
 20
353.8587140806632
 30
0
 10
645.4945387009623
 20
362.8921341952769
 30
0
 10
660.3631171776251
 20
371.1846620089541
 30
0
 10
674.7379742033663
 20
379.2018306905931
 30
0
 10
689.1319485250315
 20
386.552102561792
 30
0
 10
704.1396973428551
 20
392.5263184250738
 30
0
 10
718.6491034621462
 20
398.3021563110144
 30
0
 10
733.8544978838046
 20
402.8375369882128
 30
0
 10
750.0947218534412
 20
404.7555803137916
 30
0
 10
758.04108865719
 20
405.6940818910498
 30
0
 10
766.2155546834522
 20
405.981796416755
 30
0
 10
774.4318673838383
 20
405.4597216394239
 30
0
 10
782.5100996906901
 20
404.9464206628642
 30
0
 10
790.6156703035946
 20
403.6434114041211
 30
0
 10
798.4724004945856
 20
401.574627931106
 30
0
 10
806.1970933062528
 20
399.5406116884177
 30
0
 10
813.6696210368921
 20
396.7752186687452
 30
0
 10
820.7378772265795
 20
393.4528988031049
 30
0
 10
834.4690980454624
 20
386.9987598356144
 30
0
 10
846.6088410592783
 20
378.5423428851286
 30
0
 10
857.6189470011323
 20
369.1006415893225
 30
0
 10
868.2634547461618
 20
359.972458527304
 30
0
 10
877.9468264418265
 20
349.8751383621014
 30
0
 10
887.2673843109681
 20
339.0109073083436
 30
0
 10
896.2784465977462
 20
328.5074305746727
 30
0
 10
904.9525582570787
 20
317.2626345976037
 30
0
 10
913.4785975126163
 20
305.3576708976212
 30
0
 10
921.7215237268858
 20
293.848019766379
 30
0
 10
929.8170066166118
 20
281.7227087650026
 30
0
 10
937.6639469342599
 20
269.1163920668751
 30
0
 10
945.2503241614279
 20
256.9286768497665
 30
0
 10
952.5984360061018
 20
244.2948665329407
 30
0
 10
959.4532264027442
 20
231.3608386213226
 30
0
 10
966.0803987345055
 20
218.8562940686421
 30
0
 10
972.2435034729561
 20
206.0782703197265
 30
0
 10
977.6317046084581
 20
193.0944282629103
 30
0
 10
982.840986791711
 20
180.5417236782399
 30
0
 10
987.3328198883592
 20
167.7989830619342
 30
0
 10
990.7233496829521
 20
154.7912491528121
 30
0
 10
994.0012945863795
 20
142.2154460613465
 30
0
 10
996.2643591747611
 20
129.3699498769597
 30
0
 10
996.9008119661892
 20
116.1688299662559
 30
0
 10
997.5161309016726
 20
103.4060623893903
 30
0
 10
996.5713210676536
 20
90.24447199464777
 30
0
 10
993.3421579282806
 20
77.25992805927545
 30
0
 10
990.2202213884736
 20
64.70654490241265
 30
0
 10
984.868154278749
 20
52.39805649890076
 30
0
 10
977.667040550627
 20
41.61245863181303
 30
0
 10
970.7050447935795
 20
31.18500401536308
 30
0
 10
962.1329351562564
 20
22.25600599249209
 30
0
 10
953.0253552078124
 20
15.02576099478805
 30
0
 10
944.2201987623004
 20
8.035601292150236
 30
0
 10
934.9347937655507
 20
2.564017406199159
 30
0
 10
925.6915950345212
 20
-1.82128515083547
 30
0
 10
916.7553231220716
 20
-6.060970697838632
 30
0
 10
907.8353494404394
 20
-9.302653148512832
 30
0
 10
899.1252724834455
 20
-11.89301533268713
 30
0
 10
882.4867956187312
 20
-16.84127026607303
 30
0
 10
866.6103696234666
 20
-19.46535154638735
 30
0
 10
852.3356018780194
 20
-21.11032898704517
 30
0
 10
838.997401644351
 20
-22.64737945782143
 30
0
 10
827.0926434330431
 20
-23.29522006309665
 30
0
 10
816.7534639814552
 20
-23.62969942395926
 30
0
 10
807.092638093686
 20
-23.9422335939557
 30
0
 10
798.7790525448581
 20
-23.97377329522772
 30
0
 10
791.1704320976077
 20
-23.94255543519266
 30
0
 10
777.1231730136542
 20
-23.88492010287463
 30
0
 10
765.3545097085157
 20
-23.63834036683915
 30
0
 10
748.9961787745867
 20
-23.47362179890887
 30
0
 10
741.7903799214026
 20
-23.40106373215473
 30
0
 10
733.7209576793178
 20
-23.33511843633989
 30
0
 10
724.5136297243441
 20
-23.27870792874064
 30
0
 10
715.910394556496
 20
-23.22599851454498
 30
0
 10
706.3200788405088
 20
-23.1816972757953
 30
0
 10
695.6880709583214
 20
-23.14760559554502
 30
0
 10
676.0589449769232
 20
-23.08466453173418
 30
0
 10
652.820058759475
 20
-23.05742542842978
 30
0
 10
626.6150851599841
 20
-23.06217655657404
 30
0
 10
603.8072344284526
 20
-23.06631176476683
 30
0
 10
578.790329985833
 20
-23.09431852599804
 30
0
 10
552.5068128248189
 20
-23.13817578920872
 30
0
 10
507.3064827238421
 20
-23.21359806859029
 30
0
 10
458.4382320905552
 20
-23.33493879420834
 30
0
 10
411.5252695415523
 20
-23.44763225102755
 30
0
 10
376.6288038812729
 20
-23.53145989977008
 30
0
 10
342.846765615428
 20
-23.61007131736034
 30
0
 10
311.7455008705984
 20
-23.6678620623586
 30
0
 10
288.6106537369188
 20
-23.71085002642518
 30
0
 10
266.9338216823904
 20
-23.74257687450267
 30
0
 10
247.0633686030396
 20
-23.75953939002068
 30
0
 10
217.8585949624102
 20
-23.78447019678694
 30
0
 10
192.5766716765486
 20
-23.77733712920795
 30
0
 10
171.6423589553143
 20
-23.73349165006594
 30
0
 10
151.2132747037856
 20
-23.69070433722849
 30
0
 10
134.90899579544
 20
-23.613568517587
 30
0
 10
122.6650768106717
 20
-23.49941328633689
 30
0
  0
SPLINE
  5
59
100
AcDbEntity
  8
0
  6
ByLayer
 62
  256
370
   -1
100
AcDbSpline
210
0
220
0
230
0
 70
    8
 71
    3
 72
   14
 73
   10
 74
    0
 42
1e-007
 43
1e-007
 40
0
 40
0
 40
0
 40
0
 40
0.1953222366934645
 40
0.1953222366934645
 40
0.3906444733869273
 40
0.3906444733869273
 40
0.5859667100803926
 40
0.5859667100803926
 40
0.7844030956315381
 40
0.7844030956315381
 40
0.7844030956315381
 40
0.7844030956315381
 10
0.4931539852533717
 20
841.4507986337775
 30
0
 10
2.95920482749537
 20
842.2880282602108
 30
0
 10
5.56520844284492
 20
842.6355789487836
 30
0
 10
10.76375296132326
 20
842.312197278
 30
0
 10
13.30659294542968
 20
841.6443566236729
 30
0
 10
17.99315068774504
 20
839.3715571728758
 30
0
 10
20.09206239956612
 20
837.7883275779267
 30
0
 10
23.5925532102403
 20
833.8754934117694
 30
0
 10
24.94793713016769
 20
831.5730040631063
 30
0
 10
25.81591617720449
 20
829.0736105824102
 30
0
  0
LINE
  5
5A
100
AcDbEntity
  8
0
  6
ByLayer
 62
  256
370
   -1
100
AcDbLine
 10
0.4931539852533717
 20
841.4507986337775
 11
-63.89867590752804
 21
819.5896322851224
  0
SPLINE
  5
5B
100
AcDbEntity
  8
0
  6
ByLayer
 62
  256
370
   -1
100
AcDbSpline
210
0
220
0
230
0
 70
    8
 71
    3
 72
   16
 73
   12
 74
    0
 42
1e-007
 43
1e-007
 40
0
 40
0
 40
0
 40
0
 40
0.1953222366934634
 40
0.1953222366934634
 40
0.3906444733869284
 40
0.3906444733869284
 40
0.5859667100803924
 40
0.5859667100803924
 40
0.6883889048048581
 40
0.6883889048048581
 40
0.7908110995293226
 40
0.7908110995293226
 40
0.7908110995293226
 40
0.7908110995293226
 10
-76.36330211525819
 20
794.0932496209763
 30
0
 10
-77.21725826605191
 20
796.5535583610375
 30
0
 10
-77.58249712453673
 20
799.1571418339831
 30
0
 10
-77.29442385659053
 20
804.3577624323246
 30
0
 10
-76.64386586761313
 20
806.9050787902432
 30
0
 10
-74.40294309655872
 20
811.606962024626
 30
0
 10
-72.8340027575702
 20
813.7165763346451
 30
0
 10
-69.8933172670034
 20
816.3835370249928
 30
0
 10
-68.79043088282486
 20
817.1949390475737
 30
0
 10
-66.43658992941049
 20
818.580293118488
 30
0
 10
-65.19181254081843
 20
819.1506095845878
 30
0
 10
-63.89867590752804
 20
819.5896322851224
 30
0
  0
SPLINE
  5
5C
100
AcDbEntity
  8
0
  6
ByLayer
 62
  256
370
   -1
100
AcDbSpline
210
0
220
0
230
0
 70
    8
 71
    3
 72
  134
 73
  130
 74
    0
 42
1e-007
 43
1e-007
 40
0.004588066610197696
 40
0.004588066610197696
 40
0.004588066610197696
 40
0.004588066610197696
 40
0.06481828449591874
 40
0.06481828449591874
 40
0.06481828449591874
 40
0.1254351589868436
 40
0.1254351589868436
 40
0.1254351589868436
 40
0.1541252585962802
 40
0.1541252585962802
 40
0.1541252585962802
 40
0.1818741794880293
 40
0.1818741794880293
 40
0.1818741794880293
 40
0.2087127970299245
 40
0.2087127970299245
 40
0.2087127970299245
 40
0.2349880368962834
 40
0.2349880368962834
 40
0.2349880368962834
 40
0.2603907892164729
 40
0.2603907892164729
 40
0.2603907892164729
 40
0.2849500255440197
 40
0.2849500255440197
 40
0.2849500255440197
 40
0.3086937554119413
 40
0.3086937554119413
 40
0.3086937554119413
 40
0.3316490582773031
 40
0.3316490582773031
 40
0.3316490582773031
 40
0.3538421144050348
 40
0.3538421144050348
 40
0.3538421144050348
 40
0.3752982347262289
 40
0.3752982347262289
 40
0.3752982347262289
 40
0.3960418897049723
 40
0.3960418897049723
 40
0.3960418897049723
 40
0.4060693134758044
 40
0.4060693134758044
 40
0.4060693134758044
 40
0.4159302534694244
 40
0.4159302534694244
 40
0.4159302534694244
 40
0.4257459193761755
 40
0.4257459193761755
 40
0.4257459193761755
 40
0.4353966267351415
 40
0.4353966267351415
 40
0.4353966267351415
 40
0.4448851477802945
 40
0.4448851477802945
 40
0.4448851477802945
 40
0.4542142081564407
 40
0.4542142081564407
 40
0.4542142081564407
 40
0.4723374035556749
 40
0.4723374035556749
 40
0.4723374035556749
 40
0.4898588056939132
 40
0.4898588056939132
 40
0.4898588056939132
 40
0.5233291694523355
 40
0.5233291694523355
 40
0.5233291694523355
 40
0.5391573546712112
 40
0.5391573546712112
 40
0.5391573546712112
 40
0.5542752976512221
 40
0.5542752976512221
 40
0.5542752976512221
 40
0.569075895240336
 40
0.569075895240336
 40
0.569075895240336
 40
0.5832123604969768
 40
0.5832123604969768
 40
0.5832123604969768
 40
0.5967200903928215
 40
0.5967200903928215
 40
0.5967200903928215
 40
0.6101112792284799
 40
0.6101112792284799
 40
0.6101112792284799
 40
0.6230578043599458
 40
0.6230578043599458
 40
0.6230578043599458
 40
0.6355744311536298
 40
0.6355744311536298
 40
0.6355744311536298
 40
0.6594843927256401
 40
0.6594843927256401
 40
0.6594843927256401
 40
0.6818256217189108
 40
0.6818256217189108
 40
0.6818256217189108
 40
0.7027010426779331
 40
0.7027010426779331
 40
0.7027010426779331
 40
0.7412418594700165
 40
0.7412418594700165
 40
0.7412418594700165
 40
0.7582189810701887
 40
0.7582189810701887
 40
0.7582189810701887
 40
0.7740822337221737
 40
0.7740822337221737
 40
0.7740822337221737
 40
0.8033694378167309
 40
0.8033694378167309
 40
0.8033694378167309
 40
0.828859949257106
 40
0.828859949257106
 40
0.828859949257106
 40
0.8726965303542773
 40
0.8726965303542773
 40
0.8726965303542773
 40
0.9053046127222073
 40
0.9053046127222073
 40
0.9053046127222073
 40
0.9295603144466814
 40
0.9295603144466814
 40
0.9295603144466814
 40
0.9652103459547217
 40
0.9652103459547217
 40
0.9652103459547217
 40
0.983648675404208
 40
0.983648675404208
 40
0.983648675404208
 40
0.983648675404208
 10
-76.36330211525838
 20
794.093249620977
 30
0
 10
-47.61262768414781
 20
711.2605005157993
 30
0
 10
-17.01896406449322
 20
635.0801356104632
 30
0
 10
15.60403658804937
 20
565.6382328176694
 30
0
 10
48.43646531717319
 20
495.7505376745357
 30
0
 10
83.28268311735116
 20
432.6436984144667
 30
0
 10
120.8215836491504
 20
377.2063966263889
 30
0
 10
138.5888275813213
 20
350.9678001343103
 30
0
 10
156.9690235164166
 20
326.4614454871587
 30
0
 10
176.1439301461049
 20
303.9048948226082
 30
0
 10
194.6898039638062
 20
282.0883118026083
 30
0
 10
213.9756081427473
 20
262.0888155242243
 30
0
 10
234.2941347132407
 20
244.2546322560757
 30
0
 10
253.9461120195892
 20
227.0054993700387
 30
0
 10
274.589401265257
 20
211.7700588554308
 30
0
 10
296.4853349944667
 20
199.1814505669307
 30
0
 10
317.9216444442663
 20
186.8570936268745
 30
0
 10
340.5992548270455
 20
177.1014316616328
 30
0
 10
364.2455115448253
 20
170.6988583070819
 30
0
 10
387.106577923536
 20
164.5088868371835
 30
0
 10
410.8371908799801
 20
161.5116790204101
 30
0
 10
434.5888132743316
 20
161.8341172321162
 30
0
 10
457.5517465893145
 20
162.1458486595816
 30
0
 10
480.4921733553953
 20
165.5360755845823
 30
0
 10
502.8236108141823
 20
171.3282494815227
 30
0
 10
524.413517418448
 20
176.9280902307532
 30
0
 10
545.4453809938503
 20
184.746534588713
 30
0
 10
565.6899317274157
 20
193.840654573832
 30
0
 10
585.2622481261978
 20
202.6327980034277
 30
0
 10
604.1156905702046
 20
212.6131403786891
 30
0
 10
622.0685278814638
 20
222.8281125017097
 30
0
 10
639.4252287900813
 20
232.7038893973172
 30
0
 10
655.9449871805202
 20
242.7967490580681
 30
0
 10
671.3530175973419
 20
252.1868045999439
 30
0
 10
686.2494136877767
 20
261.2650568410774
 30
0
 10
700.1133869190874
 20
269.6771067288251
 30
0
 10
712.5202949290535
 20
276.6122268918488
 30
0
 10
724.5152229616635
 20
283.3170615844369
 30
0
 10
735.1508686792718
 20
288.6050439693943
 30
0
 10
743.7722689823129
 20
292.0601282984592
 30
0
 10
747.9398293483699
 20
293.7303062283851
 30
0
 10
751.6296166273034
 20
294.980217480678
 30
0
 10
754.7777232139116
 20
295.8543108975093
 30
0
 10
757.8735622702366
 20
296.7138918755531
 30
0
 10
760.4384734275703
 20
297.2112826106541
 30
0
 10
762.5073906112958
 20
297.4700607764973
 30
0
 10
764.5668088693244
 20
297.7276508258763
 30
0
 10
766.130837748181
 20
297.7584888828863
 30
0
 10
767.4255820829214
 20
297.6864782379723
 30
0
 10
768.6985674104542
 20
297.6156777780344
 30
0
 10
769.7243616030958
 20
297.4530981384349
 30
0
 10
770.8351650932148
 20
297.1700112294649
 30
0
 10
771.9273008197457
 20
296.8916817771815
 30
0
 10
773.1142833979192
 20
296.4886270953104
 30
0
 10
774.6110016070583
 20
295.7978594849397
 30
0
 10
776.0825665087633
 20
295.1187006663664
 30
0
 10
777.8507974330337
 20
294.152483915688
 30
0
 10
779.9521865260356
 20
292.7576366107824
 30
0
 10
784.0344717301992
 20
290.0479221015338
 30
0
 10
789.3683892551404
 20
285.6515440886823
 30
0
 10
795.4872912155411
 20
279.4274129607294
 30
0
 10
801.4030107964912
 20
273.4099584196501
 30
0
 10
808.0338598298011
 20
265.731771401829
 30
0
 10
814.968511646549
 20
256.8301274353913
 30
0
 10
828.2154719647541
 20
239.825708539348
 30
0
 10
842.6549667862134
 20
218.3692160227753
 30
0
 10
855.2447842917769
 20
196.6142370840517
 30
0
 10
861.1985278718645
 20
186.3262749166788
 30
0
 10
866.7197406798655
 20
175.9787601611493
 30
0
 10
871.4519964317527
 20
166.0670627701317
 30
0
 10
875.9719064299339
 20
156.6001230091646
 30
0
 10
879.7638640673795
 20
147.5282509061927
 30
0
 10
882.5988212117697
 20
139.3606825426967
 30
0
 10
885.3742688987984
 20
131.3645621188059
 30
0
 10
887.2147554231985
 20
124.2419991713977
 30
0
 10
888.1722643434691
 20
118.5303854258509
 30
0
 10
889.0868079288094
 20
113.0750631804396
 30
0
 10
889.1897738116566
 20
108.9524280830858
 30
0
 10
888.9865011033007
 20
106.3354552104474
 30
0
 10
888.792269179703
 20
103.8348751809562
 30
0
 10
888.3991481783951
 20
102.739054978589
 30
0
 10
888.1806389921168
 20
102.2139183612197
 30
0
 10
887.9640150443224
 20
101.6933124813321
 30
0
 10
887.9173797837527
 20
101.5866022783307
 30
0
 10
887.3693963210497
 20
100.9804322989173
 30
0
 10
886.8396090289298
 20
100.3943906136923
 30
0
 10
885.7484030488272
 20
99.3705007884605
 30
0
 10
883.6531343455745
 20
98.05763243245318
 30
0
 10
881.6274404914485
 20
96.78835877990819
 30
0
 10
878.6841740502247
 20
95.2954209017729
 30
0
 10
874.9800515849661
 20
93.87028802239496
 30
0
 10
867.904229379654
 20
91.1479193728695
 30
0
 10
858.1435242675514
 20
88.78596283283801
 30
0
 10
848.0596795955412
 20
87.25471236574907
 30
0
 10
838.6374359724617
 20
85.82392724180586
 30
0
 10
828.9986240688938
 20
85.03128312947041
 30
0
 10
820.1609006326453
 20
84.59442532761203
 30
0
 10
811.903020231049
 20
84.18622976613356
 30
0
 10
804.3393908273937
 20
84.07099160817086
 30
0
 10
797.2259619841697
 20
84.05169708385898
 30
0
 10
784.0929402190816
 20
84.01607496500183
 30
0
 10
772.2247644688396
 20
84.275566084741
 30
0
 10
756.2782576322792
 20
84.45488423207451
 30
0
 10
749.2538661378604
 20
84.53387337256991
 30
0
 10
741.4434409306183
 20
84.60713483984409
 30
0
 10
732.5257928860963
 20
84.67065041949454
 30
0
 10
724.1932317297753
 20
84.72999874196412
 30
0
 10
714.8936423680234
 20
84.78103286910633
 30
0
 10
704.5281515868417
 20
84.82164903511131
 30
0
 10
685.3910773241596
 20
84.8966357966174
 30
0
 10
662.5590885832974
 20
84.93472021287363
 30
0
 10
636.5297242529789
 20
84.93810704006052
 30
0
 10
613.8747174074814
 20
84.94105481059111
 30
0
 10
588.8360615591869
 20
84.91828540402587
 30
0
 10
562.3523011068271
 20
84.87772803148984
 30
0
 10
516.807608308351
 20
84.80798064511734
 30
0
 10
467.0578732223418
 20
84.68638487121568
 30
0
 10
419.0590211707256
 20
84.57080274176788
 30
0
 10
383.3548106211902
 20
84.48482633797532
 30
0
 10
348.66762747799
 20
84.40275089601734
 30
0
 10
316.7189374197831
 20
84.34170336995183
 30
0
 10
292.9537282978357
 20
84.29629283134506
 30
0
 10
270.6764990832913
 20
84.26223815097308
 30
0
 10
250.2740262525725
 20
84.2433598478938
 30
0
 10
220.2873118907628
 20
84.21561329546505
 30
0
 10
194.3697695012912
 20
84.22089113178615
 30
0
 10
173.0306480946315
 20
84.26388403869825
 30
0
 10
161.9939748010934
 20
84.2861201307325
 30
0
 10
152.1706616590253
 20
84.31832650467459
 30
0
 10
143.58335092381
 20
84.36051106719248
 30
0
  0
ENDSEC
  0
SECTION
  2
OBJECTS
  0
DICTIONARY
  5
C
330
0
100
AcDbDictionary
281
    1
  3
ACAD_GROUP
350
D
  0
DICTIONARY
  5
D
330
C
100
AcDbDictionary
281
    1
  0
ENDSEC
  0
EOF
