0
SECTION
2
HEADER
9
$INSUNITS
70
4
9
$ACADVER
1
AC1014
9
$HANDSEED
5
FFFF
0
ENDSEC
0
SECTION
2
TABLES
0
TABLE
2
VPORT
5
8
100
AcDbSymbolTable
0
ENDTAB
0
TABLE
2
LTYPE
5
5
100
AcDbSymbolTable
0
LTYPE
5
14
100
AcDbSymbolTableRecord
100
AcDbLinetypeTableRecord
2
BYBLOCK
70
0
0
LTYPE
5
15
100
AcDbSymbolTableRecord
100
AcDbLinetypeTableRecord
2
BYLAYER
70
0
0
ENDTAB
0
TABLE
2
LAYER
5
2
100
AcDbSymbolTable
70
2
0
LAYER
5
50
100
AcDbSymbolTableRecord
100
AcDbLayerTableRecord
2
0
70
0
6
CONTINUOUS
0
ENDTAB
0
TABLE
2
STYLE
5
3
100
AcDbSymbolTable
70
1
0
STYLE
5
11
100
AcDbSymbolTableRecord
100
AcDbTextStyleTableRecord
2
STANDARD
70
0
0
ENDTAB
0
TABLE
2
VIEW
5
6
100
AcDbSymbolTable
70
0
0
ENDTAB
0
TABLE
2
UCS
5
7
100
AcDbSymbolTable
70
0
0
ENDTAB
0
TABLE
2
APPID
5
9
100
AcDbSymbolTable
70
2
0
APPID
5
12
100
AcDbSymbolTableRecord
100
AcDbRegAppTableRecord
2
ACAD
70
0
0
ENDTAB
0
TABLE
2
DIMSTYLE
5
A
100
AcDbSymbolTable
70
1
0
ENDTAB
0
TABLE
2
BLOCK_RECORD
5
1
100
AcDbSymbolTable
70
1
0
BLOCK_RECORD
5
1F
100
AcDbSymbolTableRecord
100
AcDbBlockTableRecord
2
*MODEL_SPACE
0
BLOCK_RECORD
5
1B
100
AcDbSymbolTableRecord
100
AcDbBlockTableRecord
2
*PAPER_SPACE
0
ENDTAB
0
ENDSEC
0
SECTION
2
BLOCKS
0
BLOCK
5
20
100
AcDbEntity
100
AcDbBlockBegin
2
*MODEL_SPACE
0
ENDBLK
5
21
100
AcDbEntity
100
AcDbBlockEnd
0
BLOCK
5
1C
100
AcDbEntity
100
AcDbBlockBegin
2
*PAPER_SPACE
0
ENDBLK
5
1D
100
AcDbEntity
100
AcDbBlockEnd
0
ENDSEC
0
SECTION
2
ENTITIES
0
LWPOLYLINE
5
100
100
AcDbEntity
8
0
100
AcDbPolyline
90
94
70
1
43
0.0
10
-1702.6655233736233
20
-241.49608460648054
10
-1696.4155233736233
20
-241.49608460648054
10
-1696.4155233736233
20
-239.99608460648057
10
-1692.915523373623
20
-239.99608460648057
10
-1692.915523373623
20
-241.49608460648057
10
-1686.665523373623
20
-241.49608460648054
10
-1686.665523373623
20
-245.49608460648057
10
-1692.915523373623
20
-245.49608460648057
10
-1692.915523373623
20
-246.99608460648054
10
-1696.4155233736233
20
-246.99608460648054
10
-1696.4155233736233
20
-245.49608460648057
10
-1702.6655233736233
20
-245.49608460648059
10
-1702.6655233736233
20
-293.4960875867128
10
-1708.6655233736233
20
-293.4960875867128
10
-1708.6655233736233
20
-393.4960875867128
10
-1702.6655203039841
20
-393.4960875867128
10
-1702.6655182476236
20
-416.49608758671297
10
-1696.4155182476238
20
-416.49608702791943
10
-1696.4155183817343
20
-414.99608702791954
10
-1692.915518381734
20
-414.99608671499516
10
-1692.9155182476238
20
-416.49608671499504
10
-1686.6655182476238
20
-416.4960861562015
10
-1686.665517889996
20
-420.49608615620161
10
-1692.915517889996
20
-420.49608671499504
10
-1692.9155177558855
20
-421.9960867149951
10
-1696.4155177558855
20
-421.99608702791949
10
-1696.4155178899957
20
-420.49608702791943
10
-1702.6655203039841
20
-420.49608758671297
10
-1702.6655158336357
20
-443.4960875867128
10
-1702.6655158336357
20
-449.49607692865726
10
-1302.6655203039841
20
-449.49607692865726
10
-1302.6655203039841
20
-423.49608225768492
10
-1308.9155203039841
20
-423.49608225768492
10
-1308.9155203039841
20
-424.99608225768498
10
-1312.4155203039841
20
-424.99608225768498
10
-1312.4155203039841
20
-423.49608225768492
10
-1318.6655203039841
20
-423.49608225768492
10
-1318.6655203039843
20
-419.49608225768498
10
-1312.4155203039841
20
-419.49608225768492
10
-1312.4155203039843
20
-417.99608225768498
10
-1308.9155203039841
20
-417.99608225768498
10
-1308.9155203039841
20
-419.49608225768492
10
-1302.6655203039841
20
-419.49608225768492
10
-1302.6655203039841
20
-393.4960875867128
10
-1296.6655203039841
20
-393.4960875867128
10
-1296.6655203039841
20
-293.4960875867128
10
-1302.6655203039841
20
-293.49608758671286
10
-1302.6655203039843
20
-245.49608460648059
10
-1308.9155203039843
20
-245.49608460648059
10
-1308.9155203039841
20
-246.99608460648057
10
-1312.4155203039843
20
-246.99608460648057
10
-1312.4155203039843
20
-245.49608460648059
10
-1318.6655203039843
20
-245.49608460648057
10
-1318.6655203039843
20
-241.49608460648057
10
-1312.4155203039843
20
-241.49608460648062
10
-1312.4155203039843
20
-239.99608460648059
10
-1308.9155203039843
20
-239.99608460648057
10
-1308.9155203039843
20
-241.49608460648057
10
-1302.6655203039841
20
-241.49608460648057
10
-1302.6655203039841
20
-193.49608162624833
10
-1296.6655203039841
20
-193.49608162624833
10
-1296.6655203039841
20
-93.496081626248312
10
-1302.6655203039841
20
-93.496081626248312
10
-1302.6655203039841
20
-67.49608388191163
10
-1308.9155203039841
20
-67.496083881911616
10
-1308.9155203039841
20
-68.996083881911616
10
-1312.4155203039841
20
-68.996083881911616
10
-1312.4155203039841
20
-67.49608388191163
10
-1318.6655203039841
20
-67.496083881911616
10
-1318.6655203039841
20
-63.496083881911609
10
-1312.4155203039841
20
-63.496083881911609
10
-1312.4155203039841
20
-61.99608388191163
10
-1308.9155203039841
20
-61.996083881911623
10
-1308.9155203039841
20
-63.496083881911609
10
-1302.6655203039841
20
-63.496083881911609
10
-1302.6655203039841
20
-37.496086137574878
10
-1702.6655158336357
20
-37.496086137574878
10
-1702.6655203039841
20
-43.496081626248333
10
-1702.6655193020301
20
-66.496081626248355
10
-1696.4155193020301
20
-66.496082568746829
10
-1696.4155190758306
20
-64.996082568746843
10
-1692.9155190758302
20
-64.996083096545959
10
-1692.9155193020301
20
-66.496083096545917
10
-1686.6655193020301
20
-66.496084039044391
10
-1686.6655199052293
20
-70.49608403904432
10
-1692.9155199052293
20
-70.496083096545902
10
-1692.9155201314288
20
-71.996083096545888
10
-1696.4155201314288
20
-71.996082568746743
10
-1696.4155199052288
20
-70.496082568746772
10
-1702.6655219615893
20
-70.496081626248213
10
-1702.6655233736233
20
-93.496081626248326
10
-1708.6655233736233
20
-93.496081626248326
10
-1708.6655233736233
20
-193.49608162624833
10
-1702.6655233736233
20
-193.49608162624833
0
CIRCLE
5
101
100
AcDbEntity
8
0
100
AcDbCircle
10
-1521.0544266919712
20
-122.74754322889265
30
0
40
1.0250000000000004
210
0
220
0
230
1
0
LWPOLYLINE
5
102
100
AcDbEntity
8
0
100
AcDbPolyline
90
4
70
1
43
0.0
10
-1469.988328160834
20
-175.61504103359027
10
-1477.9883282800433
20
-175.61504103359027
10
-1477.9883282800433
20
-153.61504070576476
10
-1469.9883281608343
20
-153.61504070576473
0
CIRCLE
5
103
100
AcDbEntity
8
0
100
AcDbCircle
10
-1473.054426691971
20
-192.74754322889265
30
0
40
1.0250000000000004
210
0
220
0
230
1
0
CIRCLE
5
104
100
AcDbEntity
8
0
100
AcDbCircle
10
-1481.0544266919712
20
-122.74754322889265
30
0
40
1.0250000000000004
210
0
220
0
230
1
0
CIRCLE
5
105
100
AcDbEntity
8
0
100
AcDbCircle
10
-1529.0544266919715
20
-192.74754322889268
30
0
40
1.0250000000000004
210
0
220
0
230
1
0
LWPOLYLINE
5
106
100
AcDbEntity
8
0
100
AcDbPolyline
90
4
70
1
43
0.0
10
-1513.6655203039841
20
-355.96134275050031
10
-1491.6655203039841
20
-355.96134275050031
10
-1491.6655203039841
20
-385.96134275050031
10
-1513.6655203039841
20
-385.96134275050031
0
CIRCLE
5
107
100
AcDbEntity
8
0
100
AcDbCircle
10
-1842.738590815125
20
-174.58057959012692
30
0
40
2.0000000000000022
210
0
220
0
230
1
0
CIRCLE
5
108
100
AcDbEntity
8
0
100
AcDbCircle
10
-1854.5177636551082
20
-387.40739054535874
30
0
40
2.0000000000000022
210
0
220
0
230
1
0
LWPOLYLINE
5
109
100
AcDbEntity
8
0
100
AcDbPolyline
90
4
70
1
43
0.0
10
-1869.5710537717925
20
-435.1818476818471
10
-1905.2820069674503
20
-528.58809919563782
10
-1910.8863820582778
20
-526.44544200389839
10
-1875.1754288626198
20
-433.03919049010767
0
LWPOLYLINE
5
110
100
AcDbEntity
8
0
100
AcDbPolyline
90
4
70
1
43
0.0
10
-1798.1491452519385
20
-248.36933908681908
10
-1833.8600984475963
20
-341.77559060060986
10
-1839.4644735384236
20
-339.63293340887043
10
-1803.7535203427658
20
-246.22668189507962
0
LWPOLYLINE
5
111
100
AcDbEntity
8
0
100
AcDbPolyline
90
4
70
1
43
0.0
10
-1228.4267883063947
20
-438.34943278366848
10
-1274.9403066331249
20
-560.01108006073321
10
-1280.5446817239522
20
-557.86842286899378
10
-1234.0311633972219
20
-436.20677559192904
0
CIRCLE
5
112
100
AcDbEntity
8
0
100
AcDbCircle
10
-1987.7250608242921
20
-553.80996072281414
30
0
40
2.0000000000000022
210
0
220
0
230
1
0
CIRCLE
5
113
100
AcDbEntity
8
0
100
AcDbCircle
10
-1918.0832595046018
20
-553.6705160459843
30
0
40
2.0000000000000022
210
0
220
0
230
1
0
CIRCLE
5
114
100
AcDbEntity
8
0
100
AcDbCircle
10
-1790.9522667080867
20
-221.14426217401845
30
0
40
2.0000000000000022
210
0
220
0
230
1
0
CIRCLE
5
115
100
AcDbEntity
8
0
100
AcDbCircle
10
-1283.0991371578871
20
-572.95068919193216
30
0
40
2.0000000000000022
210
0
220
0
230
1
0
CIRCLE
5
116
100
AcDbEntity
8
0
100
AcDbCircle
10
-1225.8723328724595
20
-423.26716646073004
30
0
40
2.0000000000000018
210
0
220
0
230
1
0
LWPOLYLINE
5
117
100
AcDbEntity
8
0
100
AcDbPolyline
90
17
70
1
43
0.0
10
-1297.4884042236661
20
-478.97525025677737
42
-0.34118226927340234
10
-1339.2248115456775
20
-504.4510115843367
10
-1724.3188183168186
20
-462.08785209074608
42
-0.49122162275788195
10
-1806.7903030393709
20
-326.97654238053019
10
-1766.6119524171061
20
-221.88528079838676
42
0.4142135623730937
10
-1778.1510120807325
20
-196.06183985649707
10
-1899.5791390486606
20
-149.63760070214187
42
0.41421356237309148
10
-1925.4025799905503
20
-161.1766603657685
10
-2058.2473258783971
20
-508.64791599707013
42
0.4142135623730937
10
-2046.7082662147707
20
-534.47135693895984
10
-1906.5988889440841
20
-588.03778673244653
10
-1259.6567715965691
20
-588.03778673244619
42
0.3108776743399419
10
-1222.2942709910528
20
-562.3221680107099
10
-1185.2947585193542
20
-465.54553623379002
42
0.41421356237309881
10
-1208.3728778466073
20
-413.89865435001013
10
-1227.0541281493656
20
-406.75646371087845
42
0.41421356237309015
10
-1278.7010100331447
20
-429.83458303813103
0
CIRCLE
5
118
100
AcDbEntity
8
0
100
AcDbCircle
10
-1962.3735502989236
20
-378.28987377195392
30
0
40
1.5000000000000036
210
0
220
-0
230
1
0
CIRCLE
5
119
100
AcDbEntity
8
0
100
AcDbCircle
10
-2008.7977895395084
20
-499.71800070691484
30
0
40
1.5000000000000215
210
0
220
-0
230
1
0
CIRCLE
5
120
100
AcDbEntity
8
0
100
AcDbCircle
10
-1985.549084537653
20
-439.01792451362917
30
0
40
1.5000000000000215
210
0
220
-0
230
1
0
ENDSEC
0
SECTION
2
OBJECTS
0
DICTIONARY
5
C
100
AcDbDictionary
3
ACAD_GROUP
350
D
3
ACAD_MLINESTYLE
350
17
0
DICTIONARY
5
D
100
AcDbDictionary
0
DICTIONARY
5
1A
330
C
100
AcDbDictionary
0
DICTIONARY
5
17
100
AcDbDictionary
0
ENDSEC
0
EOF
