0
SECTION
2
HEADER
9
$INSUNITS
70
4
9
$ACADVER
1
AC1014
9
$HANDSEED
5
FFFF
0
ENDSEC
0
SECTION
2
TABLES
0
TABLE
2
VPORT
5
8
100
AcDbSymbolTable
0
ENDTAB
0
TABLE
2
LTYPE
5
5
100
AcDbSymbolTable
0
LTYPE
5
14
100
AcDbSymbolTableRecord
100
AcDbLinetypeTableRecord
2
BYBLOCK
70
0
0
LTYPE
5
15
100
AcDbSymbolTableRecord
100
AcDbLinetypeTableRecord
2
BYLAYER
70
0
0
ENDTAB
0
TABLE
2
LAYER
5
2
100
AcDbSymbolTable
70
2
0
LAYER
5
50
100
AcDbSymbolTableRecord
100
AcDbLayerTableRecord
2
0
70
0
6
CONTINUOUS
0
ENDTAB
0
TABLE
2
STYLE
5
3
100
AcDbSymbolTable
70
1
0
STYLE
5
11
100
AcDbSymbolTableRecord
100
AcDbTextStyleTableRecord
2
STANDARD
70
0
0
ENDTAB
0
TABLE
2
VIEW
5
6
100
AcDbSymbolTable
70
0
0
ENDTAB
0
TABLE
2
UCS
5
7
100
AcDbSymbolTable
70
0
0
ENDTAB
0
TABLE
2
APPID
5
9
100
AcDbSymbolTable
70
2
0
APPID
5
12
100
AcDbSymbolTableRecord
100
AcDbRegAppTableRecord
2
ACAD
70
0
0
ENDTAB
0
TABLE
2
DIMSTYLE
5
A
100
AcDbSymbolTable
70
1
0
ENDTAB
0
TABLE
2
BLOCK_RECORD
5
1
100
AcDbSymbolTable
70
1
0
BLOCK_RECORD
5
1F
100
AcDbSymbolTableRecord
100
AcDbBlockTableRecord
2
*MODEL_SPACE
0
BLOCK_RECORD
5
1B
100
AcDbSymbolTableRecord
100
AcDbBlockTableRecord
2
*PAPER_SPACE
0
ENDTAB
0
ENDSEC
0
SECTION
2
BLOCKS
0
BLOCK
5
20
100
AcDbEntity
100
AcDbBlockBegin
2
*MODEL_SPACE
0
ENDBLK
5
21
100
AcDbEntity
100
AcDbBlockEnd
0
BLOCK
5
1C
100
AcDbEntity
100
AcDbBlockBegin
2
*PAPER_SPACE
0
ENDBLK
5
1D
100
AcDbEntity
100
AcDbBlockEnd
0
ENDSEC
0
SECTION
2
ENTITIES
0
LWPOLYLINE
5
100
100
AcDbEntity
8
0
100
AcDbPolyline
90
20
70
1
43
0.0
10
-1266.5166303936344
20
-747.13481204027687
10
-1331.5166303935778
20
-747.13481204033656
10
-1331.5166303938529
20
-447.13481204033775
10
-1266.5166303939095
20
-447.13481204027806
10
-1266.5166303939227
20
-432.57481204027812
10
-1201.5166303939232
20
-432.57481204021849
10
-1201.5166303939097
20
-447.13481204021843
10
-1007.1731960504753
20
-447.13481204004006
10
-1007.1731960504885
20
-432.57481204004011
10
-942.1731960504892
20
-432.5748120399802
10
-942.17319605047578
20
-447.13481203998043
10
-877.17319605049386
20
-447.13481203992075
10
-877.17319605021885
20
-747.13481203991944
10
-942.17319605020077
20
-747.13481203997912
10
-942.17319605018747
20
-761.69481203997952
10
-1007.173196050187
20
-761.69481204003876
10
-1007.1731960502004
20
-747.13481204003881
10
-1201.5166303936348
20
-747.13481204021718
10
-1201.5166303936214
20
-761.69481204021713
10
-1266.516630393621
20
-761.6948120402767
0
LWPOLYLINE
5
101
100
AcDbEntity
8
0
100
AcDbPolyline
90
20
70
1
43
0.0
10
-1330.0011556734762
20
-839.87457112650463
10
-48.20115567358657
20
-659.80507617616831
10
-48.20115567354668
20
-724.8050761761682
10
-33.64115567354667
20
-724.80507617615922
10
-33.641155673506667
20
-789.80507617615922
10
-48.20115567350679
20
-789.8050761761682
10
-48.201155673359501
20
-1029.8050761761683
10
-33.64115567335962
20
-1029.8050761761592
10
-33.641155673319616
20
-1094.8050761761592
10
-48.201155673319619
20
-1094.8050761761683
10
-48.201155673279459
20
-1159.8050761761651
10
-1330.0011556732795
20
-1159.8050761767311
10
-1330.0011556732993
20
-1127.3050761767186
10
-1344.5611556732997
20
-1127.3050761767231
10
-1344.5611556733393
20
-1062.3050761767231
10
-1330.0011556733396
20
-1062.3050761767186
10
-1330.001155673416
20
-937.37457112650463
10
-1344.5611556734161
20
-937.37457112651396
10
-1344.5611556734559
20
-872.37457112651396
10
-1330.0011556734557
20
-872.37457112650463
0
LWPOLYLINE
5
102
100
AcDbEntity
8
0
100
AcDbPolyline
90
4
70
1
43
0.0
10
-1023.2011556734224
20
-926.77477314650423
10
-1005.0011556734222
20
-926.7747731464932
10
-1005.0011556734614
20
-861.7747731464932
10
-1023.2011556734618
20
-861.77477314650423
0
LWPOLYLINE
5
103
100
AcDbEntity
8
0
100
AcDbPolyline
90
4
70
1
43
0.0
10
-1023.2011556733208
20
-1094.8050761767577
10
-1005.0011556733205
20
-1094.8050761767465
10
-1005.0011556733598
20
-1029.8050761767465
10
-1023.2011556733602
20
-1029.8050761767577
0
LWPOLYLINE
5
104
100
AcDbEntity
8
0
100
AcDbPolyline
90
4
70
1
43
0.0
10
-680.00115567331807
20
-1094.8050761765503
10
-680.00115567335786
20
-1029.8050761765503
10
-698.20115567336052
20
-1029.8050761765612
10
-698.20115567332107
20
-1094.8050761765612
0
LWPOLYLINE
5
105
100
AcDbEntity
8
0
100
AcDbPolyline
90
4
70
1
43
0.0
10
-680.00115567344847
20
-881.11820748971456
10
-680.00115567348826
20
-816.11820748971456
10
-698.20115567348967
20
-816.11820748972559
10
-698.20115567345033
20
-881.11820748972548
0
LWPOLYLINE
5
106
100
AcDbEntity
8
0
100
AcDbPolyline
90
4
70
1
43
0.0
10
-355.00115567331881
20
-1094.8050761763539
10
-355.0011556733582
20
-1029.8050761763539
10
-373.20115567335876
20
-1029.8050761763648
10
-373.20115567331953
20
-1094.8050761763648
0
LWPOLYLINE
5
107
100
AcDbEntity
8
0
100
AcDbPolyline
90
4
70
1
43
0.0
10
-355.00115567347586
20
-835.46164183291819
10
-355.0011556735152
20
-770.46164183291819
10
-373.20115567351559
20
-770.46164183292922
10
-373.20115567347625
20
-835.46164183292922
0
LWPOLYLINE
5
108
100
AcDbEntity
8
0
100
AcDbPolyline
90
20
70
1
43
0.0
10
-48.20115567400137
20
-537.11323217380505
10
-1330.0011556739973
20
-357.04373722422963
10
-1330.0011556739969
20
-324.54373722422963
10
-1344.5611556739971
20
-324.54373722422895
10
-1344.5611556739957
20
-259.54373722422895
10
-1330.0011556739958
20
-259.54373722422963
10
-1330.0011556739933
20
-134.61323217401565
10
-1344.5611556739932
20
-134.61323217401986
10
-1344.5611556739918
20
-69.613232174019856
10
-1330.0011556739919
20
-69.613232174015593
10
-1330.0011556739914
20
-37.113232174003201
10
-48.201155673991423
20
-37.11323217380837
10
-48.201155673992737
20
-102.11323217380524
10
-33.641155673992742
20
-102.11323217380553
10
-33.641155673994163
20
-167.11323217380553
10
-48.201155673994045
20
-167.11323217380524
10
-48.201155673998876
20
-407.11323217380527
10
-33.641155673998767
20
-407.1132321738055
10
-33.641155674000188
20
-472.1132321738055
10
-48.201155674000177
20
-472.11323217380527
0
LWPOLYLINE
5
109
100
AcDbEntity
8
0
100
AcDbPolyline
90
4
70
1
43
0.0
10
-698.20115567399648
20
-315.80010086063373
10
-698.20115567399728
20
-380.80010086063373
10
-680.00115567399587
20
-380.8001008606339
10
-680.00115567399473
20
-315.8001008606339
0
LWPOLYLINE
5
110
100
AcDbEntity
8
0
100
AcDbPolyline
90
4
70
1
43
0.0
10
-698.20115567399421
20
-102.11323217379811
10
-698.201155673995
20
-167.11323217379811
10
-680.00115567399234
20
-167.11323217379828
10
-680.00115567399121
20
-102.11323217379828
0
LWPOLYLINE
5
111
100
AcDbEntity
8
0
100
AcDbPolyline
90
4
70
1
43
0.0
10
-1005.0011556739956
20
-270.14353520404813
10
-1023.2011556739958
20
-270.14353520404796
10
-1023.2011556739967
20
-335.14353520404796
10
-1005.0011556739963
20
-335.14353520404813
0
LWPOLYLINE
5
112
100
AcDbEntity
8
0
100
AcDbPolyline
90
4
70
1
43
0.0
10
-1005.0011556739937
20
-102.11323217379473
10
-1023.2011556739941
20
-102.11323217379456
10
-1023.2011556739949
20
-167.11323217379456
10
-1005.0011556739945
20
-167.11323217379473
0
LWPOLYLINE
5
113
100
AcDbEntity
8
0
100
AcDbPolyline
90
4
70
1
43
0.0
10
-373.20115567399256
20
-102.11323217380155
10
-373.2011556739933
20
-167.11323217380155
10
-355.00115567399268
20
-167.11323217380172
10
-355.00115567399189
20
-102.11323217380172
0
LWPOLYLINE
5
114
100
AcDbEntity
8
0
100
AcDbPolyline
90
4
70
1
43
0.0
10
-373.20115567399546
20
-361.45666651723718
10
-373.2011556739962
20
-426.45666651723718
10
-355.00115567399581
20
-426.45666651723735
10
-355.00115567399507
20
-361.45666651723735
0
LWPOLYLINE
5
115
100
AcDbEntity
8
0
100
AcDbPolyline
90
4
70
1
43
0.0
10
-1508.1958042788974
20
-70.971906831404326
10
-1443.1958042788974
20
-70.971906831404397
10
-1443.1958042788974
20
-52.771906831404394
10
-1508.1958042788974
20
-52.771906831404323
0
LWPOLYLINE
5
116
100
AcDbEntity
8
0
100
AcDbPolyline
90
4
70
1
43
0.0
10
-1813.1958042788974
20
-70.971906831403999
10
-1748.1958042788974
20
-70.971906831404084
10
-1748.1958042788972
20
-52.771906831404074
10
-1813.1958042788972
20
-52.771906831404003
0
LWPOLYLINE
5
117
100
AcDbEntity
8
0
100
AcDbPolyline
90
4
70
1
43
0.0
10
-1508.1958042788979
20
-389.17190683140433
10
-1443.1958042788979
20
-389.17190683140439
10
-1443.1958042788979
20
-370.9719068314044
10
-1508.1958042788979
20
-370.97190683140434
0
LWPOLYLINE
5
118
100
AcDbEntity
8
0
100
AcDbPolyline
90
4
70
1
43
0.0
10
-1813.1958042788979
20
-389.17190683140399
10
-1748.1958042788979
20
-389.17190683140404
10
-1748.1958042788979
20
-370.97190683140406
10
-1813.1958042788979
20
-370.971906831404
0
LWPOLYLINE
5
119
100
AcDbEntity
8
0
100
AcDbPolyline
90
8
70
1
43
0.0
10
-1878.1958042788974
20
-47.571906831403929
42
-0.41421356237309481
10
-1865.1958042788974
20
-34.571906831403936
10
-1391.1958042788976
20
-34.57190683140432
42
-0.41421356237309503
10
-1378.1958042788974
20
-47.571906831404434
10
-1378.1958042788979
20
-394.37190683140443
42
-0.41421356237309503
10
-1391.1958042788979
20
-407.37190683140449
10
-1865.1958042788976
20
-407.37190683140403
42
-0.41421356237309503
10
-1878.1958042788979
20
-394.37190683140392
0
LWPOLYLINE
5
120
100
AcDbEntity
8
0
100
AcDbPolyline
90
20
70
1
43
0.0
10
-1385.0578617135752
20
-759.99053279255645
10
-1450.0578617135748
20
-759.99053279261602
10
-1450.0578617135614
20
-774.55053279261608
10
-1515.0578617135614
20
-774.55053279267554
10
-1515.0578617135748
20
-759.99053279267559
10
-1663.7447304004104
20
-759.99053279281179
10
-1663.744730400397
20
-774.55053279281185
10
-1728.744730400397
20
-774.55053279287142
10
-1728.7447304004104
20
-759.99053279287136
10
-1793.7447304003013
20
-759.99053279293105
10
-1793.7447304005764
20
-459.99053279293105
10
-1728.7447304006855
20
-459.99053279287148
10
-1728.7447304006987
20
-445.43053279287153
10
-1663.7447304006987
20
-445.4305327928119
10
-1663.7447304006855
20
-459.99053279281185
10
-1515.0578617138499
20
-459.99053279267559
10
-1515.0578617138631
20
-445.43053279267559
10
-1450.0578617138631
20
-445.43053279261596
10
-1450.0578617138499
20
-459.99053279261602
10
-1385.0578617138503
20
-459.99053279255645
0
LWPOLYLINE
5
121
100
AcDbEntity
8
0
100
AcDbPolyline
90
20
70
1
43
0.0
10
-1719.0168923816043
20
-1145.2450761761368
10
-1784.0168923814422
20
-1145.2450761761368
10
-1784.0168923814419
20
-845.24507617613676
10
-1719.0168923816041
20
-845.24507617613699
10
-1719.0168923816041
20
-830.68507617613693
10
-1654.0168923816041
20
-830.68507617613693
10
-1654.0168923816041
20
-845.24507617613699
10
-1550.9865893513506
20
-845.2450761761371
10
-1550.9865893513506
20
-830.68507617613727
10
-1485.9865893513506
20
-830.68507617613704
10
-1485.9865893513506
20
-845.2450761761371
10
-1420.9865893513515
20
-845.24507617613722
10
-1420.9865893513518
20
-1145.2450761761372
10
-1485.9865893513509
20
-1145.245076176137
10
-1485.9865893513509
20
-1159.8050761761372
10
-1550.9865893513509
20
-1159.8050761761369
10
-1550.9865893513509
20
-1145.245076176137
10
-1654.0168923816043
20
-1145.245076176137
10
-1654.0168923816043
20
-1159.8050761761369
10
-1719.0168923816043
20
-1159.8050761761369
0
LWPOLYLINE
5
122
100
AcDbEntity
8
0
100
AcDbPolyline
90
4
70
1
43
0.0
10
-2203.3847882377117
20
-370.97190683111813
10
-2203.384788237714
20
-389.17190683111812
10
-2138.384788237714
20
-389.17190683112671
10
-2138.3847882377117
20
-370.97190683112672
0
LWPOLYLINE
5
123
100
AcDbEntity
8
0
100
AcDbPolyline
90
4
70
1
43
0.0
10
-1948.4542831874558
20
-52.771906831151767
10
-2013.4542831874558
20
-52.771906831143191
10
-2013.454283187458
20
-70.971906831143187
10
-1948.454283187458
20
-70.97190683115177
0
LWPOLYLINE
5
124
100
AcDbEntity
8
0
100
AcDbPolyline
90
4
70
1
43
0.0
10
-2138.3847882376695
20
-52.771906831126699
10
-2203.3847882376695
20
-52.771906831118116
10
-2203.3847882376722
20
-70.971906831118119
10
-2138.3847882376722
20
-70.971906831126702
0
LWPOLYLINE
5
125
100
AcDbEntity
8
0
100
AcDbPolyline
90
8
70
1
43
0.0
10
-2235.8847882376817
20
-47.571906831113829
42
-0.41421356237309481
10
-2222.8847882376799
20
-34.571906831115548
10
-1928.9542831874533
20
-34.571906831154223
42
-0.41421356237309626
10
-1915.9542831874548
20
-47.571906831156099
10
-1915.9542831875006
20
-394.37190683115614
42
-0.41421356237309181
10
-1928.9542831875024
20
-407.37190683115432
10
-2222.884788237729
20
-407.37190683111567
42
-0.41421356237309503
10
-2235.8847882377272
20
-394.37190683111385
0
LWPOLYLINE
5
126
100
AcDbEntity
8
0
100
AcDbPolyline
90
4
70
1
43
0.0
10
-2013.4542831875001
20
-389.17190683114319
10
-1948.4542831875001
20
-389.17190683115177
10
-1948.4542831874978
20
-370.97190683115178
10
-2013.4542831874978
20
-370.9719068311432
0
ENDSEC
0
SECTION
2
OBJECTS
0
DICTIONARY
5
C
100
AcDbDictionary
3
ACAD_GROUP
350
D
3
ACAD_MLINESTYLE
350
17
0
DICTIONARY
5
D
100
AcDbDictionary
0
DICTIONARY
5
1A
330
C
100
AcDbDictionary
0
DICTIONARY
5
17
100
AcDbDictionary
0
ENDSEC
0
EOF
