0
SECTION
2
HEADER
9
$INSUNITS
70
4
9
$ACADVER
1
AC1014
9
$HANDSEED
5
FFFF
0
ENDSEC
0
SECTION
2
TABLES
0
TABLE
2
VPORT
5
8
100
AcDbSymbolTable
0
ENDTAB
0
TABLE
2
LTYPE
5
5
100
AcDbSymbolTable
70
2
0
LTYPE
5
14
100
AcDbSymbolTableRecord
100
AcDbLinetypeTableRecord
2
BYBLOCK
70
0
0
LTYPE
5
15
100
AcDbSymbolTableRecord
100
AcDbLinetypeTableRecord
2
BYLAYER
70
0
0
ENDTAB
0
TABLE
2
LAYER
5
2
100
AcDbSymbolTable
70
3
0
LAYER
5
50
100
AcDbSymbolTableRecord
100
AcDbLayerTableRecord
2
0
70
0
6
CONTINUOUS
0
LAYER
5
51
100
AcDbSymbolTableRecord
100
AcDbLayerTableRecord
2
CUTOUTS
70
0
62
1
6
CONTINUOUS
0
LAYER
5
52
100
AcDbSymbolTableRecord
100
AcDbLayerTableRecord
2
PERIMETER
70
0
62
5
6
CONTINUOUS
0
ENDTAB
0
TABLE
2
STYLE
5
3
100
AcDbSymbolTable
70
1
0
STYLE
5
11
100
AcDbSymbolTableRecord
100
AcDbTextStyleTableRecord
2
STANDARD
70
0
0
ENDTAB
0
TABLE
2
VIEW
5
6
100
AcDbSymbolTable
0
ENDTAB
0
TABLE
2
UCS
5
7
100
AcDbSymbolTable
0
ENDTAB
0
TABLE
2
APPID
5
9
100
AcDbSymbolTable
70
1
0
APPID
5
12
100
AcDbSymbolTableRecord
100
AcDbRegAppTableRecord
2
ACAD
70
0
0
ENDTAB
0
TABLE
2
DIMSTYLE
5
A
100
AcDbSymbolTable
0
ENDTAB
0
TABLE
2
BLOCK_RECORD
5
1
100
AcDbSymbolTable
70
2
0
BLOCK_RECORD
5
1F
100
AcDbSymbolTableRecord
100
AcDbBlockTableRecord
2
*MODEL_SPACE
0
BLOCK_RECORD
5
1B
100
AcDbSymbolTableRecord
100
AcDbBlockTableRecord
2
*PAPER_SPACE
0
ENDTAB
0
ENDSEC
0
SECTION
2
BLOCKS
0
BLOCK
5
20
100
AcDbEntity
100
AcDbBlockBegin
2
*MODEL_SPACE
0
ENDBLK
5
21
100
AcDbEntity
100
AcDbBlockEnd
0
BLOCK
5
1C
100
AcDbEntity
100
AcDbBlockBegin
2
*PAPER_SPACE
0
ENDBLK
5
1D
100
AcDbEntity
100
AcDbBlockEnd
0
ENDSEC
0
SECTION
2
ENTITIES
0
LINE
5
100
100
AcDbEntity
8
CUTOUTS
100
AcDbLine
10
45.400057102433919
20
5.0800063055197953
30
0
11
45.400057102433834
21
14.930018903960873
31
0
0
LINE
5
101
100
AcDbEntity
8
CUTOUTS
100
AcDbLine
10
45.400057102433919
20
14.93001890396088
30
0
11
49.850062897716981
21
14.930018903960869
31
-1.8343192173997534e-33
0
LINE
5
102
100
AcDbEntity
8
CUTOUTS
100
AcDbLine
10
49.850062897716896
20
14.930018903960862
30
0
11
49.850062897716825
21
5.0800063055197864
31
0
0
LINE
5
103
100
AcDbEntity
8
CUTOUTS
100
AcDbLine
10
49.850062897716896
20
5.0800063055197864
30
0
11
45.400057102433991
21
5.0800063055197953
31
-5.0576027444783112e-33
0
LINE
5
104
100
AcDbEntity
8
CUTOUTS
100
AcDbLine
10
-76.900096787523751
20
-5.070006292921283
30
0
11
-76.90009678752368
21
-14.920018891362359
31
0
0
LINE
5
105
100
AcDbEntity
8
CUTOUTS
100
AcDbLine
10
-76.900096787523751
20
-14.920018891362368
30
0
11
-81.350102582806656
21
-14.920018891362377
31
1.4367826453669887e-33
0
LINE
5
106
100
AcDbEntity
8
CUTOUTS
100
AcDbLine
10
-81.350102582806585
20
-14.920018891362368
30
0
11
-81.350102582806528
21
-5.0700062929213141
31
0
0
LINE
5
107
100
AcDbEntity
8
CUTOUTS
100
AcDbLine
10
-81.350102582806585
20
-5.0700062929213185
30
0
11
-76.900096787523779
21
-5.0700062929212875
31
-2.0985147832765476e-31
0
LINE
5
108
100
AcDbEntity
8
CUTOUTS
100
AcDbLine
10
-81.350102582806727
20
5.0800063055197686
30
0
11
-81.35010258280667
21
14.93001890396085
31
0
0
LINE
5
109
100
AcDbEntity
8
CUTOUTS
100
AcDbLine
10
-81.350102582806585
20
14.930018903960853
30
1.7763568394002505e-14
11
-76.900096787523637
21
14.930018903960857
31
1.7763568394002505e-14
0
LINE
5
10A
100
AcDbEntity
8
CUTOUTS
100
AcDbLine
10
-76.900096787523751
20
14.930018903960862
30
1.7763568394002505e-14
11
-76.900096787523822
21
5.0800063055197864
31
1.7763568394002505e-14
0
LINE
5
10B
100
AcDbEntity
8
CUTOUTS
100
AcDbLine
10
-76.900096787523751
20
5.0800063055197864
30
0
11
-81.35010258280667
21
5.0800063055197775
31
1.436782663303609e-33
0
LINE
5
10C
100
AcDbEntity
8
CUTOUTS
100
AcDbLine
10
49.850062897717038
20
-5.070006292921283
30
0
11
49.850062897717002
21
-14.920018891362341
31
0
0
LINE
5
10D
100
AcDbEntity
8
CUTOUTS
100
AcDbLine
10
49.850062897716896
20
-14.92001889136235
30
-1.7763568394002505e-14
11
45.400057102434026
21
-14.92001889136235
31
-1.7763568394002505e-14
0
LINE
5
10E
100
AcDbEntity
8
CUTOUTS
100
AcDbLine
10
45.400057102434062
20
-14.920018891362332
30
-1.7763568394002505e-14
11
45.400057102434076
21
-5.070006292921283
31
-1.7763568394002505e-14
0
LINE
5
10F
100
AcDbEntity
8
CUTOUTS
100
AcDbLine
10
45.400057102434062
20
-5.0700062929212919
30
0
11
49.850062897716953
21
-5.070006292921283
31
-4.3284509013788528e-31
0
LINE
5
110
100
AcDbEntity
8
PERIMETER
100
AcDbLine
10
-118.57014928522759
20
30.150037889811561
30
0
11
-118.57014928522757
21
25.55003209452866
31
0
0
LINE
5
111
100
AcDbEntity
8
PERIMETER
100
AcDbLine
10
-118.57014928522759
20
25.550032094528667
30
0
11
-128.42016188366864
21
25.55003209452866
31
-3.9305770143401082e-32
0
LINE
5
112
100
AcDbEntity
8
PERIMETER
100
AcDbLine
10
-128.42016188366864
20
25.55003209452865
30
0
11
-128.42016188366875
21
30.150037889811543
31
0
0
LINE
5
113
100
AcDbEntity
8
PERIMETER
100
AcDbLine
10
-128.42016188366875
20
30.150037889811543
30
0
11
-150.15018907110453
21
30.150037889811546
31
1.048108028028591e-31
0
LINE
5
114
100
AcDbEntity
8
PERIMETER
100
AcDbLine
10
-150.15018907110459
20
30.150037889811543
30
0
11
-150.15018907110459
21
14.930018903960839
31
0
0
LINE
5
115
100
AcDbEntity
8
PERIMETER
100
AcDbLine
10
-150.15018907110453
20
14.930018903960844
30
0
11
-145.65018340180612
21
14.93001890396085
31
-6.1182270433272329e-33
0
LINE
5
116
100
AcDbEntity
8
PERIMETER
100
AcDbLine
10
-145.65018340180615
20
14.930018903960853
30
0
11
-145.65018340180603
21
5.080006305519797
31
0
0
LINE
5
117
100
AcDbEntity
8
PERIMETER
100
AcDbLine
10
-145.65018340180609
20
5.0800063055197953
30
0
11
-150.15018907110456
21
5.0800063055197686
31
1.8785363951425389e-30
0
LINE
5
118
100
AcDbEntity
8
PERIMETER
100
AcDbLine
10
-150.15018907110453
20
5.0800063055197597
30
0
11
-150.15018907110456
21
-5.0700062929213141
31
0
0
LINE
5
119
100
AcDbEntity
8
PERIMETER
100
AcDbLine
10
-150.15018907110459
20
-5.0700062929213185
30
0
11
-145.65018340180617
21
-5.0700062929213052
31
-9.3654198108931952e-33
0
LINE
5
11A
100
AcDbEntity
8
PERIMETER
100
AcDbLine
10
-145.65018340180615
20
-5.0700062929212919
30
0
11
-145.65018340180606
21
-14.920018891362368
31
0
0
LINE
5
11B
100
AcDbEntity
8
PERIMETER
100
AcDbLine
10
-145.65018340180609
20
-14.920018891362368
30
0
11
-150.15018907110456
21
-14.920018891362368
31
-1.0912808659687078e-32
0
LINE
5
11C
100
AcDbEntity
8
PERIMETER
100
AcDbLine
10
-150.15018907110453
20
-14.920018891362368
30
0
11
-150.15018907110459
21
-30.150037889811514
31
0
0
LINE
5
11D
100
AcDbEntity
8
PERIMETER
100
AcDbLine
10
-150.15018907110459
20
-30.150037889811507
30
0
11
-128.42016188366873
21
-30.1500378898115
31
5.9800243063082443e-32
0
LINE
5
11E
100
AcDbEntity
8
PERIMETER
100
AcDbLine
10
-128.42016188366875
20
-30.150037889811507
30
1.7763568394002505e-14
11
-128.42016188366873
21
-25.550032094528625
31
1.7763568394002505e-14
0
LINE
5
11F
100
AcDbEntity
8
PERIMETER
100
AcDbLine
10
-128.42016188366875
20
-25.550032094528632
30
0
11
-118.57014928522779
21
-25.550032094528614
31
-2.9973739584094379e-31
0
LINE
5
120
100
AcDbEntity
8
PERIMETER
100
AcDbLine
10
-118.57014928522773
20
-25.550032094528614
30
1.7763568394002505e-14
11
-118.57014928522766
21
-30.150037889811507
31
1.7763568394002505e-14
0
LINE
5
121
100
AcDbEntity
8
PERIMETER
100
AcDbLine
10
-118.57014928522766
20
-30.150037889811507
30
1.7763568394002505e-14
11
-108.42013668678653
21
-30.1500378898115
31
1.7763568394002505e-14
0
LINE
5
122
100
AcDbEntity
8
PERIMETER
100
AcDbLine
10
-108.42013668678653
20
-30.150037889811507
30
1.7763568394002505e-14
11
-108.42013668678655
21
-25.550032094528625
31
1.7763568394002505e-14
0
LINE
5
123
100
AcDbEntity
8
PERIMETER
100
AcDbLine
10
-108.42013668678661
20
-25.550032094528614
30
1.7763568394002505e-14
11
-98.570124088345622
21
-25.550032094528639
31
1.7763568394002505e-14
0
LINE
5
124
100
AcDbEntity
8
PERIMETER
100
AcDbLine
10
-98.570124088345636
20
-25.550032094528632
30
1.7763568394002505e-14
11
-98.570124088345636
21
-30.150037889811514
31
1.7763568394002505e-14
0
LINE
5
125
100
AcDbEntity
8
PERIMETER
100
AcDbLine
10
-98.570124088345636
20
-30.150037889811507
30
1.7763568394002505e-14
11
150.15018907110434
21
-30.15003788981149
31
1.7763568394002508e-14
0
LINE
5
126
100
AcDbEntity
8
PERIMETER
100
AcDbLine
10
150.15018907110431
20
-30.15003788981149
30
0
11
150.15018907110428
21
30.150037889811536
31
0
0
LINE
5
127
100
AcDbEntity
8
PERIMETER
100
AcDbLine
10
150.15018907110431
20
30.150037889811525
30
0
11
-98.570124088345494
21
30.150037889811543
31
-7.5939299953419649e-31
0
LINE
5
128
100
AcDbEntity
8
PERIMETER
100
AcDbLine
10
-98.570124088345494
20
30.150037889811536
30
0
11
-98.570124088345494
21
25.550032094528632
31
0
0
LINE
5
129
100
AcDbEntity
8
PERIMETER
100
AcDbLine
10
-98.570124088345494
20
25.550032094528632
30
0
11
-108.42013668678669
21
25.550032094528653
31
-9.5119712256959319e-33
0
LINE
5
12A
100
AcDbEntity
8
PERIMETER
100
AcDbLine
10
-108.42013668678661
20
25.55003209452865
30
0
11
-108.42013668678653
21
30.15003788981155
31
0
0
LINE
5
12B
100
AcDbEntity
8
PERIMETER
100
AcDbLine
10
-108.42013668678653
20
30.15003788981155
30
0
11
-118.57014928522759
21
30.15003788981155
31
-6.0942424331611456e-32
0
ENDSEC
0
SECTION
2
OBJECTS
0
DICTIONARY
5
C
100
AcDbDictionary
3
ACAD_GROUP
350
D
3
ACAD_MLINESTYLE
350
17
0
DICTIONARY
5
D
100
AcDbDictionary
0
DICTIONARY
5
1A
330
C
100
AcDbDictionary
0
DICTIONARY
5
17
100
AcDbDictionary
0
ENDSEC
0
EOF
