  0
SECTION
  2
HEADER
  9
$ACADVER
  1
AC1024
  9
$ACADMAINTVER
 70
     6
  9
$DWGCODEPAGE
  3
ANSI_1252
  9
$INSBASE
 10
0.0
 20
0.0
 30
0.0
  9
$EXTMIN
 10
1.000000000000000E+20
 20
1.000000000000000E+20
 30
1.000000000000000E+20
  9
$EXTMAX
 10
-1.000000000000000E+20
 20
-1.000000000000000E+20
 30
-1.000000000000000E+20
  9
$LIMMIN
 10
0.0
 20
0.0
  9
$LIMMAX
 10
12.0
 20
9.0
  9
$ORTHOMODE
 70
     0
  9
$REGENMODE
 70
     1
  9
$FILLMODE
 70
     1
  9
$QTEXTMODE
 70
     0
  9
$MIRRTEXT
 70
     1
  9
$LTSCALE
 40
1.0
  9
$ATTMODE
 70
     1
  9
$TEXTSIZE
 40
0.2
  9
$TRACEWID
 40
0.05
  9
$TEXTSTYLE
  7
Standard
  9
$CLAYER
  8
0
  9
$CELTYPE
  6
ByLayer
  9
$CECOLOR
 62
   256
  9
$CELTSCALE
 40
1.0
  9
$DISPSILH
 70
     0
  9
$DIMSCALE
 40
1.0
  9
$DIMASZ
 40
0.18
  9
$DIMEXO
 40
0.0625
  9
$DIMDLI
 40
0.38
  9
$DIMRND
 40
0.0
  9
$DIMDLE
 40
0.0
  9
$DIMEXE
 40
0.18
  9
$DIMTP
 40
0.0
  9
$DIMTM
 40
0.0
  9
$DIMTXT
 40
0.18
  9
$DIMCEN
 40
0.09
  9
$DIMTSZ
 40
0.0
  9
$DIMTOL
 70
     0
  9
$DIMLIM
 70
     0
  9
$DIMTIH
 70
     1
  9
$DIMTOH
 70
     1
  9
$DIMSE1
 70
     0
  9
$DIMSE2
 70
     0
  9
$DIMTAD
 70
     0
  9
$DIMZIN
 70
     0
  9
$DIMBLK
  1

  9
$DIMASO
 70
     1
  9
$DIMSHO
 70
     1
  9
$DIMPOST
  1

  9
$DIMAPOST
  1

  9
$DIMALT
 70
     0
  9
$DIMALTD
 70
     2
  9
$DIMALTF
 40
25.4
  9
$DIMLFAC
 40
1.0
  9
$DIMTOFL
 70
     0
  9
$DIMTVP
 40
0.0
  9
$DIMTIX
 70
     0
  9
$DIMSOXD
 70
     0
  9
$DIMSAH
 70
     0
  9
$DIMBLK1
  1

  9
$DIMBLK2
  1

  9
$DIMSTYLE
  2
Standard
  9
$DIMCLRD
 70
     0
  9
$DIMCLRE
 70
     0
  9
$DIMCLRT
 70
     0
  9
$DIMTFAC
 40
1.0
  9
$DIMGAP
 40
0.09
  9
$DIMJUST
 70
     0
  9
$DIMSD1
 70
     0
  9
$DIMSD2
 70
     0
  9
$DIMTOLJ
 70
     1
  9
$DIMTZIN
 70
     0
  9
$DIMALTZ
 70
     0
  9
$DIMALTTZ
 70
     0
  9
$DIMUPT
 70
     0
  9
$DIMDEC
 70
     4
  9
$DIMTDEC
 70
     4
  9
$DIMALTU
 70
     2
  9
$DIMALTTD
 70
     2
  9
$DIMTXSTY
  7
Standard
  9
$DIMAUNIT
 70
     0
  9
$DIMADEC
 70
     0
  9
$DIMALTRND
 40
0.0
  9
$DIMAZIN
 70
     0
  9
$DIMDSEP
 70
    46
  9
$DIMATFIT
 70
     3
  9
$DIMFRAC
 70
     0
  9
$DIMLDRBLK
  1

  9
$DIMLUNIT
 70
     2
  9
$DIMLWD
 70
    -2
  9
$DIMLWE
 70
    -2
  9
$DIMTMOVE
 70
     0
  9
$DIMFXL
 40
1.0
  9
$DIMFXLON
 70
     0
  9
$DIMJOGANG
 40
0.7853981633974483
  9
$DIMTFILL
 70
     0
  9
$DIMTFILLCLR
 70
     0
  9
$DIMARCSYM
 70
     0
  9
$DIMLTYPE
  6

  9
$DIMLTEX1
  6

  9
$DIMLTEX2
  6

  9
$DIMTXTDIRECTION
 70
     0
  9
$LUNITS
 70
     2
  9
$LUPREC
 70
     4
  9
$SKETCHINC
 40
0.1
  9
$FILLETRAD
 40
0.5
  9
$AUNITS
 70
     0
  9
$AUPREC
 70
     0
  9
$MENU
  1
.
  9
$ELEVATION
 40
0.0
  9
$PELEVATION
 40
0.0
  9
$THICKNESS
 40
0.0
  9
$LIMCHECK
 70
     0
  9
$CHAMFERA
 40
0.5
  9
$CHAMFERB
 40
0.5
  9
$CHAMFERC
 40
1.0
  9
$CHAMFERD
 40
0.0
  9
$SKPOLY
 70
     0
  9
$TDCREATE
 40
2459260.977903842
  9
$TDUCREATE
 40
2459260.936237176
  9
$TDUPDATE
 40
2459260.977903889
  9
$TDUUPDATE
 40
2459260.936237222
  9
$TDINDWG
 40
0.0000000116
  9
$TDUSRTIMER
 40
0.0000000116
  9
$USRTIMER
 70
     1
  9
$ANGBASE
 50
0.0
  9
$ANGDIR
 70
     0
  9
$PDMODE
 70
     0
  9
$PDSIZE
 40
0.0
  9
$PLINEWID
 40
0.0
  9
$SPLFRAME
 70
     0
  9
$SPLINETYPE
 70
     6
  9
$SPLINESEGS
 70
     8
  9
$HANDSEED
  5
97
  9
$SURFTAB1
 70
     6
  9
$SURFTAB2
 70
     6
  9
$SURFTYPE
 70
     6
  9
$SURFU
 70
     6
  9
$SURFV
 70
     6
  9
$UCSBASE
  2

  9
$UCSNAME
  2

  9
$UCSORG
 10
0.0
 20
0.0
 30
0.0
  9
$UCSXDIR
 10
1.0
 20
0.0
 30
0.0
  9
$UCSYDIR
 10
0.0
 20
1.0
 30
0.0
  9
$UCSORTHOREF
  2

  9
$UCSORTHOVIEW
 70
     0
  9
$UCSORGTOP
 10
0.0
 20
0.0
 30
0.0
  9
$UCSORGBOTTOM
 10
0.0
 20
0.0
 30
0.0
  9
$UCSORGLEFT
 10
0.0
 20
0.0
 30
0.0
  9
$UCSORGRIGHT
 10
0.0
 20
0.0
 30
0.0
  9
$UCSORGFRONT
 10
0.0
 20
0.0
 30
0.0
  9
$UCSORGBACK
 10
0.0
 20
0.0
 30
0.0
  9
$PUCSBASE
  2

  9
$PUCSNAME
  2

  9
$PUCSORG
 10
0.0
 20
0.0
 30
0.0
  9
$PUCSXDIR
 10
1.0
 20
0.0
 30
0.0
  9
$PUCSYDIR
 10
0.0
 20
1.0
 30
0.0
  9
$PUCSORTHOREF
  2

  9
$PUCSORTHOVIEW
 70
     0
  9
$PUCSORGTOP
 10
0.0
 20
0.0
 30
0.0
  9
$PUCSORGBOTTOM
 10
0.0
 20
0.0
 30
0.0
  9
$PUCSORGLEFT
 10
0.0
 20
0.0
 30
0.0
  9
$PUCSORGRIGHT
 10
0.0
 20
0.0
 30
0.0
  9
$PUCSORGFRONT
 10
0.0
 20
0.0
 30
0.0
  9
$PUCSORGBACK
 10
0.0
 20
0.0
 30
0.0
  9
$USERI1
 70
     0
  9
$USERI2
 70
     0
  9
$USERI3
 70
     0
  9
$USERI4
 70
     0
  9
$USERI5
 70
     0
  9
$USERR1
 40
0.0
  9
$USERR2
 40
0.0
  9
$USERR3
 40
0.0
  9
$USERR4
 40
0.0
  9
$USERR5
 40
0.0
  9
$WORLDVIEW
 70
     1
  9
$SHADEDGE
 70
     3
  9
$SHADEDIF
 70
    70
  9
$TILEMODE
 70
     1
  9
$MAXACTVP
 70
    64
  9
$PINSBASE
 10
0.0
 20
0.0
 30
0.0
  9
$PLIMCHECK
 70
     0
  9
$PEXTMIN
 10
1.000000000000000E+20
 20
1.000000000000000E+20
 30
1.000000000000000E+20
  9
$PEXTMAX
 10
-1.000000000000000E+20
 20
-1.000000000000000E+20
 30
-1.000000000000000E+20
  9
$PLIMMIN
 10
0.0
 20
0.0
  9
$PLIMMAX
 10
12.0
 20
9.0
  9
$UNITMODE
 70
     0
  9
$VISRETAIN
 70
     1
  9
$PLINEGEN
 70
     0
  9
$PSLTSCALE
 70
     1
  9
$TREEDEPTH
 70
  3020
  9
$CMLSTYLE
  2
Standard
  9
$CMLJUST
 70
     0
  9
$CMLSCALE
 40
1.0
  9
$PROXYGRAPHICS
 70
     1
  9
$MEASUREMENT
 70
     0
  9
$CELWEIGHT
370
    -1
  9
$ENDCAPS
280
     0
  9
$JOINSTYLE
280
     0
  9
$LWDISPLAY
290
     1
  9
$INSUNITS
 70
     1
  9
$HYPERLINKBASE
  1

  9
$STYLESHEET
  1

  9
$XEDIT
290
     1
  9
$CEPSNTYPE
380
     0
  9
$PSTYLEMODE
290
     1
  9
$FINGERPRINTGUID
  2
{5623850A-A468-46B5-B613-3653B7EFB856}
  9
$VERSIONGUID
  2
{FAEB1C32-E019-11D5-929B-00C0DF256EC4}
  9
$EXTNAMES
290
     1
  9
$PSVPSCALE
 40
0.0
  9
$OLESTARTUP
290
     0
  9
$SORTENTS
280
   127
  9
$INDEXCTL
280
     0
  9
$HIDETEXT
280
     1
  9
$XCLIPFRAME
280
     2
  9
$HALOGAP
280
     0
  9
$OBSCOLOR
 70
   257
  9
$OBSLTYPE
280
     0
  9
$INTERSECTIONDISPLAY
280
     0
  9
$INTERSECTIONCOLOR
 70
   257
  9
$DIMASSOC
280
     2
  9
$PROJECTNAME
  1

  9
$CAMERADISPLAY
290
     0
  9
$LENSLENGTH
 40
50.0
  9
$CAMERAHEIGHT
 40
0.0
  9
$STEPSPERSEC
 40
2.0
  9
$STEPSIZE
 40
6.0
  9
$3DDWFPREC
 40
2.0
  9
$PSOLWIDTH
 40
0.25
  9
$PSOLHEIGHT
 40
4.0
  9
$LOFTANG1
 40
1.570796326794897
  9
$LOFTANG2
 40
1.570796326794897
  9
$LOFTMAG1
 40
0.0
  9
$LOFTMAG2
 40
0.0
  9
$LOFTPARAM
 70
     7
  9
$LOFTNORMALS
280
     1
  9
$LATITUDE
 40
37.795
  9
$LONGITUDE
 40
-122.394
  9
$NORTHDIRECTION
 40
0.0
  9
$TIMEZONE
 70
 -8000
  9
$LIGHTGLYPHDISPLAY
280
     1
  9
$TILEMODELIGHTSYNCH
280
     1
  9
$CMATERIAL
347
3C
  9
$SOLIDHIST
280
     1
  9
$SHOWHIST
280
     1
  9
$DWFFRAME
280
     2
  9
$DGNFRAME
280
     2
  9
$REALWORLDSCALE
290
     1
  9
$INTERFERECOLOR
 62
   256
  9
$CSHADOW
280
     0
  9
$SHADOWPLANELOCATION
 40
0.0
  0
ENDSEC
  0
SECTION
  2
CLASSES
  0
CLASS
  1
ACDBDICTIONARYWDFLT
  2
AcDbDictionaryWithDefault
  3
ObjectDBX Classes
 90
        0
 91
        4
280
     0
281
     0
  0
CLASS
  1
VISUALSTYLE
  2
AcDbVisualStyle
  3
ObjectDBX Classes
 90
     4095
 91
        4
280
     0
281
     0
  0
CLASS
  1
MATERIAL
  2
AcDbMaterial
  3
ObjectDBX Classes
 90
     1153
 91
        4
280
     0
281
     0
  0
CLASS
  1
SUN
  2
AcDbSun
  3
SCENEOE
 90
     1024
 91
        4
280
     0
281
     0
  0
ENDSEC
  0
SECTION
  2
TABLES
  0
TABLE
  2
VPORT
  5
8
330
0
100
AcDbSymbolTable
 70
     1
  0
VPORT
  5
29
330
8
100
AcDbSymbolTableRecord
100
AcDbViewportTableRecord
  2
*Active
 70
     0
 10
0.0
 20
0.0
 11
1.0
 21
1.0
 12
0.0
 22
0.0
 13
0.0
 23
0.0
 14
0.5
 24
0.5
 15
0.5
 25
0.5
 16
0.0
 26
0.0
 36
1.0
 17
105.0007777515277
 27
148.5000416295417
 37
0.0
 40
297.0000832590835
 41
0.7070757462376325
 42
50.0
 43
0.0
 44
0.0
 50
0.0
 51
0.0
 71
     0
 72
   100
 73
     1
 74
     3
 75
     0
 76
     0
 77
     0
 78
     0
281
     0
 65
     1
110
0.0
120
0.0
130
0.0
111
1.0
121
0.0
131
0.0
112
0.0
122
1.0
132
0.0
 79
     0
146
0.0
 60
     3
 61
     5
292
     1
282
     1
141
0.0
142
0.0
 63
   250
361
3F
  0
ENDTAB
  0
TABLE
  2
LTYPE
  5
5
330
0
100
AcDbSymbolTable
 70
     1
  0
LTYPE
  5
14
330
5
100
AcDbSymbolTableRecord
100
AcDbLinetypeTableRecord
  2
ByBlock
 70
     0
  3

 72
    65
 73
     0
 40
0.0
  0
LTYPE
  5
15
330
5
100
AcDbSymbolTableRecord
100
AcDbLinetypeTableRecord
  2
ByLayer
 70
     0
  3

 72
    65
 73
     0
 40
0.0
  0
LTYPE
  5
16
330
5
100
AcDbSymbolTableRecord
100
AcDbLinetypeTableRecord
  2
Continuous
 70
     0
  3
Solid line
 72
    65
 73
     0
 40
0.0
  0
ENDTAB
  0
TABLE
  2
LAYER
  5
2
330
0
100
AcDbSymbolTable
 70
     2
  0
LAYER
  5
10
330
2
100
AcDbSymbolTableRecord
100
AcDbLayerTableRecord
  2
0
 70
     0
 62
     7
  6
Continuous
370
    -3
390
F
347
3E
  0
LAYER
  5
40
330
2
100
AcDbSymbolTableRecord
100
AcDbLayerTableRecord
  2
Capa 1
 70
     0
 62
     7
  6
Continuous
370
    -3
390
F
347
3E
  0
ENDTAB
  0
TABLE
  2
STYLE
  5
3
330
0
100
AcDbSymbolTable
 70
     1
  0
STYLE
  5
11
330
3
100
AcDbSymbolTableRecord
100
AcDbTextStyleTableRecord
  2
Standard
 70
     0
 40
0.0
 41
1.0
 50
0.0
 71
     0
 42
0.2
  3
txt
  4

  0
ENDTAB
  0
TABLE
  2
VIEW
  5
6
330
0
100
AcDbSymbolTable
 70
     0
  0
ENDTAB
  0
TABLE
  2
UCS
  5
7
330
0
100
AcDbSymbolTable
 70
     0
  0
ENDTAB
  0
TABLE
  2
APPID
  5
9
330
0
100
AcDbSymbolTable
 70
     1
  0
APPID
  5
12
330
9
100
AcDbSymbolTableRecord
100
AcDbRegAppTableRecord
  2
ACAD
 70
     0
  0
ENDTAB
  0
TABLE
  2
DIMSTYLE
  5
A
330
0
100
AcDbSymbolTable
 70
     1
100
AcDbDimStyleTable
  0
DIMSTYLE
105
27
330
A
100
AcDbSymbolTableRecord
100
AcDbDimStyleTableRecord
  2
Standard
 70
     0
178
     0
340
11
  0
ENDTAB
  0
TABLE
  2
BLOCK_RECORD
  5
1
330
0
100
AcDbSymbolTable
 70
     2
  0
BLOCK_RECORD
  5
1F
330
1
100
AcDbSymbolTableRecord
100
AcDbBlockTableRecord
  2
*Model_Space
340
22
 70
     0
280
     1
281
     0
  0
BLOCK_RECORD
  5
1B
330
1
100
AcDbSymbolTableRecord
100
AcDbBlockTableRecord
  2
*Paper_Space
340
1E
 70
     0
280
     1
281
     0
  0
BLOCK_RECORD
  5
23
330
1
100
AcDbSymbolTableRecord
100
AcDbBlockTableRecord
  2
*Paper_Space0
340
26
 70
     0
280
     1
281
     0
  0
BLOCK_RECORD
  5
41
330
1
100
AcDbSymbolTableRecord
100
AcDbBlockTableRecord
  2
block 2
340
0
102
{BLKREFS
331
42
102
}
 70
     0
280
     1
281
     0
  0
ENDTAB
  0
ENDSEC
  0
SECTION
  2
BLOCKS
  0
BLOCK
  5
20
330
1F
100
AcDbEntity
  8
0
100
AcDbBlockBegin
  2
*Model_Space
 70
     0
 10
0.0
 20
0.0
 30
0.0
  3
*Model_Space
  1

  0
ENDBLK
  5
21
330
1F
100
AcDbEntity
  8
0
100
AcDbBlockEnd
  0
BLOCK
  5
1C
330
1B
100
AcDbEntity
 67
     1
  8
0
100
AcDbBlockBegin
  2
*Paper_Space
 70
     0
 10
0.0
 20
0.0
 30
0.0
  3
*Paper_Space
  1

  0
ENDBLK
  5
1D
330
1B
100
AcDbEntity
 67
     1
  8
0
100
AcDbBlockEnd
  0
BLOCK
  5
24
330
23
100
AcDbEntity
  8
0
100
AcDbBlockBegin
  2
*Paper_Space0
 70
     0
 10
0.0
 20
0.0
 30
0.0
  3
*Paper_Space0
  1

  0
ENDBLK
  5
25
330
23
100
AcDbEntity
  8
0
100
AcDbBlockEnd
  0
BLOCK
  5
43
330
41
100
AcDbEntity
  8
0
100
AcDbBlockBegin
  2
block 2
 70
     0
 10
0.0
 20
0.0
 30
0.0
  3
block 2
  1

  0
SPLINE
  5
45
330
41
100
AcDbEntity
  8
Capa 1
370
     0
100
AcDbSpline
210
0.0
220
0.0
230
1.0
 70
    11
 71
     3
 72
    17
 73
    13
 74
     0
 42
0.0000000001
 43
0.0000000001
 12
1.0
 22
0.0
 32
0.0
 13
1.0
 23
0.0
 33
0.0
 40
0.0
 40
0.0
 40
0.0
 40
0.0
 40
1.0
 40
1.0
 40
1.0
 40
2.0
 40
2.0
 40
2.0
 40
3.0
 40
3.0
 40
3.0
 40
4.0
 40
4.0
 40
4.0
 40
4.0
 10
6.526396667984559
 20
139.8763547171005
 30
0.0
 10
6.526389329824607
 20
186.531172118213
 30
0.0
 10
6.526389329824607
 20
233.1860335844809
 30
0.0
 10
6.526381991664332
 20
279.8409127227114
 30
0.0
 10
72.67218910853401
 20
279.8409303258232
 30
0.0
 10
138.8180035635637
 20
279.8409303258232
 30
0.0
 10
204.9638600313205
 20
279.8409479289344
 30
0.0
 10
204.9638840385926
 20
233.1861334654986
 30
0.0
 10
204.9638840385926
 20
186.5313013760019
 30
0.0
 10
204.9639200495003
 20
139.8764252213491
 30
0.0
 10
138.8180995926519
 20
139.8763899692248
 30
0.0
 10
72.67225512853202
 20
139.8763899692248
 30
0.0
 10
6.526396667984559
 20
139.8763547171005
 30
0.0
  0
SPLINE
  5
46
330
41
100
AcDbEntity
  8
Capa 1
370
     0
100
AcDbSpline
210
0.0
220
0.0
230
1.0
 70
    11
 71
     3
 72
   107
 73
   103
 74
     0
 42
0.0000000001
 43
0.0000000001
 12
1.0
 22
0.0
 32
0.0
 13
1.0
 23
0.0
 33
0.0
 40
0.0
 40
0.0
 40
0.0
 40
0.0
 40
1.0
 40
1.0
 40
1.0
 40
2.0
 40
2.0
 40
2.0
 40
3.0
 40
3.0
 40
3.0
 40
4.0
 40
4.0
 40
4.0
 40
5.0
 40
5.0
 40
5.0
 40
6.0
 40
6.0
 40
6.0
 40
7.0
 40
7.0
 40
7.0
 40
8.0
 40
8.0
 40
8.0
 40
9.0
 40
9.0
 40
9.0
 40
10.0
 40
10.0
 40
10.0
 40
11.0
 40
11.0
 40
11.0
 40
12.0
 40
12.0
 40
12.0
 40
13.0
 40
13.0
 40
13.0
 40
14.0
 40
14.0
 40
14.0
 40
15.0
 40
15.0
 40
15.0
 40
16.0
 40
16.0
 40
16.0
 40
17.0
 40
17.0
 40
17.0
 40
18.0
 40
18.0
 40
18.0
 40
19.0
 40
19.0
 40
19.0
 40
20.0
 40
20.0
 40
20.0
 40
21.0
 40
21.0
 40
21.0
 40
22.0
 40
22.0
 40
22.0
 40
23.0
 40
23.0
 40
23.0
 40
24.0
 40
24.0
 40
24.0
 40
25.0
 40
25.0
 40
25.0
 40
26.0
 40
26.0
 40
26.0
 40
27.0
 40
27.0
 40
27.0
 40
28.0
 40
28.0
 40
28.0
 40
29.0
 40
29.0
 40
29.0
 40
30.0
 40
30.0
 40
30.0
 40
31.0
 40
31.0
 40
31.0
 40
32.0
 40
32.0
 40
32.0
 40
33.0
 40
33.0
 40
33.0
 40
34.0
 40
34.0
 40
34.0
 40
34.0
 10
158.7071162427533
 20
152.9149873850898
 30
0.0
 10
158.7071162427533
 20
153.4219951858235
 30
0.0
 10
158.7470043253888
 20
153.7422254819182
 30
0.0
 10
158.6994939338534
 20
154.0495064977292
 30
0.0
 10
158.5673579080774
 20
154.904147245758
 30
0.0
 10
158.4662392778869
 20
155.7714317556606
 30
0.0
 10
158.2341009600745
 20
156.6019130479143
 30
0.0
 10
156.5466177987745
 20
162.6389098188124
 30
0.0
 10
151.43833843239
 20
166.7170165530085
 30
0.0
 10
144.6001430512248
 20
167.5242666954246
 30
0.0
 10
138.6450071606316
 20
168.22725280521
 30
0.0
 10
132.2496619247187
 20
165.0171003712765
 30
0.0
 10
129.3183860018973
 20
159.8233226601712
 30
0.0
 10
129.0561305612038
 20
159.3586644112912
 30
0.0
 10
128.8218916070804
 20
159.1137679045792
 30
0.0
 10
128.2240985275329
 20
159.114296686442
 30
0.0
 10
108.5598139517944
 20
159.1320872584475
 30
0.0
 10
88.89552937605616
 20
159.126446918578
 30
0.0
 10
69.23125680395366
 20
159.1475629409646
 30
0.0
 10
68.86091462233564
 20
159.1479624650389
 30
0.0
 10
68.39694407943043
 20
159.3359972954407
 30
0.0
 10
68.13454459510487
 20
159.5917162042773
 30
0.0
 10
62.81674176124919
 20
164.774260238475
 30
0.0
 10
57.52545495945571
 20
169.9828673431542
 30
0.0
 10
52.21621371902113
 20
175.1738483857406
 30
0.0
 10
51.7984301667757
 20
175.5823382500861
 30
0.0
 10
51.6856019896067
 20
175.9515454973817
 30
0.0
 10
51.84463816379812
 20
176.5321127305818
 30
0.0
 10
56.59646655639919
 20
193.8794597784754
 30
0.0
 10
61.3281168367788
 20
211.2320887696429
 30
0.0
 10
66.06005220351497
 20
228.5846531319162
 30
0.0
 10
66.37666611011673
 20
229.7457229694212
 30
0.0
 10
66.67036507547559
 20
230.9127856680377
 30
0.0
 10
66.98872551112471
 20
232.1306408022505
 30
0.0
 10
60.27573405590908
 20
233.909371920629
 30
0.0
 10
53.69280799924805
 20
235.6536352745854
 30
0.0
 10
47.00780902332991
 20
237.4249458208228
 30
0.0
 10
46.36627469397065
 20
235.1297652077827
 30
0.0
 10
45.74854357492355
 20
232.9197478514195
 30
0.0
 10
45.11057732638395
 20
230.6373314450111
 30
0.0
 10
49.48758017929756
 20
229.45899394201
 30
0.0
 10
53.79001944590036
 20
228.3007325237316
 30
0.0
 10
58.14207574216685
 20
227.1291105503875
 30
0.0
 10
58.05897456970635
 20
226.7443688670346
 30
0.0
 10
58.01205835815603
 20
226.4648488990189
 30
0.0
 10
57.93784587820009
 20
226.192455735443
 30
0.0
 10
52.06404062374821
 20
204.6321097001597
 30
0.0
 10
46.1833602867418
 20
183.0735615232095
 30
0.0
 10
40.32981116814506
 20
161.5079511707152
 30
0.0
 10
40.0976068303347
 20
160.6524761224144
 30
0.0
 10
39.72001745344433
 20
160.1990868025657
 30
0.0
 10
38.8303649657648
 20
159.8979396563624
 30
0.0
 10
34.92594826553949
 20
158.5762905178417
 30
0.0
 10
32.51728064778786
 20
154.5227192620781
 30
0.0
 10
33.20324943694201
 20
150.603235336006
 30
0.0
 10
33.93620345855291
 20
146.415294733558
 30
0.0
 10
37.48783029399259
 20
143.3861267051889
 30
0.0
 10
41.71533086065704
 20
143.3433306264286
 30
0.0
 10
45.37379305796198
 20
143.3062923946188
 30
0.0
 10
48.74356480705494
 20
145.5595729203877
 30
0.0
 10
50.01861503688367
 20
148.895504933413
 30
0.0
 10
51.30580694459017
 20
152.2631991103283
 30
0.0
 10
50.34637732047842
 20
155.977257158068
 30
0.0
 10
47.5483147497697
 20
158.3285385890709
 30
0.0
 10
47.14583583350358
 20
158.6667474684999
 30
0.0
 10
47.02839826008636
 20
158.94069172554
 30
0.0
 10
47.19423149319829
 20
159.4661363872228
 30
0.0
 10
47.62826496776371
 20
160.8414275080453
 30
0.0
 10
47.96854704377191
 20
162.2450495860035
 30
0.0
 10
48.34725876063394
 20
163.6370854658136
 30
0.0
 10
48.7186542613159
 20
165.0022239748709
 30
0.0
 10
49.09135215651123
 20
166.3670099626854
 30
0.0
 10
49.39778097791388
 20
167.4909769394861
 30
0.0
 10
52.29347812344626
 20
164.7054598427744
 30
0.0
 10
55.19153098255627
 20
161.9176631086991
 30
0.0
 10
58.25010246491117
 20
158.9754620706941
 30
0.0
 10
55.25540233004409
 20
158.9754620706941
 30
0.0
 10
52.38253610030304
 20
158.9754620706941
 30
0.0
 10
49.31671742267515
 20
158.9754620706941
 30
0.0
 10
51.93657101149147
 20
155.1281627442442
 30
0.0
 10
54.40359730686991
 20
151.5053019417711
 30
0.0
 10
56.74199563911089
 20
148.0713220206796
 30
0.0
 10
82.43223755821222
 20
148.0713220206796
 30
0.0
 10
107.9555989269536
 20
148.0713220206796
 30
0.0
 10
133.5735309424141
 20
148.0713220206796
 30
0.0
 10
133.5735309424141
 20
149.9424107667452
 30
0.0
 10
133.5160095184024
 20
151.6366748578995
 30
0.0
 10
133.5971420945482
 20
153.3245583145765
 30
0.0
 10
133.6393948934893
 20
154.2035465297087
 30
0.0
 10
133.7958262786546
 20
155.1217351069345
 30
0.0
 10
134.1245938667702
 20
155.9355186430329
 30
0.0
 10
135.7309564555595
 20
159.9116997355027
 30
0.0
 10
139.9557081895648
 20
162.1800329182988
 30
0.0
 10
144.5646843102961
 20
161.5999827162534
 30
0.0
 10
148.7554657542454
 20
161.0725639356169
 30
0.0
 10
152.4909972968887
 20
157.6241071421937
 30
0.0
 10
152.6967876335448
 20
153.5760822206354
 30
0.0
 10
152.7083711423455
 20
153.3482947448614
 30
0.0
 10
153.0131314583345
 20
152.9483358945682
 30
0.0
 10
153.1898849993546
 20
152.9438001212564
 30
0.0
 10
155.0142336190397
 20
152.8969147960907
 30
0.0
 10
156.8403227659525
 20
152.9149873850898
 30
0.0
 10
158.7071162427533
 20
152.9149873850898
 30
0.0
  0
SPLINE
  5
47
330
41
100
AcDbEntity
  8
Capa 1
370
     0
100
AcDbSpline
210
0.0
220
0.0
230
1.0
 70
    11
 71
     3
 72
    71
 73
    67
 74
     0
 42
0.0000000001
 43
0.0000000001
 12
1.0
 22
0.0
 32
0.0
 13
1.0
 23
0.0
 33
0.0
 40
0.0
 40
0.0
 40
0.0
 40
0.0
 40
1.0
 40
1.0
 40
1.0
 40
2.0
 40
2.0
 40
2.0
 40
3.0
 40
3.0
 40
3.0
 40
4.0
 40
4.0
 40
4.0
 40
5.0
 40
5.0
 40
5.0
 40
6.0
 40
6.0
 40
6.0
 40
7.0
 40
7.0
 40
7.0
 40
8.0
 40
8.0
 40
8.0
 40
9.0
 40
9.0
 40
9.0
 40
10.0
 40
10.0
 40
10.0
 40
11.0
 40
11.0
 40
11.0
 40
12.0
 40
12.0
 40
12.0
 40
13.0
 40
13.0
 40
13.0
 40
14.0
 40
14.0
 40
14.0
 40
15.0
 40
15.0
 40
15.0
 40
16.0
 40
16.0
 40
16.0
 40
17.0
 40
17.0
 40
17.0
 40
18.0
 40
18.0
 40
18.0
 40
19.0
 40
19.0
 40
19.0
 40
20.0
 40
20.0
 40
20.0
 40
21.0
 40
21.0
 40
21.0
 40
22.0
 40
22.0
 40
22.0
 40
22.0
 10
134.6089165746188
 20
201.1777305498734
 30
0.0
 10
134.6333199667339
 20
201.2750499140396
 30
0.0
 10
134.6577113552128
 20
201.3723634028522
 30
0.0
 10
134.6821147473279
 20
201.4696827670184
 30
0.0
 10
136.0473002803498
 20
201.4696827670184
 30
0.0
 10
137.4185356459477
 20
201.3884559975425
 30
0.0
 10
138.7765310009679
 20
201.4852054523676
 30
0.0
 10
142.560953353294
 20
201.7548313241952
 30
0.0
 10
145.396728347602
 20
203.4491012907036
 30
0.0
 10
146.7680117277454
 20
207.0288957481312
 30
0.0
 10
147.8366234245705
 20
209.8185373433722
 30
0.0
 10
148.7916687206098
 20
212.6509045131254
 30
0.0
 10
149.7443012858007
 20
215.4813386914022
 30
0.0
 10
149.9659004111503
 20
216.13972498874
 30
0.0
 10
150.048293369082
 20
216.8658658687607
 30
0.0
 10
150.0629978232589
 20
217.5634936556704
 30
0.0
 10
150.0964639606012
 20
219.1521482581211
 30
0.0
 10
149.3197086709981
 20
220.3259676138729
 30
0.0
 10
147.7564271320368
 20
220.7565840614986
 30
0.0
 10
146.5440358824551
 20
221.090539184609
 30
0.0
 10
145.2512682857984
 20
221.2885562415094
 30
0.0
 10
143.9928070810072
 20
221.2953834028931
 30
0.0
 10
135.5696876050598
 20
221.3410466544203
 30
0.0
 10
127.1460879836706
 20
221.3015819013954
 30
0.0
 10
118.7229445004517
 20
221.3443897308642
 30
0.0
 10
117.7954115382675
 20
221.3491017647969
 30
0.0
 10
117.4278241911264
 20
221.0606453833009
 30
0.0
 10
117.1425097655574
 20
220.230804504636
 30
0.0
 10
113.8312587431774
 20
210.5999946815933
 30
0.0
 10
110.4805637726966
 20
200.9821928923747
 30
0.0
 10
107.1438650418648
 20
191.3597554488255
 30
0.0
 10
107.0349080373253
 20
191.045535639904
 30
0.0
 10
106.9636124409325
 20
190.7188013268969
 30
0.0
 10
106.8369740804733
 20
190.2614755198475
 30
0.0
 10
109.6165660561911
 20
190.2614755198475
 30
0.0
 10
112.2305738742451
 20
190.241135044193
 30
0.0
 10
114.8429371941585
 20
190.2965337573492
 30
0.0
 10
115.0752795737843
 20
190.3014573040275
 30
0.0
 10
115.3971450711635
 20
190.7646995925863
 30
0.0
 10
115.5076745520269
 20
191.0733554412399
 30
0.0
 10
116.6450430762199
 20
194.249037173075
 30
0.0
 10
117.759748735526
 20
197.4327093863918
 30
0.0
 10
118.8480704027662
 20
200.6248362341588
 30
0.0
 10
119.0426733506109
 20
201.1956210028979
 30
0.0
 10
119.3060811403664
 20
201.4489603933514
 30
0.0
 10
119.9554178331657
 20
201.4230089545976
 30
0.0
 10
121.231536386605
 20
201.3720050062565
 30
0.0
 10
122.5122643362907
 20
201.3795313347696
 30
0.0
 10
123.7891391188009
 20
201.4206588129854
 30
0.0
 10
124.4420408915117
 20
201.4416808297075
 30
0.0
 10
124.854461819346
 20
201.2457671495501
 30
0.0
 10
125.2493334312579
 20
200.7049643124313
 30
0.0
 10
127.6308428224175
 20
197.4433496525417
 30
0.0
 10
130.0723823975266
 20
194.2237614000347
 30
0.0
 10
132.4574808758684
 20
190.964620264192
 30
0.0
 10
132.8490034733186
 20
190.429634027563
 30
0.0
 10
133.2663458919385
 20
190.2395780753748
 30
0.0
 10
133.9193556973732
 20
190.2451596617041
 30
0.0
 10
137.0327988010797
 20
190.2717632647555
 30
0.0
 10
140.1466140175033
 20
190.2541548287253
 30
0.0
 10
143.2602971939303
 20
190.2591547550056
 30
0.0
 10
143.5333679107155
 20
190.2595895312043
 30
0.0
 10
143.8063666056846
 20
190.3099413152477
 30
0.0
 10
144.3442255303721
 20
190.3634599151147
 30
0.0
 10
140.9930984289942
 20
194.0859902233662
 30
0.0
 10
137.8010075018058
 20
197.6318603866198
 30
0.0
 10
134.6089165746188
 20
201.1777305498734
 30
0.0
  0
SPLINE
  5
48
330
41
100
AcDbEntity
  8
Capa 1
370
     0
100
AcDbSpline
210
0.0
220
0.0
230
1.0
 70
    11
 71
     3
 72
    53
 73
    49
 74
     0
 42
0.0000000001
 43
0.0000000001
 12
1.0
 22
0.0
 32
0.0
 13
1.0
 23
0.0
 33
0.0
 40
0.0
 40
0.0
 40
0.0
 40
0.0
 40
1.0
 40
1.0
 40
1.0
 40
2.0
 40
2.0
 40
2.0
 40
3.0
 40
3.0
 40
3.0
 40
4.0
 40
4.0
 40
4.0
 40
5.0
 40
5.0
 40
5.0
 40
6.0
 40
6.0
 40
6.0
 40
7.0
 40
7.0
 40
7.0
 40
8.0
 40
8.0
 40
8.0
 40
9.0
 40
9.0
 40
9.0
 40
10.0
 40
10.0
 40
10.0
 40
11.0
 40
11.0
 40
11.0
 40
12.0
 40
12.0
 40
12.0
 40
13.0
 40
13.0
 40
13.0
 40
14.0
 40
14.0
 40
14.0
 40
15.0
 40
15.0
 40
15.0
 40
16.0
 40
16.0
 40
16.0
 40
16.0
 10
69.49063137199119
 20
221.3170693346209
 30
0.0
 10
69.8971885236096
 20
219.5307149443878
 30
0.0
 10
70.26460781984598
 20
217.9129655887763
 30
0.0
 10
70.63361759786103
 20
216.295562879053
 30
0.0
 10
72.53947090640952
 20
207.942166654033
 30
0.0
 10
74.4535046929334
 20
199.5905447859305
 30
0.0
 10
76.337865491112
 20
191.2325070312268
 30
0.0
 10
76.49739981620034
 20
190.5249146438806
 30
0.0
 10
76.74363640456785
 20
190.1964588521428
 30
0.0
 10
77.54949450980443
 20
190.2364641377383
 30
0.0
 10
78.92259043899182
 20
190.3046417459119
 30
0.0
 10
80.3041549334215
 20
190.2107300870835
 30
0.0
 10
81.67699878625102
 20
190.2812402108071
 30
0.0
 10
82.1048083755178
 20
190.3032081595285
 30
0.0
 10
82.63770979851157
 20
190.5311366437995
 30
0.0
 10
82.91708242422946
 20
190.8418018635321
 30
0.0
 10
91.75149448622135
 20
200.6659460863124
 30
0.0
 10
100.5610770270186
 20
210.511494223827
 30
0.0
 10
109.3703354696421
 20
220.3573067522732
 30
0.0
 10
109.5856566933302
 20
220.5979553780208
 30
0.0
 10
109.7544518236396
 20
220.8784976576375
 30
0.0
 10
110.0749969210539
 20
221.3192725923824
 30
0.0
 10
107.4288913801679
 20
221.3192725923824
 30
0.0
 10
105.0427966000319
 20
221.2961824510414
 30
0.0
 10
102.6577221289618
 20
221.334266495869
 30
0.0
 10
101.9981823455092
 20
221.3447951302922
 30
0.0
 10
101.5782171324094
 20
221.1222190935435
 30
0.0
 10
101.160334550166
 20
220.6424494340963
 30
0.0
 10
96.92911885814013
 20
215.7847302228447
 30
0.0
 10
92.6763506375636
 20
210.9450072209898
 30
0.0
 10
88.42905607503221
 20
206.1007131936991
 30
0.0
 10
86.74864305537322
 20
204.1840787031866
 30
0.0
 10
85.06678959938701
 20
202.2686486602508
 30
0.0
 10
83.30194300366456
 20
200.2573445902406
 30
0.0
 10
83.18392925571672
 20
200.6210348801011
 30
0.0
 10
83.08651374725129
 20
200.8485462142359
 30
0.0
 10
83.03674067031828
 20
201.0856402507946
 30
0.0
 10
82.37112104519939
 20
204.2564101866598
 30
0.0
 10
81.71165928538147
 20
207.4284315729335
 30
0.0
 10
81.05169337284812
 20
210.6003413274811
 30
0.0
 10
80.36542749370206
 20
213.8986240718768
 30
0.0
 10
79.69425018508616
 20
217.2000736320951
 30
0.0
 10
78.97177533775785
 20
220.4907360423128
 30
0.0
 10
78.9037387285558
 20
220.800625715314
 30
0.0
 10
78.52061267453172
 20
221.276623397473
 30
0.0
 10
78.27572649522072
 20
221.2814176863621
 30
0.0
 10
75.43066068659977
 20
221.3371571700521
 30
0.0
 10
72.58405241074519
 20
221.3170693346209
 30
0.0
 10
69.49063137199119
 20
221.3170693346209
 30
0.0
  0
SPLINE
  5
49
330
41
100
AcDbEntity
  8
Capa 1
370
     0
100
AcDbSpline
210
0.0
220
0.0
230
1.0
 70
    11
 71
     3
 72
    68
 73
    64
 74
     0
 42
0.0000000001
 43
0.0000000001
 12
1.0
 22
0.0
 32
0.0
 13
1.0
 23
0.0
 33
0.0
 40
0.0
 40
0.0
 40
0.0
 40
0.0
 40
1.0
 40
1.0
 40
1.0
 40
2.0
 40
2.0
 40
2.0
 40
3.0
 40
3.0
 40
3.0
 40
4.0
 40
4.0
 40
4.0
 40
5.0
 40
5.0
 40
5.0
 40
6.0
 40
6.0
 40
6.0
 40
7.0
 40
7.0
 40
7.0
 40
8.0
 40
8.0
 40
8.0
 40
9.0
 40
9.0
 40
9.0
 40
10.0
 40
10.0
 40
10.0
 40
11.0
 40
11.0
 40
11.0
 40
12.0
 40
12.0
 40
12.0
 40
13.0
 40
13.0
 40
13.0
 40
14.0
 40
14.0
 40
14.0
 40
15.0
 40
15.0
 40
15.0
 40
16.0
 40
16.0
 40
16.0
 40
17.0
 40
17.0
 40
17.0
 40
18.0
 40
18.0
 40
18.0
 40
19.0
 40
19.0
 40
19.0
 40
20.0
 40
20.0
 40
20.0
 40
21.0
 40
21.0
 40
21.0
 40
21.0
 10
67.29154723989116
 20
253.6602352345362
 30
0.0
 10
67.34870855482042
 20
253.7537356185828
 30
0.0
 10
67.40586386793213
 20
253.8472330649515
 30
0.0
 10
67.46302518286201
 20
253.9407334489978
 30
0.0
 10
65.07259108828889
 20
256.5963890644051
 30
0.0
 10
62.6821629955349
 20
259.2520461486506
 30
0.0
 10
60.10207745299321
 20
262.1184037103108
 30
0.0
 10
61.46788717509044
 20
262.1184037103108
 30
0.0
 10
62.48764407314239
 20
262.0535515525183
 30
0.0
 10
63.49594950239059
 20
262.1311561662343
 30
0.0
 10
66.02519964620775
 20
262.32582133366
 30
0.0
 10
68.10628203399595
 20
263.3940091681305
 30
0.0
 10
69.10313599444072
 20
265.7374146870553
 30
0.0
 10
70.14374921015116
 20
268.1836778257395
 30
0.0
 10
70.99771188690804
 20
270.7193543053217
 30
0.0
 10
71.73856430104813
 20
273.27013411686
 30
0.0
 10
72.30014841241339
 20
275.2036664927743
 30
0.0
 10
71.30903219000668
 20
276.5275398200059
 30
0.0
 10
69.2787491900346
 20
276.8922032153777
 30
0.0
 10
68.44551079093958
 20
277.0418629873226
 30
0.0
 10
67.5849941288928
 20
277.1033579311004
 30
0.0
 10
66.73660714108648
 20
277.1056192079827
 30
0.0
 10
60.57569891929253
 20
277.1220410061036
 30
0.0
 10
54.41467066113797
 20
277.101602485479
 30
0.0
 10
48.25384046297771
 20
277.1284917776201
 30
0.0
 10
47.57650828997122
 20
277.1314479987217
 30
0.0
 10
47.2714418812608
 20
276.9182677546967
 30
0.0
 10
47.05998282747525
 20
276.3039433077037
 30
0.0
 10
44.57463598255736
 20
269.0835551277088
 30
0.0
 10
42.06526085915026
 20
261.8710968396076
 30
0.0
 10
39.56653596184019
 20
254.6551118702493
 30
0.0
 10
39.46745794978088
 20
254.3689850666265
 30
0.0
 10
39.41155401572869
 20
254.0685341498759
 30
0.0
 10
39.31676730356142
 20
253.702244015857
 30
0.0
 10
39.74089777837519
 20
253.6836925855045
 30
0.0
 10
40.03107967836726
 20
253.6605583790081
 30
0.0
 10
40.32130359108624
 20
253.6600325348223
 30
0.0
 10
41.9598389254317
 20
253.6570596056825
 30
0.0
 10
43.59935255611681
 20
253.6329148382935
 30
0.0
 10
45.23584427142298
 20
253.6899028347149
 30
0.0
 10
45.47083945461802
 20
253.698084265203
 30
0.0
 10
45.79915990728985
 20
254.0674501470573
 30
0.0
 10
45.9006926629241
 20
254.3361506506249
 30
0.0
 10
46.49044930812759
 20
255.8968826330444
 30
0.0
 10
47.01598049857931
 20
257.4807179763512
 30
0.0
 10
47.58208097801302
 20
259.0502248000155
 30
0.0
 10
47.93942322177517
 20
260.0409387473976
 30
0.0
 10
48.05694181973583
 20
261.4002019024236
 30
0.0
 10
48.78136725792429
 20
261.8985083038381
 30
0.0
 10
49.51433028226278
 20
262.4026885904451
 30
0.0
 10
50.86427719930329
 20
262.0215235288581
 30
0.0
 10
51.94066725229798
 20
262.0832162150199
 30
0.0
 10
52.5390395072855
 20
262.1175121253368
 30
0.0
 10
52.89020588029378
 20
261.8841827218727
 30
0.0
 10
53.22762508910112
 20
261.4219994658784
 30
0.0
 10
54.9796097887822
 20
259.0221934859347
 30
0.0
 10
56.75659806238145
 20
256.6397095185128
 30
0.0
 10
58.54731849563618
 20
254.2674207591728
 30
0.0
 10
58.74057103442406
 20
254.0113992696032
 30
0.0
 10
59.07569454783424
 20
253.6910132766267
 30
0.0
 10
59.34993561913591
 20
253.6864804409923
 30
0.0
 10
61.99653931091778
 20
253.6427149288167
 30
0.0
 10
64.64419332085546
 20
253.6602352345362
 30
0.0
 10
67.29154723989116
 20
253.6602352345362
 30
0.0
  0
SPLINE
  5
4A
330
41
100
AcDbEntity
  8
Capa 1
370
     0
100
AcDbSpline
210
0.0
220
0.0
230
1.0
 70
    11
 71
     3
 72
    56
 73
    52
 74
     0
 42
0.0000000001
 43
0.0000000001
 12
1.0
 22
0.0
 32
0.0
 13
1.0
 23
0.0
 33
0.0
 40
0.0
 40
0.0
 40
0.0
 40
0.0
 40
1.0
 40
1.0
 40
1.0
 40
2.0
 40
2.0
 40
2.0
 40
3.0
 40
3.0
 40
3.0
 40
4.0
 40
4.0
 40
4.0
 40
5.0
 40
5.0
 40
5.0
 40
6.0
 40
6.0
 40
6.0
 40
7.0
 40
7.0
 40
7.0
 40
8.0
 40
8.0
 40
8.0
 40
9.0
 40
9.0
 40
9.0
 40
10.0
 40
10.0
 40
10.0
 40
11.0
 40
11.0
 40
11.0
 40
12.0
 40
12.0
 40
12.0
 40
13.0
 40
13.0
 40
13.0
 40
14.0
 40
14.0
 40
14.0
 40
15.0
 40
15.0
 40
15.0
 40
16.0
 40
16.0
 40
16.0
 40
17.0
 40
17.0
 40
17.0
 40
17.0
 10
21.75190667151448
 20
261.2851933161092
 30
0.0
 10
21.63666876440524
 20
261.7707384485687
 30
0.0
 10
21.54993049021832
 20
262.0987932473942
 30
0.0
 10
21.48143624239089
 20
262.4304613889485
 30
0.0
 10
20.54813553307936
 20
266.9497264247401
 30
0.0
 10
19.60421010539756
 20
271.4669703387447
 30
0.0
 10
18.69818240744662
 20
275.9914824328949
 30
0.0
 10
18.53666598195317
 20
276.7980653554192
 30
0.0
 10
18.25017895118657
 20
277.1951338987387
 30
0.0
 10
17.30984411114178
 20
277.1375792978628
 30
0.0
 10
15.87354678740433
 20
277.049668762362
 30
0.0
 10
14.42742148664016
 20
277.1208244406098
 30
0.0
 10
12.98554322236035
 20
277.1122950790002
 30
0.0
 10
12.48108141410749
 20
277.1093109499672
 30
0.0
 10
11.97684204823546
 20
277.0704133522109
 30
0.0
 10
11.39186510086664
 20
277.0443188853074
 30
0.0
 10
11.46059116891504
 20
276.6336659726542
 30
0.0
 10
11.49347588013524
 20
276.3527799848267
 30
0.0
 10
11.55572673675576
 20
276.0782757331053
 30
0.0
 10
12.17237415253484
 20
273.3590722885013
 30
0.0
 10
12.79285335401302
 20
270.6407002064923
 30
0.0
 10
13.41424933319568
 20
267.9225308241975
 30
0.0
 10
14.43560421529855
 20
263.454817613511
 30
0.0
 10
15.4719456370252
 20
258.9903050019324
 30
0.0
 10
16.46574017072856
 20
254.5167296567622
 30
0.0
 10
16.61062030686643
 20
253.8645477332807
 30
0.0
 10
16.85084682470271
 20
253.5868667510768
 30
0.0
 10
17.56234959844328
 20
253.6430615747045
 30
0.0
 10
18.376325912794
 20
253.7073496985093
 30
0.0
 10
19.20278300774132
 20
253.7010983218205
 30
0.0
 10
20.01805046319641
 20
253.64507388346
 30
0.0
 10
20.76797162438148
 20
253.5935382155787
 30
0.0
 10
21.27940304382368
 20
253.8296305042753
 30
0.0
 10
21.78466609478325
 20
254.3968401200864
 30
0.0
 10
28.28760892345096
 20
261.6970673843766
 30
0.0
 10
34.81826664733249
 20
268.9736331291465
 30
0.0
 10
41.33742938922898
 20
276.2600257707429
 30
0.0
 10
41.51153912940675
 20
276.4546252076448
 30
0.0
 10
41.6354526644792
 20
276.6922630816616
 30
0.0
 10
41.91916460463391
 20
277.1112479807493
 30
0.0
 10
39.9133420140487
 20
277.1112479807493
 30
0.0
 10
38.15615073722516
 20
277.1464564069884
 30
0.0
 10
36.4024255103149
 20
277.0857572064725
 30
0.0
 10
35.97968145546605
 20
277.0711255552827
 30
0.0
 10
35.44628488248477
 20
276.8437686327957
 30
0.0
 10
35.17083444485016
 20
276.5364101357534
 30
0.0
 10
32.53536112460709
 20
273.5956654511293
 30
0.0
 10
29.9448204150555
 20
270.6163402542613
 30
0.0
 10
27.34050103175805
 20
267.6488289255107
 30
0.0
 10
25.51129694128656
 20
265.5645309258601
 30
0.0
 10
23.68071243266864
 20
263.4813918397921
 30
0.0
 10
21.75190667151448
 20
261.2851933161092
 30
0.0
  0
SPLINE
  5
4B
330
41
100
AcDbEntity
  8
Capa 1
370
     0
100
AcDbSpline
210
0.0
220
0.0
230
1.0
 70
    11
 71
     3
 72
    17
 73
    13
 74
     0
 42
0.0000000001
 43
0.0000000001
 12
1.0
 22
0.0
 32
0.0
 13
1.0
 23
0.0
 33
0.0
 40
0.0
 40
0.0
 40
0.0
 40
0.0
 40
1.0
 40
1.0
 40
1.0
 40
2.0
 40
2.0
 40
2.0
 40
3.0
 40
3.0
 40
3.0
 40
4.0
 40
4.0
 40
4.0
 40
4.0
 10
143.1153772957482
 20
160.4651698359116
 30
0.0
 10
138.3403908882736
 20
160.4689183117842
 30
0.0
 10
134.3827200566579
 20
156.5969424984045
 30
0.0
 10
134.3630100862428
 20
151.9023113643404
 30
0.0
 10
134.3434681667341
 20
147.2472566150278
 30
0.0
 10
138.3304158667058
 20
143.3492529832914
 30
0.0
 10
143.1188103356618
 20
143.3418030343806
 30
0.0
 10
147.8960294194434
 20
143.3343883375935
 30
0.0
 10
151.8612265308708
 20
147.2165872669869
 30
0.0
 10
151.8639153453488
 20
151.903874208513
 30
0.0
 10
151.8666041598274
 20
156.587506679831
 30
0.0
 10
147.9079850409626
 20
160.4614096093326
 30
0.0
 10
143.1153772957482
 20
160.4651698359116
 30
0.0
  0
SPLINE
  5
4C
330
41
100
AcDbEntity
  8
Capa 1
370
     0
100
AcDbSpline
210
0.0
220
0.0
230
1.0
 70
    11
 71
     3
 72
    17
 73
    13
 74
     0
 42
0.0000000001
 43
0.0000000001
 12
1.0
 22
0.0
 32
0.0
 13
1.0
 23
0.0
 33
0.0
 40
0.0
 40
0.0
 40
0.0
 40
0.0
 40
1.0
 40
1.0
 40
1.0
 40
2.0
 40
2.0
 40
2.0
 40
3.0
 40
3.0
 40
3.0
 40
4.0
 40
4.0
 40
4.0
 40
4.0
 10
200.1988006308696
 20
258.461791936607
 30
0.0
 10
157.7542436048412
 20
258.461791936607
 30
0.0
 10
115.4013823546946
 20
258.461791936607
 30
0.0
 10
73.0219510561222
 20
258.461791936607
 30
0.0
 10
73.0219510561222
 20
257.861376288653
 30
0.0
 10
73.0219510561222
 20
257.3363282133672
 30
0.0
 10
73.0219510561222
 20
256.7846574401299
 30
0.0
 10
115.4425668300244
 20
256.7846574401299
 30
0.0
 10
157.796184309243
 20
256.7846574401299
 30
0.0
 10
200.1988006308696
 20
256.7846574401299
 30
0.0
 10
200.1988006308696
 20
257.3547371663842
 30
0.0
 10
200.1988006308696
 20
257.8553804898646
 30
0.0
 10
200.1988006308696
 20
258.461791936607
 30
0.0
  0
SPLINE
  5
4D
330
41
100
AcDbEntity
  8
Capa 1
370
     0
100
AcDbSpline
210
0.0
220
0.0
230
1.0
 70
    11
 71
     3
 72
    83
 73
    79
 74
     0
 42
0.0000000001
 43
0.0000000001
 12
1.0
 22
0.0
 32
0.0
 13
1.0
 23
0.0
 33
0.0
 40
0.0
 40
0.0
 40
0.0
 40
0.0
 40
1.0
 40
1.0
 40
1.0
 40
2.0
 40
2.0
 40
2.0
 40
3.0
 40
3.0
 40
3.0
 40
4.0
 40
4.0
 40
4.0
 40
5.0
 40
5.0
 40
5.0
 40
6.0
 40
6.0
 40
6.0
 40
7.0
 40
7.0
 40
7.0
 40
8.0
 40
8.0
 40
8.0
 40
9.0
 40
9.0
 40
9.0
 40
10.0
 40
10.0
 40
10.0
 40
11.0
 40
11.0
 40
11.0
 40
12.0
 40
12.0
 40
12.0
 40
13.0
 40
13.0
 40
13.0
 40
14.0
 40
14.0
 40
14.0
 40
15.0
 40
15.0
 40
15.0
 40
16.0
 40
16.0
 40
16.0
 40
17.0
 40
17.0
 40
17.0
 40
18.0
 40
18.0
 40
18.0
 40
19.0
 40
19.0
 40
19.0
 40
20.0
 40
20.0
 40
20.0
 40
21.0
 40
21.0
 40
21.0
 40
22.0
 40
22.0
 40
22.0
 40
23.0
 40
23.0
 40
23.0
 40
24.0
 40
24.0
 40
24.0
 40
25.0
 40
25.0
 40
25.0
 40
26.0
 40
26.0
 40
26.0
 40
26.0
 10
88.74814873248128
 20
268.0170939129038
 30
0.0
 10
89.84823396306325
 20
268.2362504936069
 30
0.0
 10
90.83032945296877
 20
268.4261110902735
 30
0.0
 10
91.80822367025263
 20
268.6348469961841
 30
0.0
 10
91.91710865297568
 20
268.6580884278912
 30
0.0
 10
92.02330482122076
 20
268.773858606972
 30
0.0
 10
92.09492451578728
 20
268.8718161814698
 30
0.0
 10
93.1257187571989
 20
270.2815934271948
 30
0.0
 10
92.42031308035052
 20
271.9413728622847
 30
0.0
 10
90.65047297202663
 20
271.9983564521912
 30
0.0
 10
87.87071894722199
 20
272.0878535168844
 30
0.0
 10
85.084651009848
 20
272.0310953936889
 30
0.0
 10
82.30226818874519
 20
271.9818533171378
 30
0.0
 10
81.04879449473918
 20
271.9596687147366
 30
0.0
 10
80.10501461114474
 20
271.2978321157444
 30
0.0
 10
79.58962049134738
 20
270.2005414495017
 30
0.0
 10
79.12689832659323
 20
269.2153789772595
 30
0.0
 10
78.74138354899253
 20
268.183396543165
 30
0.0
 10
78.44398146190828
 20
267.1387365639112
 30
0.0
 10
78.00580073108412
 20
265.5995406916911
 30
0.0
 10
78.54493204119406
 20
264.8472045457241
 30
0.0
 10
80.18062551470227
 20
264.7738992223205
 30
0.0
 10
82.11028203356229
 20
264.6874198863406
 30
0.0
 10
84.04581433227484
 20
264.7258902356963
 30
0.0
 10
85.97881386377813
 20
264.7119964922518
 30
0.0
 10
86.48366278929393
 20
264.7083684611378
 30
0.0
 10
86.98857173299021
 20
264.7114500843269
 30
0.0
 10
87.49345066759625
 20
264.7114500843269
 30
0.0
 10
87.55122416796453
 20
264.6191482725029
 30
0.0
 10
87.60899766833377
 20
264.5268479295176
 30
0.0
 10
87.66677116870237
 20
264.4345461176936
 30
0.0
 10
87.31135550852832
 20
263.9280847248846
 30
0.0
 10
86.9824798876882
 20
263.007102416817
 30
0.0
 10
86.59615486465383
 20
262.9833968321412
 30
0.0
 10
84.33157289237826
 20
262.8444447093129
 30
0.0
 10
82.05357685680275
 20
262.9151604704277
 30
0.0
 10
79.75231177272039
 20
262.9151604704277
 30
0.0
 10
79.82855286717115
 20
263.4084537260155
 30
0.0
 10
79.88428574940954
 20
263.769016858693
 30
0.0
 10
79.95982463115091
 20
264.2577596525839
 30
0.0
 10
78.90756788845931
 20
264.0833512370178
 30
0.0
 10
77.98173344077902
 20
263.9348075987342
 30
0.0
 10
77.05875585848044
 20
263.7708396872814
 30
0.0
 10
76.94026196508955
 20
263.7497882937888
 30
0.0
 10
76.75351539704776
 20
263.6630107835923
 30
0.0
 10
76.7388889665058
 20
263.5822848880475
 30
0.0
 10
76.58276367405902
 20
262.7205188044182
 30
0.0
 10
76.25506440955284
 20
261.8261298175331
 30
0.0
 10
76.37506475926959
 20
260.9962037462348
 30
0.0
 10
76.49756786710539
 20
260.1489468493843
 30
0.0
 10
77.47698054435143
 20
260.0581873179934
 30
0.0
 10
78.2194894602682
 20
260.0477277189806
 30
0.0
 10
81.00426100494732
 20
260.008499448955
 30
0.0
 10
83.79059302231424
 20
259.997164422191
 30
0.0
 10
86.57498645245703
 20
260.0472811920739
 30
0.0
 10
87.79869713084678
 20
260.069306425497
 30
0.0
 10
88.9873751973879
 20
260.4605344997001
 30
0.0
 10
89.52906928379768
 20
261.627630981602
 30
0.0
 10
90.14710649556461
 20
262.9592388452049
 30
0.0
 10
90.6459596048676
 20
264.359974655496
 30
0.0
 10
91.03005195159434
 20
265.7740254868596
 30
0.0
 10
91.29949757028886
 20
266.7660026353579
 30
0.0
 10
90.79533285202858
 20
267.3555106885543
 30
0.0
 10
89.73424743501353
 20
267.5445854566199
 30
0.0
 10
89.09515584559287
 20
267.6584645061217
 30
0.0
 10
88.43264516221484
 20
267.6769454322253
 30
0.0
 10
87.78015751494844
 20
267.682529956232
 30
0.0
 10
85.8256414658029
 20
267.699258557996
 30
0.0
 10
83.87087334030014
 20
267.6885477875978
 30
0.0
 10
81.58391659040454
 20
267.6885477875978
 30
0.0
 10
82.04746100422868
 20
268.3764158770426
 30
0.0
 10
82.33620846971203
 20
269.2213960742059
 30
0.0
 10
82.67657157026431
 20
269.2418129294635
 30
0.0
 10
84.75600945991154
 20
269.3665562429874
 30
0.0
 10
86.8471628983561
 20
269.3041776092424
 30
0.0
 10
88.97526352860133
 20
269.3041776092424
 30
0.0
 10
88.8981701759897
 20
268.8672818769966
 30
0.0
 10
88.83936436291948
 20
268.5340398749809
 30
0.0
 10
88.74814873248128
 20
268.0170939129038
 30
0.0
  0
SPLINE
  5
4E
330
41
100
AcDbEntity
  8
Capa 1
370
     0
100
AcDbSpline
210
0.0
220
0.0
230
1.0
 70
    11
 71
     3
 72
    35
 73
    31
 74
     0
 42
0.0000000001
 43
0.0000000001
 12
1.0
 22
0.0
 32
0.0
 13
1.0
 23
0.0
 33
0.0
 40
0.0
 40
0.0
 40
0.0
 40
0.0
 40
1.0
 40
1.0
 40
1.0
 40
2.0
 40
2.0
 40
2.0
 40
3.0
 40
3.0
 40
3.0
 40
4.0
 40
4.0
 40
4.0
 40
5.0
 40
5.0
 40
5.0
 40
6.0
 40
6.0
 40
6.0
 40
7.0
 40
7.0
 40
7.0
 40
8.0
 40
8.0
 40
8.0
 40
9.0
 40
9.0
 40
9.0
 40
10.0
 40
10.0
 40
10.0
 40
10.0
 10
120.0437405873137
 20
260.0284756526596
 30
0.0
 10
120.0437405873137
 20
260.0265485365379
 30
0.0
 10
120.0437405873137
 20
260.024621420416
 30
0.0
 10
120.0437405873137
 20
260.0226943042934
 30
0.0
 10
121.5177150739701
 20
260.0226943042934
 30
0.0
 10
122.9916775569907
 20
260.0249621909498
 30
0.0
 10
124.4656520436464
 20
260.0221229261137
 30
0.0
 10
126.3305969604938
 20
260.0185316159627
 30
0.0
 10
127.6870438464622
 20
260.7612703711206
 30
0.0
 10
128.3216040632684
 20
262.5485471919362
 30
0.0
 10
129.12714407215
 20
264.8174355956886
 30
0.0
 10
129.9653339711209
 20
267.0764445916378
 30
0.0
 10
130.7088751997393
 20
269.3648002465517
 30
0.0
 10
131.2948326941292
 20
271.1681814127661
 30
0.0
 10
130.7638278456326
 20
271.9736645424572
 30
0.0
 10
128.8407613229716
 20
272.0228170198596
 30
0.0
 10
125.6342300216002
 20
272.1047730676548
 30
0.0
 10
122.4237375203299
 20
272.0434865153401
 30
0.0
 10
119.2149495353801
 20
272.0331613150498
 30
0.0
 10
117.4467899361039
 20
272.0274717690909
 30
0.0
 10
116.3258303824096
 20
271.1061303300083
 30
0.0
 10
115.7536890731274
 20
269.5378551274326
 30
0.0
 10
114.917803872281
 20
267.2465331531529
 30
0.0
 10
114.092601907529
 20
264.9495869962265
 30
0.0
 10
113.3481003880258
 20
262.6288280294134
 30
0.0
 10
112.7873745366393
 20
260.880930768989
 30
0.0
 10
113.431381615028
 20
260.0760792398557
 30
0.0
 10
115.3272118874636
 20
260.0353777248075
 30
0.0
 10
116.8986799062191
 20
260.0016399731243
 30
0.0
 10
118.4715163394862
 20
260.0284756526596
 30
0.0
 10
120.0437405873137
 20
260.0284756526596
 30
0.0
  0
SPLINE
  5
4F
330
41
100
AcDbEntity
  8
Capa 1
370
     0
100
AcDbSpline
210
0.0
220
0.0
230
1.0
 70
    11
 71
     3
 72
    32
 73
    28
 74
     0
 42
0.0000000001
 43
0.0000000001
 12
1.0
 22
0.0
 32
0.0
 13
1.0
 23
0.0
 33
0.0
 40
0.0
 40
0.0
 40
0.0
 40
0.0
 40
1.0
 40
1.0
 40
1.0
 40
2.0
 40
2.0
 40
2.0
 40
3.0
 40
3.0
 40
3.0
 40
4.0
 40
4.0
 40
4.0
 40
5.0
 40
5.0
 40
5.0
 40
6.0
 40
6.0
 40
6.0
 40
7.0
 40
7.0
 40
7.0
 40
8.0
 40
8.0
 40
8.0
 40
9.0
 40
9.0
 40
9.0
 40
9.0
 10
140.2312396517438
 20
260.02711697704
 30
0.0
 10
141.7705739367603
 20
260.02711697704
 30
0.0
 10
143.3101843054064
 20
260.0095276359104
 30
0.0
 10
144.8491824886127
 20
260.0317761327865
 30
0.0
 10
146.5894096267712
 20
260.0569314610694
 30
0.0
 10
147.8866065651348
 20
260.788229433091
 30
0.0
 10
148.487448568243
 20
262.4438748222008
 30
0.0
 10
149.3303799034574
 20
264.7665462167507
 30
0.0
 10
150.1775005076588
 20
267.0898741821137
 30
0.0
 10
150.927547707023
 20
269.442036181802
 30
0.0
 10
151.4840242712434
 20
271.1872116844717
 30
0.0
 10
150.9380628922137
 20
271.9716727974406
 30
0.0
 10
149.0650515319324
 20
272.0201709072882
 30
0.0
 10
145.8909540552029
 20
272.1023605004057
 30
0.0
 10
142.7131714622023
 20
272.0575021723805
 30
0.0
 10
139.5369853527982
 20
272.0488690740517
 30
0.0
 10
137.7085675004889
 20
272.043899258961
 30
0.0
 10
136.5197393884973
 20
271.1389669492672
 30
0.0
 10
135.9292565233117
 20
269.4690136042539
 30
0.0
 10
135.1374006595417
 20
267.2296018516741
 30
0.0
 10
134.3255587417283
 20
264.9959787916537
 30
0.0
 10
133.5911042656091
 20
262.7384136639575
 30
0.0
 10
132.9863370735098
 20
260.8794501797731
 30
0.0
 10
133.6199730103395
 20
260.0623764454177
 30
0.0
 10
135.6132968148756
 20
260.0298020138322
 30
0.0
 10
137.1522109726294
 20
260.0046496232263
 30
0.0
 10
138.6918933630917
 20
260.0247829926515
 30
0.0
 10
140.2312396517438
 20
260.02711697704
 30
0.0
  0
SPLINE
  5
50
330
41
100
AcDbEntity
  8
Capa 1
370
     0
100
AcDbSpline
210
0.0
220
0.0
230
1.0
 70
    11
 71
     3
 72
    62
 73
    58
 74
     0
 42
0.0000000001
 43
0.0000000001
 12
1.0
 22
0.0
 32
0.0
 13
1.0
 23
0.0
 33
0.0
 40
0.0
 40
0.0
 40
0.0
 40
0.0
 40
1.0
 40
1.0
 40
1.0
 40
2.0
 40
2.0
 40
2.0
 40
3.0
 40
3.0
 40
3.0
 40
4.0
 40
4.0
 40
4.0
 40
5.0
 40
5.0
 40
5.0
 40
6.0
 40
6.0
 40
6.0
 40
7.0
 40
7.0
 40
7.0
 40
8.0
 40
8.0
 40
8.0
 40
9.0
 40
9.0
 40
9.0
 40
10.0
 40
10.0
 40
10.0
 40
11.0
 40
11.0
 40
11.0
 40
12.0
 40
12.0
 40
12.0
 40
13.0
 40
13.0
 40
13.0
 40
14.0
 40
14.0
 40
14.0
 40
15.0
 40
15.0
 40
15.0
 40
16.0
 40
16.0
 40
16.0
 40
17.0
 40
17.0
 40
17.0
 40
18.0
 40
18.0
 40
18.0
 40
19.0
 40
19.0
 40
19.0
 40
19.0
 10
184.6120311891943
 20
260.0241087957762
 30
0.0
 10
185.656779657529
 20
260.0241087957762
 30
0.0
 10
186.5319767664797
 20
259.9677685571362
 30
0.0
 10
187.3924454139834
 20
260.05332840021
 30
0.0
 10
187.7125583804974
 20
260.0851566618337
 30
0.0
 10
188.1478582386671
 20
260.3867003944336
 30
0.0
 10
188.2723599519075
 20
260.6729182660438
 30
0.0
 10
188.6941917304141
 20
261.6425720069025
 30
0.0
 10
188.9632892436641
 20
262.6754680585481
 30
0.0
 10
189.3751820115112
 20
263.6499954055756
 30
0.0
 10
189.4879201614108
 20
263.9166953510958
 30
0.0
 10
189.870704111807
 20
264.1791518221675
 30
0.0
 10
190.1740600023778
 20
264.243959914804
 30
0.0
 10
191.1174977823443
 20
264.4455256855387
 30
0.0
 10
191.8329625062127
 20
264.1553551695039
 30
0.0
 10
192.3641954237928
 20
263.2691417377524
 30
0.0
 10
192.924753224275
 20
262.3340057018248
 30
0.0
 10
193.6540821477958
 20
261.4951740626547
 30
0.0
 10
194.3192516365612
 20
260.6212548092123
 30
0.0
 10
194.4735343708727
 20
260.4185741900505
 30
0.0
 10
194.6613912752505
 20
260.0875112099613
 30
0.0
 10
194.8427061979753
 20
260.0817004848246
 30
0.0
 10
196.2490762063263
 20
260.0366188933466
 30
0.0
 10
197.657618872807
 20
260.0568212981813
 30
0.0
 10
199.0654893356656
 20
260.0568212981813
 30
0.0
 10
199.0933377713321
 20
260.1420624032986
 30
0.0
 10
199.1211742033596
 20
260.2273035084163
 30
0.0
 10
199.149010635389
 20
260.3125431446952
 30
0.0
 10
198.019324438277
 20
261.5693283747158
 30
0.0
 10
196.8896382411644
 20
262.8261136047367
 30
0.0
 10
195.64372083606
 20
264.2122124392985
 30
0.0
 10
196.1868253497067
 20
264.2413336315523
 30
0.0
 10
196.5326741119385
 20
264.251866672491
 30
0.0
 10
196.877046426936
 20
264.2797393520131
 30
0.0
 10
198.3131374381783
 20
264.3959744184814
 30
0.0
 10
199.5037660955787
 20
264.9469739325211
 30
0.0
 10
200.0751391721538
 20
266.3081098566444
 30
0.0
 10
200.5714175015209
 20
267.490404410586
 30
0.0
 10
200.9938254545594
 20
268.71006915384
 30
0.0
 10
201.3416188058335
 20
269.9422366504721
 30
0.0
 10
201.6695461394252
 20
271.104067346324
 30
0.0
 10
201.1394295599966
 20
271.8033372946851
 30
0.0
 10
199.9322478884652
 20
271.9871550897312
 30
0.0
 10
199.5775524464555
 20
272.0411650160788
 30
0.0
 10
199.2154987755396
 20
272.0722647338021
 30
0.0
 10
198.8566860863597
 20
272.0733876608411
 30
0.0
 10
195.7779695017827
 20
272.0830225070328
 30
0.0
 10
192.6989888372117
 20
272.0649124626517
 30
0.0
 10
189.6206563689889
 20
272.1011920393728
 30
0.0
 10
188.9614886982541
 20
272.1089592574014
 30
0.0
 10
188.7137816644695
 20
271.836159225559
 30
0.0
 10
188.5242322474057
 20
271.2777934864031
 30
0.0
 10
187.5852478164187
 20
268.5118413186142
 30
0.0
 10
186.6123891244619
 20
265.7569076428906
 30
0.0
 10
185.6510179122183
 20
262.9982438517769
 30
0.0
 10
185.3272438367051
 20
262.0691799942404
 30
0.0
 10
185.0021013466816
 20
261.1405714766411
 30
0.0
 10
184.6120311891943
 20
260.0241087957762
 30
0.0
  0
SPLINE
  5
51
330
41
100
AcDbEntity
  8
Capa 1
370
     0
100
AcDbSpline
210
0.0
220
0.0
230
1.0
 70
    11
 71
     3
 72
    65
 73
    61
 74
     0
 42
0.0000000001
 43
0.0000000001
 12
1.0
 22
0.0
 32
0.0
 13
1.0
 23
0.0
 33
0.0
 40
0.0
 40
0.0
 40
0.0
 40
0.0
 40
1.0
 40
1.0
 40
1.0
 40
2.0
 40
2.0
 40
2.0
 40
3.0
 40
3.0
 40
3.0
 40
4.0
 40
4.0
 40
4.0
 40
5.0
 40
5.0
 40
5.0
 40
6.0
 40
6.0
 40
6.0
 40
7.0
 40
7.0
 40
7.0
 40
8.0
 40
8.0
 40
8.0
 40
9.0
 40
9.0
 40
9.0
 40
10.0
 40
10.0
 40
10.0
 40
11.0
 40
11.0
 40
11.0
 40
12.0
 40
12.0
 40
12.0
 40
13.0
 40
13.0
 40
13.0
 40
14.0
 40
14.0
 40
14.0
 40
15.0
 40
15.0
 40
15.0
 40
16.0
 40
16.0
 40
16.0
 40
17.0
 40
17.0
 40
17.0
 40
18.0
 40
18.0
 40
18.0
 40
19.0
 40
19.0
 40
19.0
 40
20.0
 40
20.0
 40
20.0
 40
20.0
 10
109.1505248860661
 20
264.7039487260682
 30
0.0
 10
108.5302850070808
 20
264.8326351365662
 30
0.0
 10
108.0902797235753
 20
264.9306918576631
 30
0.0
 10
107.6474895965009
 20
265.0146036639312
 30
0.0
 10
105.9008285094142
 20
265.3456167035109
 30
0.0
 10
105.9136003781852
 20
265.3390172120958
 30
0.0
 10
105.2560051837742
 20
263.6729797905442
 30
0.0
 10
105.1433990738719
 20
263.3876667234543
 30
0.0
 10
104.8716187479634
 20
262.9522222036537
 30
0.0
 10
104.662797493202
 20
262.946346849623
 30
0.0
 10
102.6879472845669
 20
262.8907806888766
 30
0.0
 10
100.7108043814432
 20
262.9132730129452
 30
0.0
 10
98.60482045064417
 20
262.9132730129452
 30
0.0
 10
99.3342454032529
 20
265.0106671767306
 30
0.0
 10
100.0003091629058
 20
266.9492343638398
 30
0.0
 10
100.6941313309531
 20
268.8782328024905
 30
0.0
 10
100.7520908876807
 20
269.0393827472668
 30
0.0
 10
100.9956746724789
 20
269.2442328409045
 30
0.0
 10
101.1554250630158
 20
269.2462583692072
 30
0.0
 10
103.1387618423476
 20
269.2714070877166
 30
0.0
 10
105.1225427562135
 20
269.2626939376889
 30
0.0
 10
107.1735980483918
 20
269.2626939376889
 30
0.0
 10
106.9628141991339
 20
268.5203370805428
 30
0.0
 10
106.7866488362814
 20
267.8999151176943
 30
0.0
 10
106.5711535598695
 20
267.1409838868274
 30
0.0
 10
107.296359234402
 20
267.2275719168562
 30
0.0
 10
107.8400879371248
 20
267.2840678523783
 30
0.0
 10
108.3812358580929
 20
267.3586202196755
 30
0.0
 10
110.3407574234765
 20
267.6285824555207
 30
0.0
 10
110.3404453289392
 20
267.6308635617234
 30
0.0
 10
110.816173433368
 20
269.5664240364073
 30
0.0
 10
111.2167347687726
 20
271.1961539733067
 30
0.0
 10
110.7486769877872
 20
271.9619336637156
 30
0.0
 10
109.061601950116
 20
272.0105096220036
 30
0.0
 10
106.2817218871316
 20
272.0905488355459
 30
0.0
 10
103.4971964169909
 20
272.0392503850837
 30
0.0
 10
100.7149936504295
 20
272.0103120632244
 30
0.0
 10
99.02492370555852
 20
271.9927337383835
 30
0.0
 10
97.99549187684009
 20
271.0445815900201
 30
0.0
 10
97.422288245767
 20
269.5698163189406
 30
0.0
 10
97.01520893597962
 20
268.5224602866058
 30
0.0
 10
96.65100061239019
 20
267.4587318458444
 30
0.0
 10
96.28491371975645
 20
266.3966147209259
 30
0.0
 10
95.8247543313012
 20
265.0615389296061
 30
0.0
 10
95.33911722530353
 20
263.7326968889132
 30
0.0
 10
94.94404755339694
 20
262.3789095638436
 30
0.0
 10
94.54134356895506
 20
260.998929910505
 30
0.0
 10
95.03809004012855
 20
260.2997436859392
 30
0.0
 10
96.47069999691374
 20
260.0714949948733
 30
0.0
 10
96.69554010399959
 20
260.0356714925088
 30
0.0
 10
96.92711425091767
 20
260.0285153112994
 30
0.0
 10
97.15559746154813
 20
260.0282861724923
 30
0.0
 10
99.64484548818763
 20
260.0257935535444
 30
0.0
 10
102.1343095802747
 20
260.0105235084188
 30
0.0
 10
104.6231734905606
 20
260.0409079017891
 30
0.0
 10
105.1683186223373
 20
260.0475646779057
 30
0.0
 10
105.7368708444365
 20
260.1505846043204
 30
0.0
 10
106.2508425333602
 20
260.329675677049
 30
0.0
 10
108.2736472680644
 20
261.0345051791614
 30
0.0
 10
108.4604118415613
 20
262.9109977820967
 30
0.0
 10
109.1505248860661
 20
264.7039487260682
 30
0.0
  0
SPLINE
  5
52
330
41
100
AcDbEntity
  8
Capa 1
370
     0
100
AcDbSpline
210
0.0
220
0.0
230
1.0
 70
    11
 71
     3
 72
    62
 73
    58
 74
     0
 42
0.0000000001
 43
0.0000000001
 12
1.0
 22
0.0
 32
0.0
 13
1.0
 23
0.0
 33
0.0
 40
0.0
 40
0.0
 40
0.0
 40
0.0
 40
1.0
 40
1.0
 40
1.0
 40
2.0
 40
2.0
 40
2.0
 40
3.0
 40
3.0
 40
3.0
 40
4.0
 40
4.0
 40
4.0
 40
5.0
 40
5.0
 40
5.0
 40
6.0
 40
6.0
 40
6.0
 40
7.0
 40
7.0
 40
7.0
 40
8.0
 40
8.0
 40
8.0
 40
9.0
 40
9.0
 40
9.0
 40
10.0
 40
10.0
 40
10.0
 40
11.0
 40
11.0
 40
11.0
 40
12.0
 40
12.0
 40
12.0
 40
13.0
 40
13.0
 40
13.0
 40
14.0
 40
14.0
 40
14.0
 40
15.0
 40
15.0
 40
15.0
 40
16.0
 40
16.0
 40
16.0
 40
17.0
 40
17.0
 40
17.0
 40
18.0
 40
18.0
 40
18.0
 40
19.0
 40
19.0
 40
19.0
 40
19.0
 10
183.9970969173494
 20
271.9556257367445
 30
0.0
 10
183.7214934333549
 20
272.0246361763516
 30
0.0
 10
183.6273849266253
 20
272.0686844399398
 30
0.0
 10
183.5331923944431
 20
272.0688401368216
 30
0.0
 10
179.7008995414994
 20
272.0751972698827
 30
0.0
 10
175.8685346667402
 20
272.0660948776507
 30
0.0
 10
172.0364098647015
 20
272.0921248992648
 30
0.0
 10
171.4170222438784
 20
272.0963316527508
 30
0.0
 10
171.2837578763113
 20
271.7412796021538
 30
0.0
 10
171.1289829929223
 20
271.2947365385895
 30
0.0
 10
169.9302878920868
 20
267.8364796546431
 30
0.0
 10
168.7186408679395
 20
264.3825257331049
 30
0.0
 10
167.5185893562293
 20
260.9247124383879
 30
0.0
 10
167.4309147984293
 20
260.6720531201628
 30
0.0
 10
167.4027182573177
 20
260.3996114849159
 30
0.0
 10
167.323590288394
 20
260.0265940705315
 30
0.0
 10
171.4894521838779
 20
260.0265940705315
 30
0.0
 10
175.5130589883857
 20
260.0236857702863
 30
0.0
 10
179.536605774713
 20
260.0371476752094
 30
0.0
 10
179.698906937913
 20
260.0376911454571
 30
0.0
 10
179.9572251859778
 20
260.1563865164258
 30
0.0
 10
180.0070282720014
 20
260.2821749085482
 30
0.0
 10
180.3321107438451
 20
261.1032145068746
 30
0.0
 10
180.6119515113694
 20
261.9414248273562
 30
0.0
 10
180.9590006372079
 20
262.9221521417246
 30
0.0
 10
177.7806418696766
 20
262.9221521417246
 30
0.0
 10
174.8192008094293
 20
262.9221521417246
 30
0.0
 10
171.7746945876309
 20
262.9221521417246
 30
0.0
 10
171.8801585340757
 20
263.2763507971483
 30
0.0
 10
171.9804008988332
 20
263.5133449526891
 30
0.0
 10
172.0187885269611
 20
263.7595810401197
 30
0.0
 10
172.1698062722627
 20
264.7284489523767
 30
0.0
 10
172.6998988444186
 20
265.0547455515082
 30
0.0
 10
173.7092005754603
 20
264.961477243946
 30
0.0
 10
174.8127788641367
 20
264.8594987240335
 30
0.0
 10
175.9357070141454
 20
264.9136709570363
 30
0.0
 10
177.0469556262651
 20
264.9659234181094
 30
0.0
 10
177.3404085170849
 20
264.9797216870502
 30
0.0
 10
177.7692384154173
 20
265.1681296024331
 30
0.0
 10
177.8808962380712
 20
265.3960639620581
 30
0.0
 10
178.1989925937261
 20
266.0454286532815
 30
0.0
 10
178.3856491344978
 20
266.7564919060208
 30
0.0
 10
178.6915137850052
 20
267.6377215687159
 30
0.0
 10
176.8637441290447
 20
267.6377215687159
 30
0.0
 10
175.1938582982124
 20
267.6377215687159
 30
0.0
 10
173.4999411879828
 20
267.6377215687159
 30
0.0
 10
173.8309294487696
 20
269.4041085682752
 30
0.0
 10
173.8309294487696
 20
269.404939196451
 30
0.0
 10
175.4224435397495
 20
269.4052469181187
 30
0.0
 10
177.7153420894963
 20
269.4056912417676
 30
0.0
 10
180.0083966865118
 20
269.392454069136
 30
0.0
 10
182.3009831417212
 20
269.4188696608583
 30
0.0
 10
182.6142780429521
 20
269.4224785970721
 30
0.0
 10
183.1030420961445
 20
269.5373564567591
 30
0.0
 10
183.2046648790488
 20
269.7445148301122
 30
0.0
 10
183.5366614452652
 20
270.4213233000134
 30
0.0
 10
183.7271711532131
 20
271.1646451840585
 30
0.0
 10
183.9970969173494
 20
271.9556257367445
 30
0.0
  0
SPLINE
  5
53
330
41
100
AcDbEntity
  8
Capa 1
370
     0
100
AcDbSpline
210
0.0
220
0.0
230
1.0
 70
    11
 71
     3
 72
    44
 73
    40
 74
     0
 42
0.0000000001
 43
0.0000000001
 12
1.0
 22
0.0
 32
0.0
 13
1.0
 23
0.0
 33
0.0
 40
0.0
 40
0.0
 40
0.0
 40
0.0
 40
1.0
 40
1.0
 40
1.0
 40
2.0
 40
2.0
 40
2.0
 40
3.0
 40
3.0
 40
3.0
 40
4.0
 40
4.0
 40
4.0
 40
5.0
 40
5.0
 40
5.0
 40
6.0
 40
6.0
 40
6.0
 40
7.0
 40
7.0
 40
7.0
 40
8.0
 40
8.0
 40
8.0
 40
9.0
 40
9.0
 40
9.0
 40
10.0
 40
10.0
 40
10.0
 40
11.0
 40
11.0
 40
11.0
 40
12.0
 40
12.0
 40
12.0
 40
13.0
 40
13.0
 40
13.0
 40
13.0
 10
155.6133951130976
 20
260.0260799770538
 30
0.0
 10
156.5681763291437
 20
260.0260799770538
 30
0.0
 10
157.316338957646
 20
260.081935498986
 30
0.0
 10
158.0517177137416
 20
260.0108819050148
 30
0.0
 10
158.8381599376466
 20
259.9348944824956
 30
0.0
 10
159.2056992702442
 20
260.1986009351369
 30
0.0
 10
159.4515337368027
 20
260.9515598686315
 30
0.0
 10
160.2783201815142
 20
263.4838844587398
 30
0.0
 10
161.21139882356
 20
265.9828531951764
 30
0.0
 10
162.0484243698326
 20
268.5121475714431
 30
0.0
 10
162.2467124339492
 20
269.1113279262123
 30
0.0
 10
162.5222198888542
 20
269.308717054651
 30
0.0
 10
163.1517265748794
 20
269.2848396158691
 30
0.0
 10
164.4274250010556
 20
269.2364502000713
 30
0.0
 10
165.70700060168
 20
269.2469685526253
 30
0.0
 10
166.9833472242036
 20
269.2851825896608
 30
0.0
 10
167.252996904711
 20
269.293256060518
 30
0.0
 10
167.6619727889959
 20
269.4603540668312
 30
0.0
 10
167.755109001205
 20
269.6642978871102
 30
0.0
 10
168.0814278475625
 20
270.3789083848458
 30
0.0
 10
168.2978053912255
 20
271.1416358288355
 30
0.0
 10
168.567839188087
 20
271.9204764312551
 30
0.0
 10
168.3296390340629
 20
271.9964073034913
 30
0.0
 10
168.2116432915683
 20
272.0666919605039
 30
0.0
 10
168.0934674945335
 20
272.0669673677243
 30
0.0
 10
163.7369398438337
 20
272.0771251204241
 30
0.0
 10
159.3804001894974
 20
272.0855114538836
 30
0.0
 10
155.023920553341
 20
272.0710411913252
 30
0.0
 10
154.8123084531955
 20
272.0703383520993
 30
0.0
 10
154.482676603284
 20
271.9097113138315
 30
0.0
 10
154.4106307796374
 20
271.7407603677415
 30
0.0
 10
154.0902897440378
 20
270.9894494710529
 30
0.0
 10
153.8438070811306
 20
270.2079642249001
 30
0.0
 10
153.5151235184676
 20
269.2808590635134
 30
0.0
 10
155.375110933621
 20
269.2808590635134
 30
0.0
 10
157.0279756085174
 20
269.2808590635134
 30
0.0
 10
158.8066383893479
 20
269.2808590635134
 30
0.0
 10
157.7317607944956
 20
266.1655972692735
 30
0.0
 10
156.7027130821317
 20
263.1831779640891
 30
0.0
 10
155.6133951130976
 20
260.0260799770538
 30
0.0
  0
SPLINE
  5
54
330
41
100
AcDbEntity
  8
Capa 1
370
     0
100
AcDbSpline
210
0.0
220
0.0
230
1.0
 70
    11
 71
     3
 72
    35
 73
    31
 74
     0
 42
0.0000000001
 43
0.0000000001
 12
1.0
 22
0.0
 32
0.0
 13
1.0
 23
0.0
 33
0.0
 40
0.0
 40
0.0
 40
0.0
 40
0.0
 40
1.0
 40
1.0
 40
1.0
 40
2.0
 40
2.0
 40
2.0
 40
3.0
 40
3.0
 40
3.0
 40
4.0
 40
4.0
 40
4.0
 40
5.0
 40
5.0
 40
5.0
 40
6.0
 40
6.0
 40
6.0
 40
7.0
 40
7.0
 40
7.0
 40
8.0
 40
8.0
 40
8.0
 40
9.0
 40
9.0
 40
9.0
 40
10.0
 40
10.0
 40
10.0
 40
10.0
 10
105.8795880754018
 20
173.7744213105597
 30
0.0
 10
105.8796000790382
 20
173.7768302057133
 30
0.0
 10
105.8796120826745
 20
173.7792508515738
 30
0.0
 10
105.8796180844921
 20
173.7816597467258
 30
0.0
 10
106.8598710162626
 20
173.7816597467258
 30
0.0
 10
107.8413003043665
 20
173.7524357357765
 30
0.0
 10
108.8200287743567
 20
173.7902612650274
 30
0.0
 10
109.7151519191723
 20
173.8248553495602
 30
0.0
 10
110.5430186911289
 20
174.1216194816558
 30
0.0
 10
110.882961664419
 20
175.0014419970606
 30
0.0
 10
111.4936586527341
 20
176.5820297384272
 30
0.0
 10
112.0668562819893
 20
178.1806313152521
 30
0.0
 10
112.5558484042672
 20
179.8006074300413
 30
0.0
 10
112.842819331612
 20
180.7512984657654
 30
0.0
 10
112.4566023413016
 20
181.239187864483
 30
0.0
 10
111.456375359124
 20
181.2596693486342
 30
0.0
 10
109.3990241598305
 20
181.3018543905756
 30
0.0
 10
107.3397403751323
 20
181.2867312293001
 30
0.0
 10
105.2818910249426
 20
181.2548163062051
 30
0.0
 10
104.3948643326521
 20
181.2410679777728
 30
0.0
 10
103.6869138849584
 20
180.8147992921302
 30
0.0
 10
103.3711462346997
 20
179.9878784644188
 30
0.0
 10
102.7889098674881
 20
178.4630713342208
 30
0.0
 10
102.2259873507027
 20
176.9278648273886
 30
0.0
 10
101.7465021081868
 20
175.3700029554133
 30
0.0
 10
101.4313826542746
 20
174.3461637620055
 30
0.0
 10
101.8434134639372
 20
173.8383804145391
 30
0.0
 10
102.9391113655385
 20
173.784526919493
 30
0.0
 10
103.9169815755503
 20
173.7364665235212
 30
0.0
 10
104.8992571199972
 20
173.7744213105597
 30
0.0
 10
105.8795880754018
 20
173.7744213105597
 30
0.0
  0
SPLINE
  5
55
330
41
100
AcDbEntity
  8
Capa 1
370
     0
100
AcDbSpline
210
0.0
220
0.0
230
1.0
 70
    11
 71
     3
 72
    35
 73
    31
 74
     0
 42
0.0000000001
 43
0.0000000001
 12
1.0
 22
0.0
 32
0.0
 13
1.0
 23
0.0
 33
0.0
 40
0.0
 40
0.0
 40
0.0
 40
0.0
 40
1.0
 40
1.0
 40
1.0
 40
2.0
 40
2.0
 40
2.0
 40
3.0
 40
3.0
 40
3.0
 40
4.0
 40
4.0
 40
4.0
 40
5.0
 40
5.0
 40
5.0
 40
6.0
 40
6.0
 40
6.0
 40
7.0
 40
7.0
 40
7.0
 40
8.0
 40
8.0
 40
8.0
 40
9.0
 40
9.0
 40
9.0
 40
10.0
 40
10.0
 40
10.0
 40
10.0
 10
96.19338599477992
 20
181.2818899375785
 30
0.0
 10
96.19336798932667
 20
181.2772719093107
 30
0.0
 10
96.19334998387184
 20
181.2726421303344
 30
0.0
 10
96.19333197841796
 20
181.2680241020658
 30
0.0
 10
95.18021309110809
 20
181.2680241020658
 30
0.0
 10
94.16647001472445
 20
181.2898569176446
 30
0.0
 10
93.15416137284856
 20
181.2617492239615
 30
0.0
 10
92.18370940992355
 20
181.2347930996679
 30
0.0
 10
91.45652913725849
 20
180.7841886976296
 30
0.0
 10
91.11924496935684
 20
179.8762702392493
 30
0.0
 10
90.5730075066978
 20
178.4058923887927
 30
0.0
 10
90.02698610948696
 20
176.9328588783142
 30
0.0
 10
89.56389783383317
 20
175.4363239517126
 30
0.0
 10
89.23138511126596
 20
174.3617452008949
 30
0.0
 10
89.64166339006333
 20
173.8060307152455
 30
0.0
 10
90.77532879253002
 20
173.7820945229241
 30
0.0
 10
92.73548655062507
 20
173.7407085291316
 30
0.0
 10
94.69792499957218
 20
173.7571477697095
 30
0.0
 10
96.65842486129483
 20
173.7964068853429
 30
0.0
 10
97.60023014675706
 20
173.8152550210744
 30
0.0
 10
98.40638234107713
 20
174.1960249651023
 30
0.0
 10
98.75123480151606
 20
175.1156353780034
 30
0.0
 10
99.32401830532753
 20
176.643074666807
 30
0.0
 10
99.88052487863851
 20
178.1796560064832
 30
0.0
 10
100.3521837504413
 20
179.73896321555
 30
0.0
 10
100.6644463389709
 20
180.7712746694696
 30
0.0
 10
100.2708231052097
 20
181.2255570431318
 30
0.0
 10
99.1347509737125
 20
181.27333542211
 30
0.0
 10
98.15598049099572
 20
181.3144981524498
 30
0.0
 10
97.17396902654207
 20
181.2818899375785
 30
0.0
 10
96.19338599477992
 20
181.2818899375785
 30
0.0
  0
SPLINE
  5
56
330
41
100
AcDbEntity
  8
Capa 1
370
     0
100
AcDbSpline
210
0.0
220
0.0
230
1.0
 70
    11
 71
     3
 72
    65
 73
    61
 74
     0
 42
0.0000000001
 43
0.0000000001
 12
1.0
 22
0.0
 32
0.0
 13
1.0
 23
0.0
 33
0.0
 40
0.0
 40
0.0
 40
0.0
 40
0.0
 40
1.0
 40
1.0
 40
1.0
 40
2.0
 40
2.0
 40
2.0
 40
3.0
 40
3.0
 40
3.0
 40
4.0
 40
4.0
 40
4.0
 40
5.0
 40
5.0
 40
5.0
 40
6.0
 40
6.0
 40
6.0
 40
7.0
 40
7.0
 40
7.0
 40
8.0
 40
8.0
 40
8.0
 40
9.0
 40
9.0
 40
9.0
 40
10.0
 40
10.0
 40
10.0
 40
11.0
 40
11.0
 40
11.0
 40
12.0
 40
12.0
 40
12.0
 40
13.0
 40
13.0
 40
13.0
 40
14.0
 40
14.0
 40
14.0
 40
15.0
 40
15.0
 40
15.0
 40
16.0
 40
16.0
 40
16.0
 40
17.0
 40
17.0
 40
17.0
 40
18.0
 40
18.0
 40
18.0
 40
19.0
 40
19.0
 40
19.0
 40
20.0
 40
20.0
 40
20.0
 40
20.0
 10
74.72168992984145
 20
178.6845604304743
 30
0.0
 10
75.17187429672889
 20
178.7711396474721
 30
0.0
 10
75.54753408912207
 20
178.89815305091
 30
0.0
 10
75.92558260509186
 20
178.9053679856599
 30
0.0
 10
76.8858494828184
 20
178.9237460930682
 30
0.0
 10
77.0525859895444
 20
179.5603877051377
 30
0.0
 10
77.04663818787537
 20
180.2737966929739
 30
0.0
 10
77.0399401589525
 20
181.0767578269475
 30
0.0
 10
76.4219809708199
 20
181.2599161135037
 30
0.0
 10
75.75411066393919
 20
181.274651501413
 30
0.0
 10
74.54251165433666
 20
181.3013608608371
 30
0.0
 10
73.33010239930049
 20
181.2984701866537
 30
0.0
 10
72.11803524789126
 20
181.2983056767409
 30
0.0
 10
69.63672762650786
 20
181.297953155499
 30
0.0
 10
69.20959024086058
 20
180.9915886949169
 30
0.0
 10
68.45915892514255
 20
178.6975097107577
 30
0.0
 10
67.96411697028984
 20
177.1841477702116
 30
0.0
 10
68.34070704447822
 20
176.6585621000322
 30
0.0
 10
69.94022756071134
 20
176.6496668140299
 30
0.0
 10
71.21171871244798
 20
176.6425928877769
 30
0.0
 10
72.48327588418229
 20
176.6482449783546
 30
0.0
 10
73.76557030837493
 20
176.6482449783546
 30
0.0
 10
73.78721286419533
 20
176.0039889074605
 30
0.0
 10
73.62312916103953
 20
175.6676836427373
 30
0.0
 10
72.94218089266926
 20
175.6890934328259
 30
0.0
 10
71.76532640764938
 20
175.726131664636
 30
0.0
 10
70.58637728813667
 20
175.6993753023795
 30
0.0
 10
69.35425206086789
 20
175.6993753023795
 30
0.0
 10
69.53570502540592
 20
177.0568758511964
 30
0.0
 10
68.65606657111104
 20
176.286323170057
 30
0.0
 10
68.1701413778484
 20
176.3108116456571
 30
0.0
 10
67.06875975457187
 20
176.3663337412484
 30
0.0
 10
66.9882993820446
 20
175.5399534461078
 30
0.0
 10
66.96681287349257
 20
174.8194000277706
 30
0.0
 10
66.94164725048786
 20
173.9754641747863
 30
0.0
 10
67.63467117673694
 20
173.7876056050054
 30
0.0
 10
68.33164429925078
 20
173.778475304841
 30
0.0
 10
69.96934838179898
 20
173.7570185119206
 30
0.0
 10
71.60801275523262
 20
173.7517071918768
 30
0.0
 10
73.24543475233337
 20
173.7829993274447
 30
0.0
 10
74.40981745948423
 20
173.8052551685134
 30
0.0
 10
75.22721105897708
 20
174.3557640904916
 30
0.0
 10
75.5997499059943
 20
175.4712000532396
 30
0.0
 10
75.74186695515566
 20
175.8967284442748
 30
0.0
 10
75.90940170368025
 20
176.3147011300256
 30
0.0
 10
76.03679029139259
 20
176.7442247618013
 30
0.0
 10
76.43305432508733
 20
178.0804565290271
 30
0.0
 10
76.03583600232533
 20
178.5888861654365
 30
0.0
 10
74.59373116941536
 20
178.5958895874414
 30
0.0
 10
73.29529785653706
 20
178.6021997176701
 30
0.0
 10
71.99681052729646
 20
178.5972291681603
 30
0.0
 10
70.69837721441782
 20
178.5972291681603
 30
0.0
 10
70.61436976743448
 20
179.2926360712458
 30
0.0
 10
70.86619404838987
 20
179.5234552297005
 30
0.0
 10
71.45899961715313
 20
179.5096128956034
 30
0.0
 10
72.50577669998174
 20
179.4851596721273
 30
0.0
 10
73.55357409187593
 20
179.5027622328031
 30
0.0
 10
74.65001621891233
 20
179.5027622328031
 30
0.0
 10
74.67285913833936
 20
179.241943516668
 30
0.0
 10
74.6929472232898
 20
179.0126401995541
 30
0.0
 10
74.72168992984145
 20
178.6845604304743
 30
0.0
  0
SPLINE
  5
57
330
41
100
AcDbEntity
  8
Capa 1
370
     0
100
AcDbSpline
210
0.0
220
0.0
230
1.0
 70
    11
 71
     3
 72
    41
 73
    37
 74
     0
 42
0.0000000001
 43
0.0000000001
 12
1.0
 22
0.0
 32
0.0
 13
1.0
 23
0.0
 33
0.0
 40
0.0
 40
0.0
 40
0.0
 40
0.0
 40
1.0
 40
1.0
 40
1.0
 40
2.0
 40
2.0
 40
2.0
 40
3.0
 40
3.0
 40
3.0
 40
4.0
 40
4.0
 40
4.0
 40
5.0
 40
5.0
 40
5.0
 40
6.0
 40
6.0
 40
6.0
 40
7.0
 40
7.0
 40
7.0
 40
8.0
 40
8.0
 40
8.0
 40
9.0
 40
9.0
 40
9.0
 40
10.0
 40
10.0
 40
10.0
 40
11.0
 40
11.0
 40
11.0
 40
12.0
 40
12.0
 40
12.0
 40
12.0
 10
139.8289858036544
 20
176.3091900479449
 30
0.0
 10
141.8602050872383
 20
176.6348726725801
 30
0.0
 10
142.1872681590334
 20
176.9124713998273
 30
0.0
 10
142.8040269835597
 20
178.6991430591786
 30
0.0
 10
142.8772611671766
 20
178.911290342523
 30
0.0
 10
142.9533882270843
 20
179.1226033255945
 30
0.0
 10
143.0205365672186
 20
179.3365954701045
 30
0.0
 10
143.4667357269333
 20
180.7584663976828
 30
0.0
 10
143.1087993031856
 20
181.2779299489617
 30
0.0
 10
141.6161231515444
 20
181.2953092461858
 30
0.0
 10
139.7826877793613
 20
181.3166485320251
 30
0.0
 10
137.9484361599264
 20
181.2808676259778
 30
0.0
 10
136.1153608968242
 20
181.3138283620903
 30
0.0
 10
135.5594244962266
 20
181.3238164639426
 30
0.0
 10
135.3081883934389
 20
181.1333962398044
 30
0.0
 10
135.1381928995215
 20
180.6242145580791
 30
0.0
 10
134.4682099526944
 20
178.6173346296534
 30
0.0
 10
133.7515088543116
 20
176.6254368540066
 30
0.0
 10
133.0651049333514
 20
174.6237272371283
 30
0.0
 10
132.9797350736745
 20
174.3747649854275
 30
0.0
 10
132.9718966993261
 20
174.1003389493563
 30
0.0
 10
132.9037520574004
 20
173.6914848130609
 30
0.0
 10
133.8490263936834
 20
173.9992593586107
 30
0.0
 10
134.9579463004086
 20
173.1647123213676
 30
0.0
 10
135.3752887190285
 20
174.607605265668
 30
0.0
 10
135.5600726925734
 20
175.2464795122693
 30
0.0
 10
135.9161725600033
 20
176.1444921237537
 30
0.0
 10
136.41854873649
 20
176.323972438686
 30
0.0
 10
137.4200961186358
 20
176.6818050005786
 30
0.0
 10
137.6636618979789
 20
175.523302692785
 30
0.0
 10
138.1335562352821
 20
174.9455791309362
 30
0.0
 10
139.1387527227894
 20
173.709710161265
 30
0.0
 10
140.0314271258482
 20
173.4142386070556
 30
0.0
 10
141.8894939592319
 20
173.9817155514745
 30
0.0
 10
141.2047945545909
 20
174.7551119039655
 30
0.0
 10
140.5607514652957
 20
175.4826099907675
 30
0.0
 10
139.8289858036544
 20
176.3091900479449
 30
0.0
  0
SPLINE
  5
58
330
41
100
AcDbEntity
  8
Capa 1
370
     0
100
AcDbSpline
210
0.0
220
0.0
230
1.0
 70
    11
 71
     3
 72
    56
 73
    52
 74
     0
 42
0.0000000001
 43
0.0000000001
 12
1.0
 22
0.0
 32
0.0
 13
1.0
 23
0.0
 33
0.0
 40
0.0
 40
0.0
 40
0.0
 40
0.0
 40
1.0
 40
1.0
 40
1.0
 40
2.0
 40
2.0
 40
2.0
 40
3.0
 40
3.0
 40
3.0
 40
4.0
 40
4.0
 40
4.0
 40
5.0
 40
5.0
 40
5.0
 40
6.0
 40
6.0
 40
6.0
 40
7.0
 40
7.0
 40
7.0
 40
8.0
 40
8.0
 40
8.0
 40
9.0
 40
9.0
 40
9.0
 40
10.0
 40
10.0
 40
10.0
 40
11.0
 40
11.0
 40
11.0
 40
12.0
 40
12.0
 40
12.0
 40
13.0
 40
13.0
 40
13.0
 40
14.0
 40
14.0
 40
14.0
 40
15.0
 40
15.0
 40
15.0
 40
16.0
 40
16.0
 40
16.0
 40
17.0
 40
17.0
 40
17.0
 40
17.0
 10
85.46371983488307
 20
178.1580582050655
 30
0.0
 10
86.08768684286483
 20
178.2343320510938
 30
0.0
 10
86.62321106033825
 20
178.285976413025
 30
0.0
 10
87.15375977066378
 20
178.3682783722877
 30
0.0
 10
87.76839995342517
 20
178.4636236174999
 30
0.0
 10
88.29154242030026
 20
179.3507668240263
 30
0.0
 10
88.25723002661526
 20
180.2349018492899
 30
0.0
 10
88.2292315454996
 20
180.9562073129437
 30
0.0
 10
87.76315436446554
 20
181.2596693486342
 30
0.0
 10
87.09433577033636
 20
181.2648866630138
 30
0.0
 10
85.32785668010993
 20
181.2786819942779
 30
0.0
 10
83.56039329172633
 20
181.2900919318058
 30
0.0
 10
81.79482047602211
 20
181.2455920003768
 30
0.0
 10
80.90257820386223
 20
181.2231011451467
 30
0.0
 10
80.23706661146791
 20
180.7459518935975
 30
0.0
 10
79.92700068833787
 20
179.9158818761256
 30
0.0
 10
79.37726416576625
 20
178.4441879463656
 30
0.0
 10
78.8270054850266
 20
176.9700381186213
 30
0.0
 10
78.36071223854307
 20
175.4719403478474
 30
0.0
 10
78.00891567464188
 20
174.341663240818
 30
0.0
 10
78.4178135352925
 20
173.8182044487974
 30
0.0
 10
79.63277956481035
 20
173.7807549422052
 30
0.0
 10
81.10417326971297
 20
173.735385458379
 30
0.0
 10
82.57863990544872
 20
173.7366192827256
 30
0.0
 10
84.05058577760961
 20
173.769239248305
 30
0.0
 10
85.9675304458794
 20
173.8117180579474
 30
0.0
 10
86.91135234219979
 20
174.7867448100672
 30
0.0
 10
86.98215578951448
 20
176.7650587671946
 30
0.0
 10
86.77886220916079
 20
176.8219674463373
 30
0.0
 10
86.56191449278532
 20
176.8744931113722
 30
0.0
 10
86.35051245627083
 20
176.9433405099059
 30
0.0
 10
85.5213372879833
 20
177.2133835318688
 30
0.0
 10
84.81374094755388
 20
177.2760970607938
 30
0.0
 10
84.61706137067088
 20
176.1577234210309
 30
0.0
 10
84.58642208962071
 20
175.9834721711854
 30
0.0
 10
84.29106062066732
 20
175.7319835172505
 30
0.0
 10
84.10973969612527
 20
175.7250270980786
 30
0.0
 10
83.04173418292037
 20
175.6840053762351
 30
0.0
 10
81.97125592068663
 20
175.7048393816287
 30
0.0
 10
80.75605582026544
 20
175.7048393816287
 30
0.0
 10
81.16647814269547
 20
176.9093457114834
 30
0.0
 10
81.52068143562715
 20
177.9972497652431
 30
0.0
 10
81.92013843651432
 20
179.0689730940015
 30
0.0
 10
81.97989253683299
 20
179.2292880040856
 30
0.0
 10
82.24880999554134
 20
179.4119527609034
 30
0.0
 10
82.42621173290851
 20
179.4172993330716
 30
0.0
 10
83.49917474780774
 20
179.4496020295331
 30
0.0
 10
84.57366222448606
 20
179.433362550992
 30
0.0
 10
85.70493290155827
 20
179.433362550992
 30
0.0
 10
85.62077540912473
 20
178.9884219902391
 30
0.0
 10
85.5572401634457
 20
178.6525044988827
 30
0.0
 10
85.46371983488307
 20
178.1580582050655
 30
0.0
  0
SPLINE
  5
59
330
41
100
AcDbEntity
  8
Capa 1
370
     0
100
AcDbSpline
210
0.0
220
0.0
230
1.0
 70
    11
 71
     3
 72
    47
 73
    43
 74
     0
 42
0.0000000001
 43
0.0000000001
 12
1.0
 22
0.0
 32
0.0
 13
1.0
 23
0.0
 33
0.0
 40
0.0
 40
0.0
 40
0.0
 40
0.0
 40
1.0
 40
1.0
 40
1.0
 40
2.0
 40
2.0
 40
2.0
 40
3.0
 40
3.0
 40
3.0
 40
4.0
 40
4.0
 40
4.0
 40
5.0
 40
5.0
 40
5.0
 40
6.0
 40
6.0
 40
6.0
 40
7.0
 40
7.0
 40
7.0
 40
8.0
 40
8.0
 40
8.0
 40
9.0
 40
9.0
 40
9.0
 40
10.0
 40
10.0
 40
10.0
 40
11.0
 40
11.0
 40
11.0
 40
12.0
 40
12.0
 40
12.0
 40
13.0
 40
13.0
 40
13.0
 40
14.0
 40
14.0
 40
14.0
 40
14.0
 10
122.5525965534609
 20
173.7605789764635
 30
0.0
 10
124.7063129430624
 20
173.7605789764635
 30
0.0
 10
126.8241864753823
 20
173.7611782625743
 30
0.0
 10
128.9420480040665
 20
173.760379214426
 30
0.0
 10
130.4498487371472
 20
173.7598034297314
 30
0.0
 10
130.7217070866895
 20
174.0331836527844
 30
0.0
 10
130.7666487001073
 20
175.6866845376735
 30
0.0
 10
129.0085121369443
 20
175.6866845376735
 30
0.0
 10
127.2502195265121
 20
175.6866845376735
 30
0.0
 10
125.4845806908102
 20
175.6866845376735
 30
0.0
 10
125.4516907279979
 20
176.5198567420732
 30
0.0
 10
125.7375813280983
 20
176.9176652127907
 30
0.0
 10
126.5721101180706
 20
176.8175374293978
 30
0.0
 10
126.9591553592692
 20
176.7710986311391
 30
0.0
 10
127.3568838365636
 20
176.8103459960641
 30
0.0
 10
127.7497628448891
 20
176.8100874804867
 30
0.0
 10
129.1085144289807
 20
176.8092179280901
 30
0.0
 10
129.3503876956403
 20
177.0608475905213
 30
0.0
 10
129.3606988190176
 20
178.5912480577567
 30
0.0
 10
128.3998197558526
 20
178.5912480577567
 30
0.0
 10
127.436023809123
 20
178.5912480577567
 30
0.0
 10
126.4756128877647
 20
178.5912480577567
 30
0.0
 10
126.4400941286562
 20
179.2947276972809
 30
0.0
 10
126.6848842788767
 20
179.5585193425559
 30
0.0
 10
127.3380501315814
 20
179.5355702097116
 30
0.0
 10
128.5151746984121
 20
179.4942312187509
 30
0.0
 10
129.6948440360891
 20
179.5243600342208
 30
0.0
 10
130.8734570537917
 20
179.5214223572056
 30
0.0
 10
132.4395714508639
 20
179.5175211221293
 30
0.0
 10
132.4952563185566
 20
179.5667095860751
 30
0.0
 10
132.696185182607
 20
181.2838758072413
 30
0.0
 10
130.2083115722977
 20
181.2838758072413
 30
0.0
 10
127.7323215616894
 20
181.2914667646494
 30
0.0
 10
125.2567036638003
 20
181.2655094505415
 30
0.0
 10
125.1039333876328
 20
181.2639113542449
 30
0.0
 10
124.8759123169906
 20
181.024384921117
 30
0.0
 10
124.8146697657993
 20
180.8509562208356
 30
0.0
 10
124.0353697053512
 20
178.6444787652761
 30
0.0
 10
123.2783603970709
 20
176.4304338537247
 30
0.0
 10
122.5246880996153
 20
174.2153548798639
 30
0.0
 10
122.4887492132442
 20
174.1097042636819
 30
0.0
 10
122.5366677284053
 20
173.9766979991329
 30
0.0
 10
122.5525965534609
 20
173.7605789764635
 30
0.0
  0
SPLINE
  5
5A
330
41
100
AcDbEntity
  8
Capa 1
370
     0
100
AcDbSpline
210
0.0
220
0.0
230
1.0
 70
    11
 71
     3
 72
    35
 73
    31
 74
     0
 42
0.0000000001
 43
0.0000000001
 12
1.0
 22
0.0
 32
0.0
 13
1.0
 23
0.0
 33
0.0
 40
0.0
 40
0.0
 40
0.0
 40
0.0
 40
1.0
 40
1.0
 40
1.0
 40
2.0
 40
2.0
 40
2.0
 40
3.0
 40
3.0
 40
3.0
 40
4.0
 40
4.0
 40
4.0
 40
5.0
 40
5.0
 40
5.0
 40
6.0
 40
6.0
 40
6.0
 40
7.0
 40
7.0
 40
7.0
 40
8.0
 40
8.0
 40
8.0
 40
9.0
 40
9.0
 40
9.0
 40
10.0
 40
10.0
 40
10.0
 40
10.0
 10
123.1173076120203
 20
181.3010318410111
 30
0.0
 10
122.763764519073
 20
181.3010318410111
 30
0.0
 10
122.413138309686
 20
181.3010083395952
 30
0.0
 10
122.0625241039373
 20
181.3010553424276
 30
0.0
 10
119.9656929456358
 20
181.3012903565885
 30
0.0
 10
117.8688737909693
 20
181.3020659033209
 30
0.0
 10
115.7720426326678
 20
181.3015841242901
 30
0.0
 10
114.3498758392559
 20
181.3012551044648
 30
0.0
 10
114.1067061799033
 20
181.0482153570657
 30
0.0
 10
114.0970792637806
 20
179.4428453723973
 30
0.0
 10
115.0571180724216
 20
179.4428453723973
 30
0.0
 10
116.0201457864436
 20
179.4428453723973
 30
0.0
 10
117.0872090142163
 20
179.4428453723973
 30
0.0
 10
116.4320985724712
 20
177.5039197886925
 30
0.0
 10
115.8241984313586
 20
175.7047688773798
 30
0.0
 10
115.1673714696554
 20
173.7607669877926
 30
0.0
 10
115.6894216056487
 20
173.7607669877926
 30
0.0
 10
116.0191854955569
 20
173.8069355197661
 30
0.0
 10
116.3303317459326
 20
173.7520244609947
 30
0.0
 10
117.2185888109216
 20
173.5952582647449
 30
0.0
 10
117.6167734263856
 20
173.9895180216277
 30
0.0
 10
117.8368000754101
 20
174.8003168778785
 30
0.0
 10
118.0964627307139
 20
175.7571182817948
 30
0.0
 10
118.4718884522047
 20
176.6840963886505
 30
0.0
 10
118.8034768947936
 20
177.6218381440906
 30
0.0
 10
119.4508089803714
 20
179.4524574515918
 30
0.0
 10
119.4526455366891
 20
179.4518346640648
 30
0.0
 10
121.3841146045942
 20
179.4340323413511
 30
0.0
 10
122.8245509320927
 20
179.4207540412418
 30
0.0
 10
123.0397761266925
 20
179.6378013698474
 30
0.0
 10
123.1173076120203
 20
181.3010318410111
 30
0.0
  0
SPLINE
  5
5B
330
41
100
AcDbEntity
  8
Capa 1
370
     0
100
AcDbSpline
210
0.0
220
0.0
230
1.0
 70
    11
 71
     3
 72
   107
 73
   103
 74
     0
 42
0.0000000001
 43
0.0000000001
 12
1.0
 22
0.0
 32
0.0
 13
1.0
 23
0.0
 33
0.0
 40
0.0
 40
0.0
 40
0.0
 40
0.0
 40
1.0
 40
1.0
 40
1.0
 40
2.0
 40
2.0
 40
2.0
 40
3.0
 40
3.0
 40
3.0
 40
4.0
 40
4.0
 40
4.0
 40
5.0
 40
5.0
 40
5.0
 40
6.0
 40
6.0
 40
6.0
 40
7.0
 40
7.0
 40
7.0
 40
8.0
 40
8.0
 40
8.0
 40
9.0
 40
9.0
 40
9.0
 40
10.0
 40
10.0
 40
10.0
 40
11.0
 40
11.0
 40
11.0
 40
12.0
 40
12.0
 40
12.0
 40
13.0
 40
13.0
 40
13.0
 40
14.0
 40
14.0
 40
14.0
 40
15.0
 40
15.0
 40
15.0
 40
16.0
 40
16.0
 40
16.0
 40
17.0
 40
17.0
 40
17.0
 40
18.0
 40
18.0
 40
18.0
 40
19.0
 40
19.0
 40
19.0
 40
20.0
 40
20.0
 40
20.0
 40
21.0
 40
21.0
 40
21.0
 40
22.0
 40
22.0
 40
22.0
 40
23.0
 40
23.0
 40
23.0
 40
24.0
 40
24.0
 40
24.0
 40
25.0
 40
25.0
 40
25.0
 40
26.0
 40
26.0
 40
26.0
 40
27.0
 40
27.0
 40
27.0
 40
28.0
 40
28.0
 40
28.0
 40
29.0
 40
29.0
 40
29.0
 40
30.0
 40
30.0
 40
30.0
 40
31.0
 40
31.0
 40
31.0
 40
32.0
 40
32.0
 40
32.0
 40
33.0
 40
33.0
 40
33.0
 40
34.0
 40
34.0
 40
34.0
 40
34.0
 10
158.7071162427533
 20
152.9149873850898
 30
0.0
 10
156.8403227659525
 20
152.9149873850898
 30
0.0
 10
155.0142336190397
 20
152.8969147960907
 30
0.0
 10
153.1898849993546
 20
152.9438001212564
 30
0.0
 10
153.0131314583345
 20
152.9483358945682
 30
0.0
 10
152.7083711423455
 20
153.3482947448614
 30
0.0
 10
152.6967876335448
 20
153.5760822206354
 30
0.0
 10
152.4909972968887
 20
157.6241071421937
 30
0.0
 10
148.7554657542454
 20
161.0725639356169
 30
0.0
 10
144.5646843102961
 20
161.5999827162534
 30
0.0
 10
139.9557081895648
 20
162.1800329182988
 30
0.0
 10
135.7309564555595
 20
159.9116997355027
 30
0.0
 10
134.1245938667702
 20
155.9355186430329
 30
0.0
 10
133.7958262786546
 20
155.1217351069345
 30
0.0
 10
133.6393948934893
 20
154.2035465297087
 30
0.0
 10
133.5971420945482
 20
153.3245583145765
 30
0.0
 10
133.5160095184024
 20
151.6366748578995
 30
0.0
 10
133.5735309424141
 20
149.9424107667452
 30
0.0
 10
133.5735309424141
 20
148.0713220206796
 30
0.0
 10
107.9555989269536
 20
148.0713220206796
 30
0.0
 10
82.43223755821222
 20
148.0713220206796
 30
0.0
 10
56.74199563911089
 20
148.0713220206796
 30
0.0
 10
54.40359730686991
 20
151.5053019417711
 30
0.0
 10
51.93657101149147
 20
155.1281627442442
 30
0.0
 10
49.31671742267515
 20
158.9754620706941
 30
0.0
 10
52.38253610030304
 20
158.9754620706941
 30
0.0
 10
55.25540233004409
 20
158.9754620706941
 30
0.0
 10
58.25010246491117
 20
158.9754620706941
 30
0.0
 10
55.19153098255627
 20
161.9176631086991
 30
0.0
 10
52.29347812344626
 20
164.7054598427744
 30
0.0
 10
49.39778097791388
 20
167.4909769394861
 30
0.0
 10
49.09135215651123
 20
166.3670099626854
 30
0.0
 10
48.7186542613159
 20
165.0022239748709
 30
0.0
 10
48.34725876063394
 20
163.6370854658136
 30
0.0
 10
47.96854704377191
 20
162.2450495860035
 30
0.0
 10
47.62826496776371
 20
160.8414275080453
 30
0.0
 10
47.19423149319829
 20
159.4661363872228
 30
0.0
 10
47.02839826008636
 20
158.94069172554
 30
0.0
 10
47.14583583350358
 20
158.6667474684999
 30
0.0
 10
47.5483147497697
 20
158.3285385890709
 30
0.0
 10
50.34637732047842
 20
155.977257158068
 30
0.0
 10
51.30580694459017
 20
152.2631991103283
 30
0.0
 10
50.01861503688367
 20
148.895504933413
 30
0.0
 10
48.74356480705494
 20
145.5595729203877
 30
0.0
 10
45.37379305796198
 20
143.3062923946188
 30
0.0
 10
41.71533086065704
 20
143.3433306264286
 30
0.0
 10
37.48783029399259
 20
143.3861267051889
 30
0.0
 10
33.93620345855291
 20
146.415294733558
 30
0.0
 10
33.20324943694201
 20
150.603235336006
 30
0.0
 10
32.51728064778786
 20
154.5227192620781
 30
0.0
 10
34.92594826553949
 20
158.5762905178417
 30
0.0
 10
38.8303649657648
 20
159.8979396563624
 30
0.0
 10
39.72001745344433
 20
160.1990868025657
 30
0.0
 10
40.0976068303347
 20
160.6524761224144
 30
0.0
 10
40.32981116814506
 20
161.5079511707152
 30
0.0
 10
46.1833602867418
 20
183.0735615232095
 30
0.0
 10
52.06404062374821
 20
204.6321097001597
 30
0.0
 10
57.93784587820009
 20
226.192455735443
 30
0.0
 10
58.01205835815603
 20
226.4648488990189
 30
0.0
 10
58.05897456970635
 20
226.7443688670346
 30
0.0
 10
58.14207574216685
 20
227.1291105503875
 30
0.0
 10
53.79001944590036
 20
228.3007325237316
 30
0.0
 10
49.48758017929756
 20
229.45899394201
 30
0.0
 10
45.11057732638395
 20
230.6373314450111
 30
0.0
 10
45.74854357492355
 20
232.9197478514195
 30
0.0
 10
46.36627469397065
 20
235.1297652077827
 30
0.0
 10
47.00780902332991
 20
237.4249458208228
 30
0.0
 10
53.69280799924805
 20
235.6536352745854
 30
0.0
 10
60.27573405590908
 20
233.909371920629
 30
0.0
 10
66.98872551112471
 20
232.1306408022505
 30
0.0
 10
66.67036507547559
 20
230.9127856680377
 30
0.0
 10
66.37666611011673
 20
229.7457229694212
 30
0.0
 10
66.06005220351497
 20
228.5846531319162
 30
0.0
 10
61.3281168367788
 20
211.2320887696429
 30
0.0
 10
56.59646655639919
 20
193.8794597784754
 30
0.0
 10
51.84463816379812
 20
176.5321127305818
 30
0.0
 10
51.6856019896067
 20
175.9515454973817
 30
0.0
 10
51.7984301667757
 20
175.5823382500861
 30
0.0
 10
52.21621371902113
 20
175.1738483857406
 30
0.0
 10
57.52545495945571
 20
169.9828673431542
 30
0.0
 10
62.81674176124919
 20
164.774260238475
 30
0.0
 10
68.13454459510487
 20
159.5917162042773
 30
0.0
 10
68.39694407943043
 20
159.3359972954407
 30
0.0
 10
68.86091462233564
 20
159.1479624650389
 30
0.0
 10
69.23125680395366
 20
159.1475629409646
 30
0.0
 10
88.89552937605616
 20
159.126446918578
 30
0.0
 10
108.5598139517944
 20
159.1320872584475
 30
0.0
 10
128.2240985275329
 20
159.114296686442
 30
0.0
 10
128.8218916070804
 20
159.1137679045792
 30
0.0
 10
129.0561305612038
 20
159.3586644112912
 30
0.0
 10
129.3183860018973
 20
159.8233226601712
 30
0.0
 10
132.2496619247187
 20
165.0171003712765
 30
0.0
 10
138.6450071606316
 20
168.22725280521
 30
0.0
 10
144.6001430512248
 20
167.5242666954246
 30
0.0
 10
151.43833843239
 20
166.7170165530085
 30
0.0
 10
156.5466177987745
 20
162.6389098188124
 30
0.0
 10
158.2341009600745
 20
156.6019130479143
 30
0.0
 10
158.4662392778869
 20
155.7714317556606
 30
0.0
 10
158.5673579080774
 20
154.904147245758
 30
0.0
 10
158.6994939338534
 20
154.0495064977292
 30
0.0
 10
158.7470043253888
 20
153.7422254819182
 30
0.0
 10
158.7071162427533
 20
153.4219951858235
 30
0.0
 10
158.7071162427533
 20
152.9149873850898
 30
0.0
  0
HATCH
  5
5C
330
41
100
AcDbEntity
  8
Capa 1
 62
     7
420
 16777215
100
AcDbHatch
 10
0.0
 20
0.0
 30
0.0
210
0.0
220
0.0
230
1.0
  2
SOLID
 70
     1
 71
     0
 91
        1
 92
        1
 93
        1
 72
     4
 94
        3
 73
     0
 74
     1
 95
      107
 96
      103
 40
0.0
 40
0.0
 40
0.0
 40
0.0
 40
1.0
 40
1.0
 40
1.0
 40
2.0
 40
2.0
 40
2.0
 40
3.0
 40
3.0
 40
3.0
 40
4.0
 40
4.0
 40
4.0
 40
5.0
 40
5.0
 40
5.0
 40
6.0
 40
6.0
 40
6.0
 40
7.0
 40
7.0
 40
7.0
 40
8.0
 40
8.0
 40
8.0
 40
9.0
 40
9.0
 40
9.0
 40
10.0
 40
10.0
 40
10.0
 40
11.0
 40
11.0
 40
11.0
 40
12.0
 40
12.0
 40
12.0
 40
13.0
 40
13.0
 40
13.0
 40
14.0
 40
14.0
 40
14.0
 40
15.0
 40
15.0
 40
15.0
 40
16.0
 40
16.0
 40
16.0
 40
17.0
 40
17.0
 40
17.0
 40
18.0
 40
18.0
 40
18.0
 40
19.0
 40
19.0
 40
19.0
 40
20.0
 40
20.0
 40
20.0
 40
21.0
 40
21.0
 40
21.0
 40
22.0
 40
22.0
 40
22.0
 40
23.0
 40
23.0
 40
23.0
 40
24.0
 40
24.0
 40
24.0
 40
25.0
 40
25.0
 40
25.0
 40
26.0
 40
26.0
 40
26.0
 40
27.0
 40
27.0
 40
27.0
 40
28.0
 40
28.0
 40
28.0
 40
29.0
 40
29.0
 40
29.0
 40
30.0
 40
30.0
 40
30.0
 40
31.0
 40
31.0
 40
31.0
 40
32.0
 40
32.0
 40
32.0
 40
33.0
 40
33.0
 40
33.0
 40
34.0
 40
34.0
 40
34.0
 40
34.0
 10
158.7071162427533
 20
152.9149873850898
 10
156.8403227659525
 20
152.9149873850898
 10
155.0142336190397
 20
152.8969147960907
 10
153.1898849993546
 20
152.9438001212564
 10
153.0131314583345
 20
152.9483358945682
 10
152.7083711423455
 20
153.3482947448614
 10
152.6967876335448
 20
153.5760822206354
 10
152.4909972968887
 20
157.6241071421937
 10
148.7554657542454
 20
161.0725639356169
 10
144.5646843102961
 20
161.5999827162534
 10
139.9557081895648
 20
162.1800329182988
 10
135.7309564555595
 20
159.9116997355027
 10
134.1245938667702
 20
155.9355186430329
 10
133.7958262786546
 20
155.1217351069345
 10
133.6393948934893
 20
154.2035465297087
 10
133.5971420945482
 20
153.3245583145765
 10
133.5160095184024
 20
151.6366748578995
 10
133.5735309424141
 20
149.9424107667452
 10
133.5735309424141
 20
148.0713220206796
 10
107.9555989269536
 20
148.0713220206796
 10
82.43223755821222
 20
148.0713220206796
 10
56.74199563911089
 20
148.0713220206796
 10
54.40359730686991
 20
151.5053019417711
 10
51.93657101149147
 20
155.1281627442442
 10
49.31671742267515
 20
158.9754620706941
 10
52.38253610030304
 20
158.9754620706941
 10
55.25540233004409
 20
158.9754620706941
 10
58.25010246491117
 20
158.9754620706941
 10
55.19153098255627
 20
161.9176631086991
 10
52.29347812344626
 20
164.7054598427744
 10
49.39778097791388
 20
167.4909769394861
 10
49.09135215651123
 20
166.3670099626854
 10
48.7186542613159
 20
165.0022239748709
 10
48.34725876063394
 20
163.6370854658136
 10
47.96854704377191
 20
162.2450495860035
 10
47.62826496776371
 20
160.8414275080453
 10
47.19423149319829
 20
159.4661363872228
 10
47.02839826008636
 20
158.94069172554
 10
47.14583583350358
 20
158.6667474684999
 10
47.5483147497697
 20
158.3285385890709
 10
50.34637732047842
 20
155.977257158068
 10
51.30580694459017
 20
152.2631991103283
 10
50.01861503688367
 20
148.895504933413
 10
48.74356480705494
 20
145.5595729203877
 10
45.37379305796198
 20
143.3062923946188
 10
41.71533086065704
 20
143.3433306264286
 10
37.48783029399259
 20
143.3861267051889
 10
33.93620345855291
 20
146.415294733558
 10
33.20324943694201
 20
150.603235336006
 10
32.51728064778786
 20
154.5227192620781
 10
34.92594826553949
 20
158.5762905178417
 10
38.8303649657648
 20
159.8979396563624
 10
39.72001745344433
 20
160.1990868025657
 10
40.0976068303347
 20
160.6524761224144
 10
40.32981116814506
 20
161.5079511707152
 10
46.1833602867418
 20
183.0735615232095
 10
52.06404062374821
 20
204.6321097001597
 10
57.93784587820009
 20
226.192455735443
 10
58.01205835815603
 20
226.4648488990189
 10
58.05897456970635
 20
226.7443688670346
 10
58.14207574216685
 20
227.1291105503875
 10
53.79001944590036
 20
228.3007325237316
 10
49.48758017929756
 20
229.45899394201
 10
45.11057732638395
 20
230.6373314450111
 10
45.74854357492355
 20
232.9197478514195
 10
46.36627469397065
 20
235.1297652077827
 10
47.00780902332991
 20
237.4249458208228
 10
53.69280799924805
 20
235.6536352745854
 10
60.27573405590908
 20
233.909371920629
 10
66.98872551112471
 20
232.1306408022505
 10
66.67036507547559
 20
230.9127856680377
 10
66.37666611011673
 20
229.7457229694212
 10
66.06005220351497
 20
228.5846531319162
 10
61.3281168367788
 20
211.2320887696429
 10
56.59646655639919
 20
193.8794597784754
 10
51.84463816379812
 20
176.5321127305818
 10
51.6856019896067
 20
175.9515454973817
 10
51.7984301667757
 20
175.5823382500861
 10
52.21621371902113
 20
175.1738483857406
 10
57.52545495945571
 20
169.9828673431542
 10
62.81674176124919
 20
164.774260238475
 10
68.13454459510487
 20
159.5917162042773
 10
68.39694407943043
 20
159.3359972954407
 10
68.86091462233564
 20
159.1479624650389
 10
69.23125680395366
 20
159.1475629409646
 10
88.89552937605616
 20
159.126446918578
 10
108.5598139517944
 20
159.1320872584475
 10
128.2240985275329
 20
159.114296686442
 10
128.8218916070804
 20
159.1137679045792
 10
129.0561305612038
 20
159.3586644112912
 10
129.3183860018973
 20
159.8233226601712
 10
132.2496619247187
 20
165.0171003712765
 10
138.6450071606316
 20
168.22725280521
 10
144.6001430512248
 20
167.5242666954246
 10
151.43833843239
 20
166.7170165530085
 10
156.5466177987745
 20
162.6389098188124
 10
158.2341009600745
 20
156.6019130479143
 10
158.4662392778869
 20
155.7714317556606
 10
158.5673579080774
 20
154.904147245758
 10
158.6994939338534
 20
154.0495064977292
 10
158.7470043253888
 20
153.7422254819182
 10
158.7071162427533
 20
153.4219951858235
 10
158.7071162427533
 20
152.9149873850898
 97
        0
 97
        0
 75
     2
 76
     1
 98
        0
  0
SPLINE
  5
5D
330
41
100
AcDbEntity
  8
Capa 1
370
     0
100
AcDbSpline
210
0.0
220
0.0
230
1.0
 70
    11
 71
     3
 72
    71
 73
    67
 74
     0
 42
0.0000000001
 43
0.0000000001
 12
1.0
 22
0.0
 32
0.0
 13
1.0
 23
0.0
 33
0.0
 40
0.0
 40
0.0
 40
0.0
 40
0.0
 40
1.0
 40
1.0
 40
1.0
 40
2.0
 40
2.0
 40
2.0
 40
3.0
 40
3.0
 40
3.0
 40
4.0
 40
4.0
 40
4.0
 40
5.0
 40
5.0
 40
5.0
 40
6.0
 40
6.0
 40
6.0
 40
7.0
 40
7.0
 40
7.0
 40
8.0
 40
8.0
 40
8.0
 40
9.0
 40
9.0
 40
9.0
 40
10.0
 40
10.0
 40
10.0
 40
11.0
 40
11.0
 40
11.0
 40
12.0
 40
12.0
 40
12.0
 40
13.0
 40
13.0
 40
13.0
 40
14.0
 40
14.0
 40
14.0
 40
15.0
 40
15.0
 40
15.0
 40
16.0
 40
16.0
 40
16.0
 40
17.0
 40
17.0
 40
17.0
 40
18.0
 40
18.0
 40
18.0
 40
19.0
 40
19.0
 40
19.0
 40
20.0
 40
20.0
 40
20.0
 40
21.0
 40
21.0
 40
21.0
 40
22.0
 40
22.0
 40
22.0
 40
22.0
 10
134.6089165746188
 20
201.1777305498734
 30
0.0
 10
137.8010075018058
 20
197.6318603866198
 30
0.0
 10
140.9930984289942
 20
194.0859902233662
 30
0.0
 10
144.3442255303721
 20
190.3634599151147
 30
0.0
 10
143.8063666056846
 20
190.3099413152477
 30
0.0
 10
143.5333679107155
 20
190.2595895312043
 30
0.0
 10
143.2602971939303
 20
190.2591547550056
 30
0.0
 10
140.1466140175033
 20
190.2541548287253
 30
0.0
 10
137.0327988010797
 20
190.2717632647555
 30
0.0
 10
133.9193556973732
 20
190.2451596617041
 30
0.0
 10
133.2663458919385
 20
190.2395780753748
 30
0.0
 10
132.8490034733186
 20
190.429634027563
 30
0.0
 10
132.4574808758684
 20
190.964620264192
 30
0.0
 10
130.0723823975266
 20
194.2237614000347
 30
0.0
 10
127.6308428224175
 20
197.4433496525417
 30
0.0
 10
125.2493334312579
 20
200.7049643124313
 30
0.0
 10
124.854461819346
 20
201.2457671495501
 30
0.0
 10
124.4420408915117
 20
201.4416808297075
 30
0.0
 10
123.7891391188009
 20
201.4206588129854
 30
0.0
 10
122.5122643362907
 20
201.3795313347696
 30
0.0
 10
121.231536386605
 20
201.3720050062565
 30
0.0
 10
119.9554178331657
 20
201.4230089545976
 30
0.0
 10
119.3060811403664
 20
201.4489603933514
 30
0.0
 10
119.0426733506109
 20
201.1956210028979
 30
0.0
 10
118.8480704027662
 20
200.6248362341588
 30
0.0
 10
117.759748735526
 20
197.4327093863918
 30
0.0
 10
116.6450430762199
 20
194.249037173075
 30
0.0
 10
115.5076745520269
 20
191.0733554412399
 30
0.0
 10
115.3971450711635
 20
190.7646995925863
 30
0.0
 10
115.0752795737843
 20
190.3014573040275
 30
0.0
 10
114.8429371941585
 20
190.2965337573492
 30
0.0
 10
112.2305738742451
 20
190.241135044193
 30
0.0
 10
109.6165660561911
 20
190.2614755198475
 30
0.0
 10
106.8369740804733
 20
190.2614755198475
 30
0.0
 10
106.9636124409325
 20
190.7188013268969
 30
0.0
 10
107.0349080373253
 20
191.045535639904
 30
0.0
 10
107.1438650418648
 20
191.3597554488255
 30
0.0
 10
110.4805637726966
 20
200.9821928923747
 30
0.0
 10
113.8312587431774
 20
210.5999946815933
 30
0.0
 10
117.1425097655574
 20
220.230804504636
 30
0.0
 10
117.4278241911264
 20
221.0606453833009
 30
0.0
 10
117.7954115382675
 20
221.3491017647969
 30
0.0
 10
118.7229445004517
 20
221.3443897308642
 30
0.0
 10
127.1460879836706
 20
221.3015819013954
 30
0.0
 10
135.5696876050598
 20
221.3410466544203
 30
0.0
 10
143.9928070810072
 20
221.2953834028931
 30
0.0
 10
145.2512682857984
 20
221.2885562415094
 30
0.0
 10
146.5440358824551
 20
221.090539184609
 30
0.0
 10
147.7564271320368
 20
220.7565840614986
 30
0.0
 10
149.3197086709981
 20
220.3259676138729
 30
0.0
 10
150.0964639606012
 20
219.1521482581211
 30
0.0
 10
150.0629978232589
 20
217.5634936556704
 30
0.0
 10
150.048293369082
 20
216.8658658687607
 30
0.0
 10
149.9659004111503
 20
216.13972498874
 30
0.0
 10
149.7443012858007
 20
215.4813386914022
 30
0.0
 10
148.7916687206098
 20
212.6509045131254
 30
0.0
 10
147.8366234245705
 20
209.8185373433722
 30
0.0
 10
146.7680117277454
 20
207.0288957481312
 30
0.0
 10
145.396728347602
 20
203.4491012907036
 30
0.0
 10
142.560953353294
 20
201.7548313241952
 30
0.0
 10
138.7765310009679
 20
201.4852054523676
 30
0.0
 10
137.4185356459477
 20
201.3884559975425
 30
0.0
 10
136.0473002803498
 20
201.4696827670184
 30
0.0
 10
134.6821147473279
 20
201.4696827670184
 30
0.0
 10
134.6577113552128
 20
201.3723634028522
 30
0.0
 10
134.6333199667339
 20
201.2750499140396
 30
0.0
 10
134.6089165746188
 20
201.1777305498734
 30
0.0
  0
SPLINE
  5
5E
330
41
100
AcDbEntity
  8
Capa 1
370
     0
100
AcDbSpline
210
0.0
220
0.0
230
1.0
 70
    11
 71
     3
 72
    29
 73
    25
 74
     0
 42
0.0000000001
 43
0.0000000001
 12
1.0
 22
0.0
 32
0.0
 13
1.0
 23
0.0
 33
0.0
 40
0.0
 40
0.0
 40
0.0
 40
0.0
 40
1.0
 40
1.0
 40
1.0
 40
2.0
 40
2.0
 40
2.0
 40
3.0
 40
3.0
 40
3.0
 40
4.0
 40
4.0
 40
4.0
 40
5.0
 40
5.0
 40
5.0
 40
6.0
 40
6.0
 40
6.0
 40
7.0
 40
7.0
 40
7.0
 40
8.0
 40
8.0
 40
8.0
 40
8.0
 10
121.415708174711
 20
207.9792695147376
 30
0.0
 10
122.967190139423
 20
207.9792695147376
 30
0.0
 10
124.3374412068628
 20
207.9792107611974
 30
0.0
 10
125.7076922743032
 20
207.9792812654454
 30
0.0
 10
129.3774919058692
 20
207.9794575260664
 30
0.0
 10
133.0473395519792
 20
207.9682708519918
 30
0.0
 10
136.7170671617284
 20
207.9847982228805
 30
0.0
 10
138.5066172404667
 20
207.9928533332568
 30
0.0
 10
138.924007673632
 20
208.3034127966168
 30
0.0
 10
139.5171433423865
 20
209.9570135625245
 30
0.0
 10
139.8750797661341
 20
210.9549013171778
 30
0.0
 10
140.2132101903778
 20
211.9597396156497
 30
0.0
 10
140.5500682291987
 20
212.9647130472647
 30
0.0
 10
141.0147169775425
 20
214.3508853237516
 30
0.0
 10
140.8553927160858
 20
214.6597291837349
 30
0.0
 10
139.3511210520062
 20
214.6747759654077
 30
0.0
 10
134.338618697764
 20
214.7249162367065
 30
0.0
 10
129.3253961253575
 20
214.7166378628772
 30
0.0
 10
124.3125696729422
 20
214.6998402257031
 30
0.0
 10
124.0675274463622
 20
214.6990176761389
 30
0.0
 10
123.6802301288061
 20
214.4553667444812
 30
0.0
 10
123.6013542362393
 20
214.2398528832777
 30
0.0
 10
122.8631786329418
 20
212.2231317368507
 30
0.0
 10
122.1779270610428
 20
210.1878503470404
 30
0.0
 10
121.415708174711
 20
207.9792695147376
 30
0.0
  0
HATCH
  5
5F
330
41
100
AcDbEntity
  8
Capa 1
 62
     7
420
 16777215
100
AcDbHatch
 10
0.0
 20
0.0
 30
0.0
210
0.0
220
0.0
230
1.0
  2
SOLID
 70
     1
 71
     0
 91
        2
 92
        1
 93
        1
 72
     4
 94
        3
 73
     0
 74
     1
 95
       71
 96
       67
 40
0.0
 40
0.0
 40
0.0
 40
0.0
 40
1.0
 40
1.0
 40
1.0
 40
2.0
 40
2.0
 40
2.0
 40
3.0
 40
3.0
 40
3.0
 40
4.0
 40
4.0
 40
4.0
 40
5.0
 40
5.0
 40
5.0
 40
6.0
 40
6.0
 40
6.0
 40
7.0
 40
7.0
 40
7.0
 40
8.0
 40
8.0
 40
8.0
 40
9.0
 40
9.0
 40
9.0
 40
10.0
 40
10.0
 40
10.0
 40
11.0
 40
11.0
 40
11.0
 40
12.0
 40
12.0
 40
12.0
 40
13.0
 40
13.0
 40
13.0
 40
14.0
 40
14.0
 40
14.0
 40
15.0
 40
15.0
 40
15.0
 40
16.0
 40
16.0
 40
16.0
 40
17.0
 40
17.0
 40
17.0
 40
18.0
 40
18.0
 40
18.0
 40
19.0
 40
19.0
 40
19.0
 40
20.0
 40
20.0
 40
20.0
 40
21.0
 40
21.0
 40
21.0
 40
22.0
 40
22.0
 40
22.0
 40
22.0
 10
134.6089165746188
 20
201.1777305498734
 10
137.8010075018058
 20
197.6318603866198
 10
140.9930984289942
 20
194.0859902233662
 10
144.3442255303721
 20
190.3634599151147
 10
143.8063666056846
 20
190.3099413152477
 10
143.5333679107155
 20
190.2595895312043
 10
143.2602971939303
 20
190.2591547550056
 10
140.1466140175033
 20
190.2541548287253
 10
137.0327988010797
 20
190.2717632647555
 10
133.9193556973732
 20
190.2451596617041
 10
133.2663458919385
 20
190.2395780753748
 10
132.8490034733186
 20
190.429634027563
 10
132.4574808758684
 20
190.964620264192
 10
130.0723823975266
 20
194.2237614000347
 10
127.6308428224175
 20
197.4433496525417
 10
125.2493334312579
 20
200.7049643124313
 10
124.854461819346
 20
201.2457671495501
 10
124.4420408915117
 20
201.4416808297075
 10
123.7891391188009
 20
201.4206588129854
 10
122.5122643362907
 20
201.3795313347696
 10
121.231536386605
 20
201.3720050062565
 10
119.9554178331657
 20
201.4230089545976
 10
119.3060811403664
 20
201.4489603933514
 10
119.0426733506109
 20
201.1956210028979
 10
118.8480704027662
 20
200.6248362341588
 10
117.759748735526
 20
197.4327093863918
 10
116.6450430762199
 20
194.249037173075
 10
115.5076745520269
 20
191.0733554412399
 10
115.3971450711635
 20
190.7646995925863
 10
115.0752795737843
 20
190.3014573040275
 10
114.8429371941585
 20
190.2965337573492
 10
112.2305738742451
 20
190.241135044193
 10
109.6165660561911
 20
190.2614755198475
 10
106.8369740804733
 20
190.2614755198475
 10
106.9636124409325
 20
190.7188013268969
 10
107.0349080373253
 20
191.045535639904
 10
107.1438650418648
 20
191.3597554488255
 10
110.4805637726966
 20
200.9821928923747
 10
113.8312587431774
 20
210.5999946815933
 10
117.1425097655574
 20
220.230804504636
 10
117.4278241911264
 20
221.0606453833009
 10
117.7954115382675
 20
221.3491017647969
 10
118.7229445004517
 20
221.3443897308642
 10
127.1460879836706
 20
221.3015819013954
 10
135.5696876050598
 20
221.3410466544203
 10
143.9928070810072
 20
221.2953834028931
 10
145.2512682857984
 20
221.2885562415094
 10
146.5440358824551
 20
221.090539184609
 10
147.7564271320368
 20
220.7565840614986
 10
149.3197086709981
 20
220.3259676138729
 10
150.0964639606012
 20
219.1521482581211
 10
150.0629978232589
 20
217.5634936556704
 10
150.048293369082
 20
216.8658658687607
 10
149.9659004111503
 20
216.13972498874
 10
149.7443012858007
 20
215.4813386914022
 10
148.7916687206098
 20
212.6509045131254
 10
147.8366234245705
 20
209.8185373433722
 10
146.7680117277454
 20
207.0288957481312
 10
145.396728347602
 20
203.4491012907036
 10
142.560953353294
 20
201.7548313241952
 10
138.7765310009679
 20
201.4852054523676
 10
137.4185356459477
 20
201.3884559975425
 10
136.0473002803498
 20
201.4696827670184
 10
134.6821147473279
 20
201.4696827670184
 10
134.6577113552128
 20
201.3723634028522
 10
134.6333199667339
 20
201.2750499140396
 10
134.6089165746188
 20
201.1777305498734
 97
        0
 97
        0
 92
        1
 93
        1
 72
     4
 94
        3
 73
     0
 74
     1
 95
       29
 96
       25
 40
0.0
 40
0.0
 40
0.0
 40
0.0
 40
1.0
 40
1.0
 40
1.0
 40
2.0
 40
2.0
 40
2.0
 40
3.0
 40
3.0
 40
3.0
 40
4.0
 40
4.0
 40
4.0
 40
5.0
 40
5.0
 40
5.0
 40
6.0
 40
6.0
 40
6.0
 40
7.0
 40
7.0
 40
7.0
 40
8.0
 40
8.0
 40
8.0
 40
8.0
 10
121.415708174711
 20
207.9792695147376
 10
122.967190139423
 20
207.9792695147376
 10
124.3374412068628
 20
207.9792107611974
 10
125.7076922743032
 20
207.9792812654454
 10
129.3774919058692
 20
207.9794575260664
 10
133.0473395519792
 20
207.9682708519918
 10
136.7170671617284
 20
207.9847982228805
 10
138.5066172404667
 20
207.9928533332568
 10
138.924007673632
 20
208.3034127966168
 10
139.5171433423865
 20
209.9570135625245
 10
139.8750797661341
 20
210.9549013171778
 10
140.2132101903778
 20
211.9597396156497
 10
140.5500682291987
 20
212.9647130472647
 10
141.0147169775425
 20
214.3508853237516
 10
140.8553927160858
 20
214.6597291837349
 10
139.3511210520062
 20
214.6747759654077
 10
134.338618697764
 20
214.7249162367065
 10
129.3253961253575
 20
214.7166378628772
 10
124.3125696729422
 20
214.6998402257031
 10
124.0675274463622
 20
214.6990176761389
 10
123.6802301288061
 20
214.4553667444812
 10
123.6013542362393
 20
214.2398528832777
 10
122.8631786329418
 20
212.2231317368507
 10
122.1779270610428
 20
210.1878503470404
 10
121.415708174711
 20
207.9792695147376
 97
        0
 97
        0
 75
     2
 76
     1
 98
        0
  0
SPLINE
  5
60
330
41
100
AcDbEntity
  8
Capa 1
370
     0
100
AcDbSpline
210
0.0
220
0.0
230
1.0
 70
    11
 71
     3
 72
    53
 73
    49
 74
     0
 42
0.0000000001
 43
0.0000000001
 12
1.0
 22
0.0
 32
0.0
 13
1.0
 23
0.0
 33
0.0
 40
0.0
 40
0.0
 40
0.0
 40
0.0
 40
1.0
 40
1.0
 40
1.0
 40
2.0
 40
2.0
 40
2.0
 40
3.0
 40
3.0
 40
3.0
 40
4.0
 40
4.0
 40
4.0
 40
5.0
 40
5.0
 40
5.0
 40
6.0
 40
6.0
 40
6.0
 40
7.0
 40
7.0
 40
7.0
 40
8.0
 40
8.0
 40
8.0
 40
9.0
 40
9.0
 40
9.0
 40
10.0
 40
10.0
 40
10.0
 40
11.0
 40
11.0
 40
11.0
 40
12.0
 40
12.0
 40
12.0
 40
13.0
 40
13.0
 40
13.0
 40
14.0
 40
14.0
 40
14.0
 40
15.0
 40
15.0
 40
15.0
 40
16.0
 40
16.0
 40
16.0
 40
16.0
 10
69.49063137199119
 20
221.3170693346209
 30
0.0
 10
72.58405241074519
 20
221.3170693346209
 30
0.0
 10
75.43066068659977
 20
221.3371571700521
 30
0.0
 10
78.27572649522072
 20
221.2814176863621
 30
0.0
 10
78.52061267453172
 20
221.276623397473
 30
0.0
 10
78.9037387285558
 20
220.800625715314
 30
0.0
 10
78.97177533775785
 20
220.4907360423128
 30
0.0
 10
79.69425018508616
 20
217.2000736320951
 30
0.0
 10
80.36542749370206
 20
213.8986240718768
 30
0.0
 10
81.05169337284812
 20
210.6003413274811
 30
0.0
 10
81.71165928538147
 20
207.4284315729335
 30
0.0
 10
82.37112104519939
 20
204.2564101866598
 30
0.0
 10
83.03674067031828
 20
201.0856402507946
 30
0.0
 10
83.08651374725129
 20
200.8485462142359
 30
0.0
 10
83.18392925571672
 20
200.6210348801011
 30
0.0
 10
83.30194300366456
 20
200.2573445902406
 30
0.0
 10
85.06678959938701
 20
202.2686486602508
 30
0.0
 10
86.74864305537322
 20
204.1840787031866
 30
0.0
 10
88.42905607503221
 20
206.1007131936991
 30
0.0
 10
92.6763506375636
 20
210.9450072209898
 30
0.0
 10
96.92911885814013
 20
215.7847302228447
 30
0.0
 10
101.160334550166
 20
220.6424494340963
 30
0.0
 10
101.5782171324094
 20
221.1222190935435
 30
0.0
 10
101.9981823455092
 20
221.3447951302922
 30
0.0
 10
102.6577221289618
 20
221.334266495869
 30
0.0
 10
105.0427966000319
 20
221.2961824510414
 30
0.0
 10
107.4288913801679
 20
221.3192725923824
 30
0.0
 10
110.0749969210539
 20
221.3192725923824
 30
0.0
 10
109.7544518236396
 20
220.8784976576375
 30
0.0
 10
109.5856566933302
 20
220.5979553780208
 30
0.0
 10
109.3703354696421
 20
220.3573067522732
 30
0.0
 10
100.5610770270186
 20
210.511494223827
 30
0.0
 10
91.75149448622135
 20
200.6659460863124
 30
0.0
 10
82.91708242422946
 20
190.8418018635321
 30
0.0
 10
82.63770979851157
 20
190.5311366437995
 30
0.0
 10
82.1048083755178
 20
190.3032081595285
 30
0.0
 10
81.67699878625102
 20
190.2812402108071
 30
0.0
 10
80.3041549334215
 20
190.2107300870835
 30
0.0
 10
78.92259043899182
 20
190.3046417459119
 30
0.0
 10
77.54949450980443
 20
190.2364641377383
 30
0.0
 10
76.74363640456785
 20
190.1964588521428
 30
0.0
 10
76.49739981620034
 20
190.5249146438806
 30
0.0
 10
76.337865491112
 20
191.2325070312268
 30
0.0
 10
74.4535046929334
 20
199.5905447859305
 30
0.0
 10
72.53947090640952
 20
207.942166654033
 30
0.0
 10
70.63361759786103
 20
216.295562879053
 30
0.0
 10
70.26460781984598
 20
217.9129655887763
 30
0.0
 10
69.8971885236096
 20
219.5307149443878
 30
0.0
 10
69.49063137199119
 20
221.3170693346209
 30
0.0
  0
HATCH
  5
61
330
41
100
AcDbEntity
  8
Capa 1
 62
     7
420
 16777215
100
AcDbHatch
 10
0.0
 20
0.0
 30
0.0
210
0.0
220
0.0
230
1.0
  2
SOLID
 70
     1
 71
     0
 91
        1
 92
        1
 93
        1
 72
     4
 94
        3
 73
     0
 74
     1
 95
       53
 96
       49
 40
0.0
 40
0.0
 40
0.0
 40
0.0
 40
1.0
 40
1.0
 40
1.0
 40
2.0
 40
2.0
 40
2.0
 40
3.0
 40
3.0
 40
3.0
 40
4.0
 40
4.0
 40
4.0
 40
5.0
 40
5.0
 40
5.0
 40
6.0
 40
6.0
 40
6.0
 40
7.0
 40
7.0
 40
7.0
 40
8.0
 40
8.0
 40
8.0
 40
9.0
 40
9.0
 40
9.0
 40
10.0
 40
10.0
 40
10.0
 40
11.0
 40
11.0
 40
11.0
 40
12.0
 40
12.0
 40
12.0
 40
13.0
 40
13.0
 40
13.0
 40
14.0
 40
14.0
 40
14.0
 40
15.0
 40
15.0
 40
15.0
 40
16.0
 40
16.0
 40
16.0
 40
16.0
 10
69.49063137199119
 20
221.3170693346209
 10
72.58405241074519
 20
221.3170693346209
 10
75.43066068659977
 20
221.3371571700521
 10
78.27572649522072
 20
221.2814176863621
 10
78.52061267453172
 20
221.276623397473
 10
78.9037387285558
 20
220.800625715314
 10
78.97177533775785
 20
220.4907360423128
 10
79.69425018508616
 20
217.2000736320951
 10
80.36542749370206
 20
213.8986240718768
 10
81.05169337284812
 20
210.6003413274811
 10
81.71165928538147
 20
207.4284315729335
 10
82.37112104519939
 20
204.2564101866598
 10
83.03674067031828
 20
201.0856402507946
 10
83.08651374725129
 20
200.8485462142359
 10
83.18392925571672
 20
200.6210348801011
 10
83.30194300366456
 20
200.2573445902406
 10
85.06678959938701
 20
202.2686486602508
 10
86.74864305537322
 20
204.1840787031866
 10
88.42905607503221
 20
206.1007131936991
 10
92.6763506375636
 20
210.9450072209898
 10
96.92911885814013
 20
215.7847302228447
 10
101.160334550166
 20
220.6424494340963
 10
101.5782171324094
 20
221.1222190935435
 10
101.9981823455092
 20
221.3447951302922
 10
102.6577221289618
 20
221.334266495869
 10
105.0427966000319
 20
221.2961824510414
 10
107.4288913801679
 20
221.3192725923824
 10
110.0749969210539
 20
221.3192725923824
 10
109.7544518236396
 20
220.8784976576375
 10
109.5856566933302
 20
220.5979553780208
 10
109.3703354696421
 20
220.3573067522732
 10
100.5610770270186
 20
210.511494223827
 10
91.75149448622135
 20
200.6659460863124
 10
82.91708242422946
 20
190.8418018635321
 10
82.63770979851157
 20
190.5311366437995
 10
82.1048083755178
 20
190.3032081595285
 10
81.67699878625102
 20
190.2812402108071
 10
80.3041549334215
 20
190.2107300870835
 10
78.92259043899182
 20
190.3046417459119
 10
77.54949450980443
 20
190.2364641377383
 10
76.74363640456785
 20
190.1964588521428
 10
76.49739981620034
 20
190.5249146438806
 10
76.337865491112
 20
191.2325070312268
 10
74.4535046929334
 20
199.5905447859305
 10
72.53947090640952
 20
207.942166654033
 10
70.63361759786103
 20
216.295562879053
 10
70.26460781984598
 20
217.9129655887763
 10
69.8971885236096
 20
219.5307149443878
 10
69.49063137199119
 20
221.3170693346209
 97
        0
 97
        0
 75
     2
 76
     1
 98
        0
  0
SPLINE
  5
62
330
41
100
AcDbEntity
  8
Capa 1
370
     0
100
AcDbSpline
210
0.0
220
0.0
230
1.0
 70
    11
 71
     3
 72
    68
 73
    64
 74
     0
 42
0.0000000001
 43
0.0000000001
 12
1.0
 22
0.0
 32
0.0
 13
1.0
 23
0.0
 33
0.0
 40
0.0
 40
0.0
 40
0.0
 40
0.0
 40
1.0
 40
1.0
 40
1.0
 40
2.0
 40
2.0
 40
2.0
 40
3.0
 40
3.0
 40
3.0
 40
4.0
 40
4.0
 40
4.0
 40
5.0
 40
5.0
 40
5.0
 40
6.0
 40
6.0
 40
6.0
 40
7.0
 40
7.0
 40
7.0
 40
8.0
 40
8.0
 40
8.0
 40
9.0
 40
9.0
 40
9.0
 40
10.0
 40
10.0
 40
10.0
 40
11.0
 40
11.0
 40
11.0
 40
12.0
 40
12.0
 40
12.0
 40
13.0
 40
13.0
 40
13.0
 40
14.0
 40
14.0
 40
14.0
 40
15.0
 40
15.0
 40
15.0
 40
16.0
 40
16.0
 40
16.0
 40
17.0
 40
17.0
 40
17.0
 40
18.0
 40
18.0
 40
18.0
 40
19.0
 40
19.0
 40
19.0
 40
20.0
 40
20.0
 40
20.0
 40
21.0
 40
21.0
 40
21.0
 40
21.0
 10
67.29154723989116
 20
253.6602352345362
 30
0.0
 10
64.64419332085546
 20
253.6602352345362
 30
0.0
 10
61.99653931091778
 20
253.6427149288167
 30
0.0
 10
59.34993561913591
 20
253.6864804409923
 30
0.0
 10
59.07569454783424
 20
253.6910132766267
 30
0.0
 10
58.74057103442406
 20
254.0113992696032
 30
0.0
 10
58.54731849563618
 20
254.2674207591728
 30
0.0
 10
56.75659806238145
 20
256.6397095185128
 30
0.0
 10
54.9796097887822
 20
259.0221934859347
 30
0.0
 10
53.22762508910112
 20
261.4219994658784
 30
0.0
 10
52.89020588029378
 20
261.8841827218727
 30
0.0
 10
52.5390395072855
 20
262.1175121253368
 30
0.0
 10
51.94066725229798
 20
262.0832162150199
 30
0.0
 10
50.86427719930329
 20
262.0215235288581
 30
0.0
 10
49.51433028226278
 20
262.4026885904451
 30
0.0
 10
48.78136725792429
 20
261.8985083038381
 30
0.0
 10
48.05694181973583
 20
261.4002019024236
 30
0.0
 10
47.93942322177517
 20
260.0409387473976
 30
0.0
 10
47.58208097801302
 20
259.0502248000155
 30
0.0
 10
47.01598049857931
 20
257.4807179763512
 30
0.0
 10
46.49044930812759
 20
255.8968826330444
 30
0.0
 10
45.9006926629241
 20
254.3361506506249
 30
0.0
 10
45.79915990728985
 20
254.0674501470573
 30
0.0
 10
45.47083945461802
 20
253.698084265203
 30
0.0
 10
45.23584427142298
 20
253.6899028347149
 30
0.0
 10
43.59935255611681
 20
253.6329148382935
 30
0.0
 10
41.9598389254317
 20
253.6570596056825
 30
0.0
 10
40.32130359108624
 20
253.6600325348223
 30
0.0
 10
40.03107967836726
 20
253.6605583790081
 30
0.0
 10
39.74089777837519
 20
253.6836925855045
 30
0.0
 10
39.31676730356142
 20
253.702244015857
 30
0.0
 10
39.41155401572869
 20
254.0685341498759
 30
0.0
 10
39.46745794978088
 20
254.3689850666265
 30
0.0
 10
39.56653596184019
 20
254.6551118702493
 30
0.0
 10
42.06526085915026
 20
261.8710968396076
 30
0.0
 10
44.57463598255736
 20
269.0835551277088
 30
0.0
 10
47.05998282747525
 20
276.3039433077037
 30
0.0
 10
47.2714418812608
 20
276.9182677546967
 30
0.0
 10
47.57650828997122
 20
277.1314479987217
 30
0.0
 10
48.25384046297771
 20
277.1284917776201
 30
0.0
 10
54.41467066113797
 20
277.101602485479
 30
0.0
 10
60.57569891929253
 20
277.1220410061036
 30
0.0
 10
66.73660714108648
 20
277.1056192079827
 30
0.0
 10
67.5849941288928
 20
277.1033579311004
 30
0.0
 10
68.44551079093958
 20
277.0418629873226
 30
0.0
 10
69.2787491900346
 20
276.8922032153777
 30
0.0
 10
71.30903219000668
 20
276.5275398200059
 30
0.0
 10
72.30014841241339
 20
275.2036664927743
 30
0.0
 10
71.73856430104813
 20
273.27013411686
 30
0.0
 10
70.99771188690804
 20
270.7193543053217
 30
0.0
 10
70.14374921015116
 20
268.1836778257395
 30
0.0
 10
69.10313599444072
 20
265.7374146870553
 30
0.0
 10
68.10628203399595
 20
263.3940091681305
 30
0.0
 10
66.02519964620775
 20
262.32582133366
 30
0.0
 10
63.49594950239059
 20
262.1311561662343
 30
0.0
 10
62.48764407314239
 20
262.0535515525183
 30
0.0
 10
61.46788717509044
 20
262.1184037103108
 30
0.0
 10
60.10207745299321
 20
262.1184037103108
 30
0.0
 10
62.6821629955349
 20
259.2520461486506
 30
0.0
 10
65.07259108828889
 20
256.5963890644051
 30
0.0
 10
67.46302518286201
 20
253.9407334489978
 30
0.0
 10
67.40586386793213
 20
253.8472330649515
 30
0.0
 10
67.34870855482042
 20
253.7537356185828
 30
0.0
 10
67.29154723989116
 20
253.6602352345362
 30
0.0
  0
SPLINE
  5
63
330
41
100
AcDbEntity
  8
Capa 1
370
     0
100
AcDbSpline
210
0.0
220
0.0
230
1.0
 70
    11
 71
     3
 72
    26
 73
    22
 74
     0
 42
0.0000000001
 43
0.0000000001
 12
1.0
 22
0.0
 32
0.0
 13
1.0
 23
0.0
 33
0.0
 40
0.0
 40
0.0
 40
0.0
 40
0.0
 40
1.0
 40
1.0
 40
1.0
 40
2.0
 40
2.0
 40
2.0
 40
3.0
 40
3.0
 40
3.0
 40
4.0
 40
4.0
 40
4.0
 40
5.0
 40
5.0
 40
5.0
 40
6.0
 40
6.0
 40
6.0
 40
7.0
 40
7.0
 40
7.0
 40
7.0
 10
50.36515100728042
 20
267.114067421174
 30
0.0
 10
54.43953019142285
 20
267.114067421174
 30
0.0
 10
58.35971966943418
 20
267.0798802049071
 30
0.0
 10
62.27755643477665
 20
267.1584836288083
 30
0.0
 10
62.75310448466375
 20
267.1680237349159
 30
0.0
 10
63.39258619225645
 20
267.6903397705772
 30
0.0
 10
63.64581489863032
 20
268.1417894891765
 30
0.0
 10
64.09497295463464
 20
268.9425392867769
 30
0.0
 10
64.32376225798525
 20
269.8657028200282
 30
0.0
 10
64.6121616180222
 20
270.7478600542407
 30
0.0
 10
64.94013096433949
 20
271.7510429717145
 30
0.0
 10
64.8170096692468
 20
271.9765089482273
 30
0.0
 10
63.74669945791778
 20
271.9892423092511
 30
0.0
 10
60.05213632515517
 20
272.033198036013
 30
0.0
 10
56.35689798786431
 20
272.0392188050558
 30
0.0
 10
52.66216680419636
 20
272.0181850376256
 30
0.0
 10
52.40484485792508
 20
272.0167198712144
 30
0.0
 10
52.01031534964168
 20
271.7278052121038
 30
0.0
 10
51.91626986200098
 20
271.4847895531007
 30
0.0
 10
51.37456077104641
 20
270.0849945338743
 30
0.0
 10
50.90416828284825
 20
268.6587516084776
 30
0.0
 10
50.36515100728042
 20
267.114067421174
 30
0.0
  0
HATCH
  5
64
330
41
100
AcDbEntity
  8
Capa 1
 62
     7
420
 16777215
100
AcDbHatch
 10
0.0
 20
0.0
 30
0.0
210
0.0
220
0.0
230
1.0
  2
SOLID
 70
     1
 71
     0
 91
        2
 92
        1
 93
        1
 72
     4
 94
        3
 73
     0
 74
     1
 95
       68
 96
       64
 40
0.0
 40
0.0
 40
0.0
 40
0.0
 40
1.0
 40
1.0
 40
1.0
 40
2.0
 40
2.0
 40
2.0
 40
3.0
 40
3.0
 40
3.0
 40
4.0
 40
4.0
 40
4.0
 40
5.0
 40
5.0
 40
5.0
 40
6.0
 40
6.0
 40
6.0
 40
7.0
 40
7.0
 40
7.0
 40
8.0
 40
8.0
 40
8.0
 40
9.0
 40
9.0
 40
9.0
 40
10.0
 40
10.0
 40
10.0
 40
11.0
 40
11.0
 40
11.0
 40
12.0
 40
12.0
 40
12.0
 40
13.0
 40
13.0
 40
13.0
 40
14.0
 40
14.0
 40
14.0
 40
15.0
 40
15.0
 40
15.0
 40
16.0
 40
16.0
 40
16.0
 40
17.0
 40
17.0
 40
17.0
 40
18.0
 40
18.0
 40
18.0
 40
19.0
 40
19.0
 40
19.0
 40
20.0
 40
20.0
 40
20.0
 40
21.0
 40
21.0
 40
21.0
 40
21.0
 10
67.29154723989116
 20
253.6602352345362
 10
64.64419332085546
 20
253.6602352345362
 10
61.99653931091778
 20
253.6427149288167
 10
59.34993561913591
 20
253.6864804409923
 10
59.07569454783424
 20
253.6910132766267
 10
58.74057103442406
 20
254.0113992696032
 10
58.54731849563618
 20
254.2674207591728
 10
56.75659806238145
 20
256.6397095185128
 10
54.9796097887822
 20
259.0221934859347
 10
53.22762508910112
 20
261.4219994658784
 10
52.89020588029378
 20
261.8841827218727
 10
52.5390395072855
 20
262.1175121253368
 10
51.94066725229798
 20
262.0832162150199
 10
50.86427719930329
 20
262.0215235288581
 10
49.51433028226278
 20
262.4026885904451
 10
48.78136725792429
 20
261.8985083038381
 10
48.05694181973583
 20
261.4002019024236
 10
47.93942322177517
 20
260.0409387473976
 10
47.58208097801302
 20
259.0502248000155
 10
47.01598049857931
 20
257.4807179763512
 10
46.49044930812759
 20
255.8968826330444
 10
45.9006926629241
 20
254.3361506506249
 10
45.79915990728985
 20
254.0674501470573
 10
45.47083945461802
 20
253.698084265203
 10
45.23584427142298
 20
253.6899028347149
 10
43.59935255611681
 20
253.6329148382935
 10
41.9598389254317
 20
253.6570596056825
 10
40.32130359108624
 20
253.6600325348223
 10
40.03107967836726
 20
253.6605583790081
 10
39.74089777837519
 20
253.6836925855045
 10
39.31676730356142
 20
253.702244015857
 10
39.41155401572869
 20
254.0685341498759
 10
39.46745794978088
 20
254.3689850666265
 10
39.56653596184019
 20
254.6551118702493
 10
42.06526085915026
 20
261.8710968396076
 10
44.57463598255736
 20
269.0835551277088
 10
47.05998282747525
 20
276.3039433077037
 10
47.2714418812608
 20
276.9182677546967
 10
47.57650828997122
 20
277.1314479987217
 10
48.25384046297771
 20
277.1284917776201
 10
54.41467066113797
 20
277.101602485479
 10
60.57569891929253
 20
277.1220410061036
 10
66.73660714108648
 20
277.1056192079827
 10
67.5849941288928
 20
277.1033579311004
 10
68.44551079093958
 20
277.0418629873226
 10
69.2787491900346
 20
276.8922032153777
 10
71.30903219000668
 20
276.5275398200059
 10
72.30014841241339
 20
275.2036664927743
 10
71.73856430104813
 20
273.27013411686
 10
70.99771188690804
 20
270.7193543053217
 10
70.14374921015116
 20
268.1836778257395
 10
69.10313599444072
 20
265.7374146870553
 10
68.10628203399595
 20
263.3940091681305
 10
66.02519964620775
 20
262.32582133366
 10
63.49594950239059
 20
262.1311561662343
 10
62.48764407314239
 20
262.0535515525183
 10
61.46788717509044
 20
262.1184037103108
 10
60.10207745299321
 20
262.1184037103108
 10
62.6821629955349
 20
259.2520461486506
 10
65.07259108828889
 20
256.5963890644051
 10
67.46302518286201
 20
253.9407334489978
 10
67.40586386793213
 20
253.8472330649515
 10
67.34870855482042
 20
253.7537356185828
 10
67.29154723989116
 20
253.6602352345362
 97
        0
 97
        0
 92
        1
 93
        1
 72
     4
 94
        3
 73
     0
 74
     1
 95
       26
 96
       22
 40
0.0
 40
0.0
 40
0.0
 40
0.0
 40
1.0
 40
1.0
 40
1.0
 40
2.0
 40
2.0
 40
2.0
 40
3.0
 40
3.0
 40
3.0
 40
4.0
 40
4.0
 40
4.0
 40
5.0
 40
5.0
 40
5.0
 40
6.0
 40
6.0
 40
6.0
 40
7.0
 40
7.0
 40
7.0
 40
7.0
 10
50.36515100728042
 20
267.114067421174
 10
54.43953019142285
 20
267.114067421174
 10
58.35971966943418
 20
267.0798802049071
 10
62.27755643477665
 20
267.1584836288083
 10
62.75310448466375
 20
267.1680237349159
 10
63.39258619225645
 20
267.6903397705772
 10
63.64581489863032
 20
268.1417894891765
 10
64.09497295463464
 20
268.9425392867769
 10
64.32376225798525
 20
269.8657028200282
 10
64.6121616180222
 20
270.7478600542407
 10
64.94013096433949
 20
271.7510429717145
 10
64.8170096692468
 20
271.9765089482273
 10
63.74669945791778
 20
271.9892423092511
 10
60.05213632515517
 20
272.033198036013
 10
56.35689798786431
 20
272.0392188050558
 10
52.66216680419636
 20
272.0181850376256
 10
52.40484485792508
 20
272.0167198712144
 10
52.01031534964168
 20
271.7278052121038
 10
51.91626986200098
 20
271.4847895531007
 10
51.37456077104641
 20
270.0849945338743
 10
50.90416828284825
 20
268.6587516084776
 10
50.36515100728042
 20
267.114067421174
 97
        0
 97
        0
 75
     2
 76
     1
 98
        0
  0
SPLINE
  5
65
330
41
100
AcDbEntity
  8
Capa 1
370
     0
100
AcDbSpline
210
0.0
220
0.0
230
1.0
 70
    11
 71
     3
 72
    56
 73
    52
 74
     0
 42
0.0000000001
 43
0.0000000001
 12
1.0
 22
0.0
 32
0.0
 13
1.0
 23
0.0
 33
0.0
 40
0.0
 40
0.0
 40
0.0
 40
0.0
 40
1.0
 40
1.0
 40
1.0
 40
2.0
 40
2.0
 40
2.0
 40
3.0
 40
3.0
 40
3.0
 40
4.0
 40
4.0
 40
4.0
 40
5.0
 40
5.0
 40
5.0
 40
6.0
 40
6.0
 40
6.0
 40
7.0
 40
7.0
 40
7.0
 40
8.0
 40
8.0
 40
8.0
 40
9.0
 40
9.0
 40
9.0
 40
10.0
 40
10.0
 40
10.0
 40
11.0
 40
11.0
 40
11.0
 40
12.0
 40
12.0
 40
12.0
 40
13.0
 40
13.0
 40
13.0
 40
14.0
 40
14.0
 40
14.0
 40
15.0
 40
15.0
 40
15.0
 40
16.0
 40
16.0
 40
16.0
 40
17.0
 40
17.0
 40
17.0
 40
17.0
 10
21.75190667151448
 20
261.2851933161092
 30
0.0
 10
23.68071243266864
 20
263.4813918397921
 30
0.0
 10
25.51129694128656
 20
265.5645309258601
 30
0.0
 10
27.34050103175805
 20
267.6488289255107
 30
0.0
 10
29.9448204150555
 20
270.6163402542613
 30
0.0
 10
32.53536112460709
 20
273.5956654511293
 30
0.0
 10
35.17083444485016
 20
276.5364101357534
 30
0.0
 10
35.44628488248477
 20
276.8437686327957
 30
0.0
 10
35.97968145546605
 20
277.0711255552827
 30
0.0
 10
36.4024255103149
 20
277.0857572064725
 30
0.0
 10
38.15615073722516
 20
277.1464564069884
 30
0.0
 10
39.9133420140487
 20
277.1112479807493
 30
0.0
 10
41.91916460463391
 20
277.1112479807493
 30
0.0
 10
41.6354526644792
 20
276.6922630816616
 30
0.0
 10
41.51153912940675
 20
276.4546252076448
 30
0.0
 10
41.33742938922898
 20
276.2600257707429
 30
0.0
 10
34.81826664733249
 20
268.9736331291465
 30
0.0
 10
28.28760892345096
 20
261.6970673843766
 30
0.0
 10
21.78466609478325
 20
254.3968401200864
 30
0.0
 10
21.27940304382368
 20
253.8296305042753
 30
0.0
 10
20.76797162438148
 20
253.5935382155787
 30
0.0
 10
20.01805046319641
 20
253.64507388346
 30
0.0
 10
19.20278300774132
 20
253.7010983218205
 30
0.0
 10
18.376325912794
 20
253.7073496985093
 30
0.0
 10
17.56234959844328
 20
253.6430615747045
 30
0.0
 10
16.85084682470271
 20
253.5868667510768
 30
0.0
 10
16.61062030686643
 20
253.8645477332807
 30
0.0
 10
16.46574017072856
 20
254.5167296567622
 30
0.0
 10
15.4719456370252
 20
258.9903050019324
 30
0.0
 10
14.43560421529855
 20
263.454817613511
 30
0.0
 10
13.41424933319568
 20
267.9225308241975
 30
0.0
 10
12.79285335401302
 20
270.6407002064923
 30
0.0
 10
12.17237415253484
 20
273.3590722885013
 30
0.0
 10
11.55572673675576
 20
276.0782757331053
 30
0.0
 10
11.49347588013524
 20
276.3527799848267
 30
0.0
 10
11.46059116891504
 20
276.6336659726542
 30
0.0
 10
11.39186510086664
 20
277.0443188853074
 30
0.0
 10
11.97684204823546
 20
277.0704133522109
 30
0.0
 10
12.48108141410749
 20
277.1093109499672
 30
0.0
 10
12.98554322236035
 20
277.1122950790002
 30
0.0
 10
14.42742148664016
 20
277.1208244406098
 30
0.0
 10
15.87354678740433
 20
277.049668762362
 30
0.0
 10
17.30984411114178
 20
277.1375792978628
 30
0.0
 10
18.25017895118657
 20
277.1951338987387
 30
0.0
 10
18.53666598195317
 20
276.7980653554192
 30
0.0
 10
18.69818240744662
 20
275.9914824328949
 30
0.0
 10
19.60421010539756
 20
271.4669703387447
 30
0.0
 10
20.54813553307936
 20
266.9497264247401
 30
0.0
 10
21.48143624239089
 20
262.4304613889485
 30
0.0
 10
21.54993049021832
 20
262.0987932473942
 30
0.0
 10
21.63666876440524
 20
261.7707384485687
 30
0.0
 10
21.75190667151448
 20
261.2851933161092
 30
0.0
  0
HATCH
  5
66
330
41
100
AcDbEntity
  8
Capa 1
 62
     7
420
 16777215
100
AcDbHatch
 10
0.0
 20
0.0
 30
0.0
210
0.0
220
0.0
230
1.0
  2
SOLID
 70
     1
 71
     0
 91
        1
 92
        1
 93
        1
 72
     4
 94
        3
 73
     0
 74
     1
 95
       56
 96
       52
 40
0.0
 40
0.0
 40
0.0
 40
0.0
 40
1.0
 40
1.0
 40
1.0
 40
2.0
 40
2.0
 40
2.0
 40
3.0
 40
3.0
 40
3.0
 40
4.0
 40
4.0
 40
4.0
 40
5.0
 40
5.0
 40
5.0
 40
6.0
 40
6.0
 40
6.0
 40
7.0
 40
7.0
 40
7.0
 40
8.0
 40
8.0
 40
8.0
 40
9.0
 40
9.0
 40
9.0
 40
10.0
 40
10.0
 40
10.0
 40
11.0
 40
11.0
 40
11.0
 40
12.0
 40
12.0
 40
12.0
 40
13.0
 40
13.0
 40
13.0
 40
14.0
 40
14.0
 40
14.0
 40
15.0
 40
15.0
 40
15.0
 40
16.0
 40
16.0
 40
16.0
 40
17.0
 40
17.0
 40
17.0
 40
17.0
 10
21.75190667151448
 20
261.2851933161092
 10
23.68071243266864
 20
263.4813918397921
 10
25.51129694128656
 20
265.5645309258601
 10
27.34050103175805
 20
267.6488289255107
 10
29.9448204150555
 20
270.6163402542613
 10
32.53536112460709
 20
273.5956654511293
 10
35.17083444485016
 20
276.5364101357534
 10
35.44628488248477
 20
276.8437686327957
 10
35.97968145546605
 20
277.0711255552827
 10
36.4024255103149
 20
277.0857572064725
 10
38.15615073722516
 20
277.1464564069884
 10
39.9133420140487
 20
277.1112479807493
 10
41.91916460463391
 20
277.1112479807493
 10
41.6354526644792
 20
276.6922630816616
 10
41.51153912940675
 20
276.4546252076448
 10
41.33742938922898
 20
276.2600257707429
 10
34.81826664733249
 20
268.9736331291465
 10
28.28760892345096
 20
261.6970673843766
 10
21.78466609478325
 20
254.3968401200864
 10
21.27940304382368
 20
253.8296305042753
 10
20.76797162438148
 20
253.5935382155787
 10
20.01805046319641
 20
253.64507388346
 10
19.20278300774132
 20
253.7010983218205
 10
18.376325912794
 20
253.7073496985093
 10
17.56234959844328
 20
253.6430615747045
 10
16.85084682470271
 20
253.5868667510768
 10
16.61062030686643
 20
253.8645477332807
 10
16.46574017072856
 20
254.5167296567622
 10
15.4719456370252
 20
258.9903050019324
 10
14.43560421529855
 20
263.454817613511
 10
13.41424933319568
 20
267.9225308241975
 10
12.79285335401302
 20
270.6407002064923
 10
12.17237415253484
 20
273.3590722885013
 10
11.55572673675576
 20
276.0782757331053
 10
11.49347588013524
 20
276.3527799848267
 10
11.46059116891504
 20
276.6336659726542
 10
11.39186510086664
 20
277.0443188853074
 10
11.97684204823546
 20
277.0704133522109
 10
12.48108141410749
 20
277.1093109499672
 10
12.98554322236035
 20
277.1122950790002
 10
14.42742148664016
 20
277.1208244406098
 10
15.87354678740433
 20
277.049668762362
 10
17.30984411114178
 20
277.1375792978628
 10
18.25017895118657
 20
277.1951338987387
 10
18.53666598195317
 20
276.7980653554192
 10
18.69818240744662
 20
275.9914824328949
 10
19.60421010539756
 20
271.4669703387447
 10
20.54813553307936
 20
266.9497264247401
 10
21.48143624239089
 20
262.4304613889485
 10
21.54993049021832
 20
262.0987932473942
 10
21.63666876440524
 20
261.7707384485687
 10
21.75190667151448
 20
261.2851933161092
 97
        0
 97
        0
 75
     2
 76
     1
 98
        0
  0
SPLINE
  5
67
330
41
100
AcDbEntity
  8
Capa 1
370
     0
100
AcDbSpline
210
0.0
220
0.0
230
1.0
 70
    11
 71
     3
 72
    17
 73
    13
 74
     0
 42
0.0000000001
 43
0.0000000001
 12
1.0
 22
0.0
 32
0.0
 13
1.0
 23
0.0
 33
0.0
 40
0.0
 40
0.0
 40
0.0
 40
0.0
 40
1.0
 40
1.0
 40
1.0
 40
2.0
 40
2.0
 40
2.0
 40
3.0
 40
3.0
 40
3.0
 40
4.0
 40
4.0
 40
4.0
 40
4.0
 10
143.1153772957482
 20
160.4651698359116
 30
0.0
 10
147.9079850409626
 20
160.4614096093326
 30
0.0
 10
151.8666041598274
 20
156.587506679831
 30
0.0
 10
151.8639153453488
 20
151.903874208513
 30
0.0
 10
151.8612265308708
 20
147.2165872669869
 30
0.0
 10
147.8960294194434
 20
143.3343883375935
 30
0.0
 10
143.1188103356618
 20
143.3418030343806
 30
0.0
 10
138.3304158667058
 20
143.3492529832914
 30
0.0
 10
134.3434681667341
 20
147.2472566150278
 30
0.0
 10
134.3630100862428
 20
151.9023113643404
 30
0.0
 10
134.3827200566579
 20
156.5969424984045
 30
0.0
 10
138.3403908882736
 20
160.4689183117842
 30
0.0
 10
143.1153772957482
 20
160.4651698359116
 30
0.0
  0
HATCH
  5
68
330
41
100
AcDbEntity
  8
Capa 1
 62
     7
420
 16777215
100
AcDbHatch
 10
0.0
 20
0.0
 30
0.0
210
0.0
220
0.0
230
1.0
  2
SOLID
 70
     1
 71
     0
 91
        1
 92
        1
 93
        1
 72
     4
 94
        3
 73
     0
 74
     1
 95
       17
 96
       13
 40
0.0
 40
0.0
 40
0.0
 40
0.0
 40
1.0
 40
1.0
 40
1.0
 40
2.0
 40
2.0
 40
2.0
 40
3.0
 40
3.0
 40
3.0
 40
4.0
 40
4.0
 40
4.0
 40
4.0
 10
143.1153772957482
 20
160.4651698359116
 10
147.9079850409626
 20
160.4614096093326
 10
151.8666041598274
 20
156.587506679831
 10
151.8639153453488
 20
151.903874208513
 10
151.8612265308708
 20
147.2165872669869
 10
147.8960294194434
 20
143.3343883375935
 10
143.1188103356618
 20
143.3418030343806
 10
138.3304158667058
 20
143.3492529832914
 10
134.3434681667341
 20
147.2472566150278
 10
134.3630100862428
 20
151.9023113643404
 10
134.3827200566579
 20
156.5969424984045
 10
138.3403908882736
 20
160.4689183117842
 10
143.1153772957482
 20
160.4651698359116
 97
        0
 97
        0
 75
     2
 76
     1
 98
        0
  0
SPLINE
  5
69
330
41
100
AcDbEntity
  8
Capa 1
370
     0
100
AcDbSpline
210
0.0
220
0.0
230
1.0
 70
    11
 71
     3
 72
    17
 73
    13
 74
     0
 42
0.0000000001
 43
0.0000000001
 12
1.0
 22
0.0
 32
0.0
 13
1.0
 23
0.0
 33
0.0
 40
0.0
 40
0.0
 40
0.0
 40
0.0
 40
1.0
 40
1.0
 40
1.0
 40
2.0
 40
2.0
 40
2.0
 40
3.0
 40
3.0
 40
3.0
 40
4.0
 40
4.0
 40
4.0
 40
4.0
 10
200.1988006308696
 20
258.461791936607
 30
0.0
 10
200.1988006308696
 20
257.8553804898646
 30
0.0
 10
200.1988006308696
 20
257.3547371663842
 30
0.0
 10
200.1988006308696
 20
256.7846574401299
 30
0.0
 10
157.796184309243
 20
256.7846574401299
 30
0.0
 10
115.4425668300244
 20
256.7846574401299
 30
0.0
 10
73.0219510561222
 20
256.7846574401299
 30
0.0
 10
73.0219510561222
 20
257.3363282133672
 30
0.0
 10
73.0219510561222
 20
257.861376288653
 30
0.0
 10
73.0219510561222
 20
258.461791936607
 30
0.0
 10
115.4013823546946
 20
258.461791936607
 30
0.0
 10
157.7542436048412
 20
258.461791936607
 30
0.0
 10
200.1988006308696
 20
258.461791936607
 30
0.0
  0
HATCH
  5
6A
330
41
100
AcDbEntity
  8
Capa 1
 62
     7
420
 16777215
100
AcDbHatch
 10
0.0
 20
0.0
 30
0.0
210
0.0
220
0.0
230
1.0
  2
SOLID
 70
     1
 71
     0
 91
        1
 92
        1
 93
        1
 72
     4
 94
        3
 73
     0
 74
     1
 95
       17
 96
       13
 40
0.0
 40
0.0
 40
0.0
 40
0.0
 40
1.0
 40
1.0
 40
1.0
 40
2.0
 40
2.0
 40
2.0
 40
3.0
 40
3.0
 40
3.0
 40
4.0
 40
4.0
 40
4.0
 40
4.0
 10
200.1988006308696
 20
258.461791936607
 10
200.1988006308696
 20
257.8553804898646
 10
200.1988006308696
 20
257.3547371663842
 10
200.1988006308696
 20
256.7846574401299
 10
157.796184309243
 20
256.7846574401299
 10
115.4425668300244
 20
256.7846574401299
 10
73.0219510561222
 20
256.7846574401299
 10
73.0219510561222
 20
257.3363282133672
 10
73.0219510561222
 20
257.861376288653
 10
73.0219510561222
 20
258.461791936607
 10
115.4013823546946
 20
258.461791936607
 10
157.7542436048412
 20
258.461791936607
 10
200.1988006308696
 20
258.461791936607
 97
        0
 97
        0
 75
     2
 76
     1
 98
        0
  0
SPLINE
  5
6B
330
41
100
AcDbEntity
  8
Capa 1
370
     0
100
AcDbSpline
210
0.0
220
0.0
230
1.0
 70
    11
 71
     3
 72
    83
 73
    79
 74
     0
 42
0.0000000001
 43
0.0000000001
 12
1.0
 22
0.0
 32
0.0
 13
1.0
 23
0.0
 33
0.0
 40
0.0
 40
0.0
 40
0.0
 40
0.0
 40
1.0
 40
1.0
 40
1.0
 40
2.0
 40
2.0
 40
2.0
 40
3.0
 40
3.0
 40
3.0
 40
4.0
 40
4.0
 40
4.0
 40
5.0
 40
5.0
 40
5.0
 40
6.0
 40
6.0
 40
6.0
 40
7.0
 40
7.0
 40
7.0
 40
8.0
 40
8.0
 40
8.0
 40
9.0
 40
9.0
 40
9.0
 40
10.0
 40
10.0
 40
10.0
 40
11.0
 40
11.0
 40
11.0
 40
12.0
 40
12.0
 40
12.0
 40
13.0
 40
13.0
 40
13.0
 40
14.0
 40
14.0
 40
14.0
 40
15.0
 40
15.0
 40
15.0
 40
16.0
 40
16.0
 40
16.0
 40
17.0
 40
17.0
 40
17.0
 40
18.0
 40
18.0
 40
18.0
 40
19.0
 40
19.0
 40
19.0
 40
20.0
 40
20.0
 40
20.0
 40
21.0
 40
21.0
 40
21.0
 40
22.0
 40
22.0
 40
22.0
 40
23.0
 40
23.0
 40
23.0
 40
24.0
 40
24.0
 40
24.0
 40
25.0
 40
25.0
 40
25.0
 40
26.0
 40
26.0
 40
26.0
 40
26.0
 10
88.74814873248128
 20
268.0170939129038
 30
0.0
 10
88.83936436291948
 20
268.5340398749809
 30
0.0
 10
88.8981701759897
 20
268.8672818769966
 30
0.0
 10
88.97526352860133
 20
269.3041776092424
 30
0.0
 10
86.8471628983561
 20
269.3041776092424
 30
0.0
 10
84.75600945991154
 20
269.3665562429874
 30
0.0
 10
82.67657157026431
 20
269.2418129294635
 30
0.0
 10
82.33620846971203
 20
269.2213960742059
 30
0.0
 10
82.04746100422868
 20
268.3764158770426
 30
0.0
 10
81.58391659040454
 20
267.6885477875978
 30
0.0
 10
83.87087334030014
 20
267.6885477875978
 30
0.0
 10
85.8256414658029
 20
267.699258557996
 30
0.0
 10
87.78015751494844
 20
267.682529956232
 30
0.0
 10
88.43264516221484
 20
267.6769454322253
 30
0.0
 10
89.09515584559287
 20
267.6584645061217
 30
0.0
 10
89.73424743501353
 20
267.5445854566199
 30
0.0
 10
90.79533285202858
 20
267.3555106885543
 30
0.0
 10
91.29949757028886
 20
266.7660026353579
 30
0.0
 10
91.03005195159434
 20
265.7740254868596
 30
0.0
 10
90.6459596048676
 20
264.359974655496
 30
0.0
 10
90.14710649556461
 20
262.9592388452049
 30
0.0
 10
89.52906928379768
 20
261.627630981602
 30
0.0
 10
88.9873751973879
 20
260.4605344997001
 30
0.0
 10
87.79869713084678
 20
260.069306425497
 30
0.0
 10
86.57498645245703
 20
260.0472811920739
 30
0.0
 10
83.79059302231424
 20
259.997164422191
 30
0.0
 10
81.00426100494732
 20
260.008499448955
 30
0.0
 10
78.2194894602682
 20
260.0477277189806
 30
0.0
 10
77.47698054435143
 20
260.0581873179934
 30
0.0
 10
76.49756786710539
 20
260.1489468493843
 30
0.0
 10
76.37506475926959
 20
260.9962037462348
 30
0.0
 10
76.25506440955284
 20
261.8261298175331
 30
0.0
 10
76.58276367405902
 20
262.7205188044182
 30
0.0
 10
76.7388889665058
 20
263.5822848880475
 30
0.0
 10
76.75351539704776
 20
263.6630107835923
 30
0.0
 10
76.94026196508955
 20
263.7497882937888
 30
0.0
 10
77.05875585848044
 20
263.7708396872814
 30
0.0
 10
77.98173344077902
 20
263.9348075987342
 30
0.0
 10
78.90756788845931
 20
264.0833512370178
 30
0.0
 10
79.95982463115091
 20
264.2577596525839
 30
0.0
 10
79.88428574940954
 20
263.769016858693
 30
0.0
 10
79.82855286717115
 20
263.4084537260155
 30
0.0
 10
79.75231177272039
 20
262.9151604704277
 30
0.0
 10
82.05357685680275
 20
262.9151604704277
 30
0.0
 10
84.33157289237826
 20
262.8444447093129
 30
0.0
 10
86.59615486465383
 20
262.9833968321412
 30
0.0
 10
86.9824798876882
 20
263.007102416817
 30
0.0
 10
87.31135550852832
 20
263.9280847248846
 30
0.0
 10
87.66677116870237
 20
264.4345461176936
 30
0.0
 10
87.60899766833377
 20
264.5268479295176
 30
0.0
 10
87.55122416796453
 20
264.6191482725029
 30
0.0
 10
87.49345066759625
 20
264.7114500843269
 30
0.0
 10
86.98857173299021
 20
264.7114500843269
 30
0.0
 10
86.48366278929393
 20
264.7083684611378
 30
0.0
 10
85.97881386377813
 20
264.7119964922518
 30
0.0
 10
84.04581433227484
 20
264.7258902356963
 30
0.0
 10
82.11028203356229
 20
264.6874198863406
 30
0.0
 10
80.18062551470227
 20
264.7738992223205
 30
0.0
 10
78.54493204119406
 20
264.8472045457241
 30
0.0
 10
78.00580073108412
 20
265.5995406916911
 30
0.0
 10
78.44398146190828
 20
267.1387365639112
 30
0.0
 10
78.74138354899253
 20
268.183396543165
 30
0.0
 10
79.12689832659323
 20
269.2153789772595
 30
0.0
 10
79.58962049134738
 20
270.2005414495017
 30
0.0
 10
80.10501461114474
 20
271.2978321157444
 30
0.0
 10
81.04879449473918
 20
271.9596687147366
 30
0.0
 10
82.30226818874519
 20
271.9818533171378
 30
0.0
 10
85.084651009848
 20
272.0310953936889
 30
0.0
 10
87.87071894722199
 20
272.0878535168844
 30
0.0
 10
90.65047297202663
 20
271.9983564521912
 30
0.0
 10
92.42031308035052
 20
271.9413728622847
 30
0.0
 10
93.1257187571989
 20
270.2815934271948
 30
0.0
 10
92.09492451578728
 20
268.8718161814698
 30
0.0
 10
92.02330482122076
 20
268.773858606972
 30
0.0
 10
91.91710865297568
 20
268.6580884278912
 30
0.0
 10
91.80822367025263
 20
268.6348469961841
 30
0.0
 10
90.83032945296877
 20
268.4261110902735
 30
0.0
 10
89.84823396306325
 20
268.2362504936069
 30
0.0
 10
88.74814873248128
 20
268.0170939129038
 30
0.0
  0
HATCH
  5
6C
330
41
100
AcDbEntity
  8
Capa 1
 62
     7
420
 16777215
100
AcDbHatch
 10
0.0
 20
0.0
 30
0.0
210
0.0
220
0.0
230
1.0
  2
SOLID
 70
     1
 71
     0
 91
        1
 92
        1
 93
        1
 72
     4
 94
        3
 73
     0
 74
     1
 95
       83
 96
       79
 40
0.0
 40
0.0
 40
0.0
 40
0.0
 40
1.0
 40
1.0
 40
1.0
 40
2.0
 40
2.0
 40
2.0
 40
3.0
 40
3.0
 40
3.0
 40
4.0
 40
4.0
 40
4.0
 40
5.0
 40
5.0
 40
5.0
 40
6.0
 40
6.0
 40
6.0
 40
7.0
 40
7.0
 40
7.0
 40
8.0
 40
8.0
 40
8.0
 40
9.0
 40
9.0
 40
9.0
 40
10.0
 40
10.0
 40
10.0
 40
11.0
 40
11.0
 40
11.0
 40
12.0
 40
12.0
 40
12.0
 40
13.0
 40
13.0
 40
13.0
 40
14.0
 40
14.0
 40
14.0
 40
15.0
 40
15.0
 40
15.0
 40
16.0
 40
16.0
 40
16.0
 40
17.0
 40
17.0
 40
17.0
 40
18.0
 40
18.0
 40
18.0
 40
19.0
 40
19.0
 40
19.0
 40
20.0
 40
20.0
 40
20.0
 40
21.0
 40
21.0
 40
21.0
 40
22.0
 40
22.0
 40
22.0
 40
23.0
 40
23.0
 40
23.0
 40
24.0
 40
24.0
 40
24.0
 40
25.0
 40
25.0
 40
25.0
 40
26.0
 40
26.0
 40
26.0
 40
26.0
 10
88.74814873248128
 20
268.0170939129038
 10
88.83936436291948
 20
268.5340398749809
 10
88.8981701759897
 20
268.8672818769966
 10
88.97526352860133
 20
269.3041776092424
 10
86.8471628983561
 20
269.3041776092424
 10
84.75600945991154
 20
269.3665562429874
 10
82.67657157026431
 20
269.2418129294635
 10
82.33620846971203
 20
269.2213960742059
 10
82.04746100422868
 20
268.3764158770426
 10
81.58391659040454
 20
267.6885477875978
 10
83.87087334030014
 20
267.6885477875978
 10
85.8256414658029
 20
267.699258557996
 10
87.78015751494844
 20
267.682529956232
 10
88.43264516221484
 20
267.6769454322253
 10
89.09515584559287
 20
267.6584645061217
 10
89.73424743501353
 20
267.5445854566199
 10
90.79533285202858
 20
267.3555106885543
 10
91.29949757028886
 20
266.7660026353579
 10
91.03005195159434
 20
265.7740254868596
 10
90.6459596048676
 20
264.359974655496
 10
90.14710649556461
 20
262.9592388452049
 10
89.52906928379768
 20
261.627630981602
 10
88.9873751973879
 20
260.4605344997001
 10
87.79869713084678
 20
260.069306425497
 10
86.57498645245703
 20
260.0472811920739
 10
83.79059302231424
 20
259.997164422191
 10
81.00426100494732
 20
260.008499448955
 10
78.2194894602682
 20
260.0477277189806
 10
77.47698054435143
 20
260.0581873179934
 10
76.49756786710539
 20
260.1489468493843
 10
76.37506475926959
 20
260.9962037462348
 10
76.25506440955284
 20
261.8261298175331
 10
76.58276367405902
 20
262.7205188044182
 10
76.7388889665058
 20
263.5822848880475
 10
76.75351539704776
 20
263.6630107835923
 10
76.94026196508955
 20
263.7497882937888
 10
77.05875585848044
 20
263.7708396872814
 10
77.98173344077902
 20
263.9348075987342
 10
78.90756788845931
 20
264.0833512370178
 10
79.95982463115091
 20
264.2577596525839
 10
79.88428574940954
 20
263.769016858693
 10
79.82855286717115
 20
263.4084537260155
 10
79.75231177272039
 20
262.9151604704277
 10
82.05357685680275
 20
262.9151604704277
 10
84.33157289237826
 20
262.8444447093129
 10
86.59615486465383
 20
262.9833968321412
 10
86.9824798876882
 20
263.007102416817
 10
87.31135550852832
 20
263.9280847248846
 10
87.66677116870237
 20
264.4345461176936
 10
87.60899766833377
 20
264.5268479295176
 10
87.55122416796453
 20
264.6191482725029
 10
87.49345066759625
 20
264.7114500843269
 10
86.98857173299021
 20
264.7114500843269
 10
86.48366278929393
 20
264.7083684611378
 10
85.97881386377813
 20
264.7119964922518
 10
84.04581433227484
 20
264.7258902356963
 10
82.11028203356229
 20
264.6874198863406
 10
80.18062551470227
 20
264.7738992223205
 10
78.54493204119406
 20
264.8472045457241
 10
78.00580073108412
 20
265.5995406916911
 10
78.44398146190828
 20
267.1387365639112
 10
78.74138354899253
 20
268.183396543165
 10
79.12689832659323
 20
269.2153789772595
 10
79.58962049134738
 20
270.2005414495017
 10
80.10501461114474
 20
271.2978321157444
 10
81.04879449473918
 20
271.9596687147366
 10
82.30226818874519
 20
271.9818533171378
 10
85.084651009848
 20
272.0310953936889
 10
87.87071894722199
 20
272.0878535168844
 10
90.65047297202663
 20
271.9983564521912
 10
92.42031308035052
 20
271.9413728622847
 10
93.1257187571989
 20
270.2815934271948
 10
92.09492451578728
 20
268.8718161814698
 10
92.02330482122076
 20
268.773858606972
 10
91.91710865297568
 20
268.6580884278912
 10
91.80822367025263
 20
268.6348469961841
 10
90.83032945296877
 20
268.4261110902735
 10
89.84823396306325
 20
268.2362504936069
 10
88.74814873248128
 20
268.0170939129038
 97
        0
 97
        0
 75
     2
 76
     1
 98
        0
  0
SPLINE
  5
6D
330
41
100
AcDbEntity
  8
Capa 1
370
     0
100
AcDbSpline
210
0.0
220
0.0
230
1.0
 70
    11
 71
     3
 72
    35
 73
    31
 74
     0
 42
0.0000000001
 43
0.0000000001
 12
1.0
 22
0.0
 32
0.0
 13
1.0
 23
0.0
 33
0.0
 40
0.0
 40
0.0
 40
0.0
 40
0.0
 40
1.0
 40
1.0
 40
1.0
 40
2.0
 40
2.0
 40
2.0
 40
3.0
 40
3.0
 40
3.0
 40
4.0
 40
4.0
 40
4.0
 40
5.0
 40
5.0
 40
5.0
 40
6.0
 40
6.0
 40
6.0
 40
7.0
 40
7.0
 40
7.0
 40
8.0
 40
8.0
 40
8.0
 40
9.0
 40
9.0
 40
9.0
 40
10.0
 40
10.0
 40
10.0
 40
10.0
 10
120.0437405873137
 20
260.0284756526596
 30
0.0
 10
118.4715163394862
 20
260.0284756526596
 30
0.0
 10
116.8986799062191
 20
260.0016399731243
 30
0.0
 10
115.3272118874636
 20
260.0353777248075
 30
0.0
 10
113.431381615028
 20
260.0760792398557
 30
0.0
 10
112.7873745366393
 20
260.880930768989
 30
0.0
 10
113.3481003880258
 20
262.6288280294134
 30
0.0
 10
114.092601907529
 20
264.9495869962265
 30
0.0
 10
114.917803872281
 20
267.2465331531529
 30
0.0
 10
115.7536890731274
 20
269.5378551274326
 30
0.0
 10
116.3258303824096
 20
271.1061303300083
 30
0.0
 10
117.4467899361039
 20
272.0274717690909
 30
0.0
 10
119.2149495353801
 20
272.0331613150498
 30
0.0
 10
122.4237375203299
 20
272.0434865153401
 30
0.0
 10
125.6342300216002
 20
272.1047730676548
 30
0.0
 10
128.8407613229716
 20
272.0228170198596
 30
0.0
 10
130.7638278456326
 20
271.9736645424572
 30
0.0
 10
131.2948326941292
 20
271.1681814127661
 30
0.0
 10
130.7088751997393
 20
269.3648002465517
 30
0.0
 10
129.9653339711209
 20
267.0764445916378
 30
0.0
 10
129.12714407215
 20
264.8174355956886
 30
0.0
 10
128.3216040632684
 20
262.5485471919362
 30
0.0
 10
127.6870438464622
 20
260.7612703711206
 30
0.0
 10
126.3305969604938
 20
260.0185316159627
 30
0.0
 10
124.4656520436464
 20
260.0221229261137
 30
0.0
 10
122.9916775569907
 20
260.0249621909498
 30
0.0
 10
121.5177150739701
 20
260.0226943042934
 30
0.0
 10
120.0437405873137
 20
260.0226943042934
 30
0.0
 10
120.0437405873137
 20
260.024621420416
 30
0.0
 10
120.0437405873137
 20
260.0265485365379
 30
0.0
 10
120.0437405873137
 20
260.0284756526596
 30
0.0
  0
SPLINE
  5
6E
330
41
100
AcDbEntity
  8
Capa 1
370
     0
100
AcDbSpline
210
0.0
220
0.0
230
1.0
 70
    11
 71
     3
 72
    23
 73
    19
 74
     0
 42
0.0000000001
 43
0.0000000001
 12
1.0
 22
0.0
 32
0.0
 13
1.0
 23
0.0
 33
0.0
 40
0.0
 40
0.0
 40
0.0
 40
0.0
 40
1.0
 40
1.0
 40
1.0
 40
2.0
 40
2.0
 40
2.0
 40
3.0
 40
3.0
 40
3.0
 40
4.0
 40
4.0
 40
4.0
 40
5.0
 40
5.0
 40
5.0
 40
6.0
 40
6.0
 40
6.0
 40
6.0
 10
116.9419170033164
 20
262.9115765044689
 30
0.0
 10
119.088791320364
 20
262.9115765044689
 30
0.0
 10
121.0182197701385
 20
262.9123241432692
 30
0.0
 10
122.9476602235493
 20
262.9113723359162
 30
0.0
 10
125.0051434628382
 20
262.910358837346
 30
0.0
 10
125.0029588010753
 20
262.9103691192155
 30
0.0
 10
125.6579492064601
 20
264.8360604679661
 30
0.0
 10
126.1485978305138
 20
266.2785964845092
 30
0.0
 10
126.6457764325859
 20
267.7190034196355
 30
0.0
 10
127.1761690956427
 20
269.265698446856
 30
0.0
 10
124.5287551584269
 20
269.265698446856
 30
0.0
 10
122.0444586316642
 20
269.2723067513028
 30
0.0
 10
119.5603901739857
 20
269.2516240362754
 30
0.0
 10
119.3847769783918
 20
269.2501603387026
 30
0.0
 10
119.1064846799199
 20
269.0838253939943
 30
0.0
 10
119.0520601940124
 20
268.9331901296753
 30
0.0
 10
118.3465464844398
 20
266.9798317387936
 30
0.0
 10
117.6729744504297
 20
265.0154203381417
 30
0.0
 10
116.9419170033164
 20
262.9115765044689
 30
0.0
  0
HATCH
  5
6F
330
41
100
AcDbEntity
  8
Capa 1
 62
     7
420
 16777215
100
AcDbHatch
 10
0.0
 20
0.0
 30
0.0
210
0.0
220
0.0
230
1.0
  2
SOLID
 70
     1
 71
     0
 91
        2
 92
        1
 93
        1
 72
     4
 94
        3
 73
     0
 74
     1
 95
       35
 96
       31
 40
0.0
 40
0.0
 40
0.0
 40
0.0
 40
1.0
 40
1.0
 40
1.0
 40
2.0
 40
2.0
 40
2.0
 40
3.0
 40
3.0
 40
3.0
 40
4.0
 40
4.0
 40
4.0
 40
5.0
 40
5.0
 40
5.0
 40
6.0
 40
6.0
 40
6.0
 40
7.0
 40
7.0
 40
7.0
 40
8.0
 40
8.0
 40
8.0
 40
9.0
 40
9.0
 40
9.0
 40
10.0
 40
10.0
 40
10.0
 40
10.0
 10
120.0437405873137
 20
260.0284756526596
 10
118.4715163394862
 20
260.0284756526596
 10
116.8986799062191
 20
260.0016399731243
 10
115.3272118874636
 20
260.0353777248075
 10
113.431381615028
 20
260.0760792398557
 10
112.7873745366393
 20
260.880930768989
 10
113.3481003880258
 20
262.6288280294134
 10
114.092601907529
 20
264.9495869962265
 10
114.917803872281
 20
267.2465331531529
 10
115.7536890731274
 20
269.5378551274326
 10
116.3258303824096
 20
271.1061303300083
 10
117.4467899361039
 20
272.0274717690909
 10
119.2149495353801
 20
272.0331613150498
 10
122.4237375203299
 20
272.0434865153401
 10
125.6342300216002
 20
272.1047730676548
 10
128.8407613229716
 20
272.0228170198596
 10
130.7638278456326
 20
271.9736645424572
 10
131.2948326941292
 20
271.1681814127661
 10
130.7088751997393
 20
269.3648002465517
 10
129.9653339711209
 20
267.0764445916378
 10
129.12714407215
 20
264.8174355956886
 10
128.3216040632684
 20
262.5485471919362
 10
127.6870438464622
 20
260.7612703711206
 10
126.3305969604938
 20
260.0185316159627
 10
124.4656520436464
 20
260.0221229261137
 10
122.9916775569907
 20
260.0249621909498
 10
121.5177150739701
 20
260.0226943042934
 10
120.0437405873137
 20
260.0226943042934
 10
120.0437405873137
 20
260.024621420416
 10
120.0437405873137
 20
260.0265485365379
 10
120.0437405873137
 20
260.0284756526596
 97
        0
 97
        0
 92
        1
 93
        1
 72
     4
 94
        3
 73
     0
 74
     1
 95
       23
 96
       19
 40
0.0
 40
0.0
 40
0.0
 40
0.0
 40
1.0
 40
1.0
 40
1.0
 40
2.0
 40
2.0
 40
2.0
 40
3.0
 40
3.0
 40
3.0
 40
4.0
 40
4.0
 40
4.0
 40
5.0
 40
5.0
 40
5.0
 40
6.0
 40
6.0
 40
6.0
 40
6.0
 10
116.9419170033164
 20
262.9115765044689
 10
119.088791320364
 20
262.9115765044689
 10
121.0182197701385
 20
262.9123241432692
 10
122.9476602235493
 20
262.9113723359162
 10
125.0051434628382
 20
262.910358837346
 10
125.0029588010753
 20
262.9103691192155
 10
125.6579492064601
 20
264.8360604679661
 10
126.1485978305138
 20
266.2785964845092
 10
126.6457764325859
 20
267.7190034196355
 10
127.1761690956427
 20
269.265698446856
 10
124.5287551584269
 20
269.265698446856
 10
122.0444586316642
 20
269.2723067513028
 10
119.5603901739857
 20
269.2516240362754
 10
119.3847769783918
 20
269.2501603387026
 10
119.1064846799199
 20
269.0838253939943
 10
119.0520601940124
 20
268.9331901296753
 10
118.3465464844398
 20
266.9798317387936
 10
117.6729744504297
 20
265.0154203381417
 10
116.9419170033164
 20
262.9115765044689
 97
        0
 97
        0
 75
     2
 76
     1
 98
        0
  0
SPLINE
  5
70
330
41
100
AcDbEntity
  8
Capa 1
370
     0
100
AcDbSpline
210
0.0
220
0.0
230
1.0
 70
    11
 71
     3
 72
    32
 73
    28
 74
     0
 42
0.0000000001
 43
0.0000000001
 12
1.0
 22
0.0
 32
0.0
 13
1.0
 23
0.0
 33
0.0
 40
0.0
 40
0.0
 40
0.0
 40
0.0
 40
1.0
 40
1.0
 40
1.0
 40
2.0
 40
2.0
 40
2.0
 40
3.0
 40
3.0
 40
3.0
 40
4.0
 40
4.0
 40
4.0
 40
5.0
 40
5.0
 40
5.0
 40
6.0
 40
6.0
 40
6.0
 40
7.0
 40
7.0
 40
7.0
 40
8.0
 40
8.0
 40
8.0
 40
9.0
 40
9.0
 40
9.0
 40
9.0
 10
140.2312396517438
 20
260.0259492504265
 30
0.0
 10
138.6918933630917
 20
260.0247829926515
 30
0.0
 10
137.1522109726294
 20
260.0046496232263
 30
0.0
 10
135.6132968148756
 20
260.0298020138322
 30
0.0
 10
133.6199730103395
 20
260.0623764454177
 30
0.0
 10
132.9863370735098
 20
260.8794501797731
 30
0.0
 10
133.5911042656091
 20
262.7384136639575
 30
0.0
 10
134.3255587417283
 20
264.9959787916537
 30
0.0
 10
135.1374006595417
 20
267.2296018516741
 30
0.0
 10
135.9292565233117
 20
269.4690136042539
 30
0.0
 10
136.5197393884973
 20
271.1389669492672
 30
0.0
 10
137.7085675004889
 20
272.043899258961
 30
0.0
 10
139.5369853527982
 20
272.0488690740517
 30
0.0
 10
142.7131714622023
 20
272.0575021723805
 30
0.0
 10
145.8909540552029
 20
272.1023605004057
 30
0.0
 10
149.0650515319324
 20
272.0201709072882
 30
0.0
 10
150.9380628922137
 20
271.9716727974406
 30
0.0
 10
151.4840242712434
 20
271.1872116844717
 30
0.0
 10
150.927547707023
 20
269.442036181802
 30
0.0
 10
150.1775005076588
 20
267.0898741821137
 30
0.0
 10
149.3303799034574
 20
264.7665462167507
 30
0.0
 10
148.487448568243
 20
262.4438748222008
 30
0.0
 10
147.8866065651348
 20
260.788229433091
 30
0.0
 10
146.5894096267712
 20
260.0569314610694
 30
0.0
 10
144.8491824886127
 20
260.0317761327865
 30
0.0
 10
143.3101843054064
 20
260.0095276359104
 30
0.0
 10
141.7705739367603
 20
260.02711697704
 30
0.0
 10
140.2312396517438
 20
260.0259492504265
 30
0.0
  0
SPLINE
  5
71
330
41
100
AcDbEntity
  8
Capa 1
370
     0
100
AcDbSpline
210
0.0
220
0.0
230
1.0
 70
    11
 71
     3
 72
    23
 73
    19
 74
     0
 42
0.0000000001
 43
0.0000000001
 12
1.0
 22
0.0
 32
0.0
 13
1.0
 23
0.0
 33
0.0
 40
0.0
 40
0.0
 40
0.0
 40
0.0
 40
1.0
 40
1.0
 40
1.0
 40
2.0
 40
2.0
 40
2.0
 40
3.0
 40
3.0
 40
3.0
 40
4.0
 40
4.0
 40
4.0
 40
5.0
 40
5.0
 40
5.0
 40
6.0
 40
6.0
 40
6.0
 40
6.0
 10
147.3917926793669
 20
269.2679185962605
 30
0.0
 10
144.7767045340678
 20
269.2679185962605
 30
0.0
 10
142.3216728720248
 20
269.2845744905189
 30
0.0
 10
139.8677215372275
 20
269.2422227354068
 30
0.0
 10
139.6215869797667
 20
269.237975588862
 30
0.0
 10
139.2551279744161
 20
268.9220644123992
 30
0.0
 10
139.1601912167957
 20
268.6722524376212
 30
0.0
 10
138.62403680843
 20
267.2614785849681
 30
0.0
 10
138.1502893039526
 20
265.8278466674587
 30
0.0
 10
137.6630016979951
 20
264.3994834736764
 30
0.0
 10
137.5042536110697
 20
263.9341730604987
 30
0.0
 10
137.3687325599248
 20
263.4612760964295
 30
0.0
 10
137.2048829276717
 20
262.9349398497724
 30
0.0
 10
139.932241081063
 20
262.9349398497724
 30
0.0
 10
142.5171640889388
 20
262.9349398497724
 30
0.0
 10
145.1852602910902
 20
262.9349398497724
 30
0.0
 10
145.9004369276933
 20
264.9875770353893
 30
0.0
 10
146.6161897388263
 20
267.0418490382659
 30
0.0
 10
147.3917926793669
 20
269.2679185962605
 30
0.0
  0
HATCH
  5
72
330
41
100
AcDbEntity
  8
Capa 1
 62
     7
420
 16777215
100
AcDbHatch
 10
0.0
 20
0.0
 30
0.0
210
0.0
220
0.0
230
1.0
  2
SOLID
 70
     1
 71
     0
 91
        2
 92
        1
 93
        1
 72
     4
 94
        3
 73
     0
 74
     1
 95
       32
 96
       28
 40
0.0
 40
0.0
 40
0.0
 40
0.0
 40
1.0
 40
1.0
 40
1.0
 40
2.0
 40
2.0
 40
2.0
 40
3.0
 40
3.0
 40
3.0
 40
4.0
 40
4.0
 40
4.0
 40
5.0
 40
5.0
 40
5.0
 40
6.0
 40
6.0
 40
6.0
 40
7.0
 40
7.0
 40
7.0
 40
8.0
 40
8.0
 40
8.0
 40
9.0
 40
9.0
 40
9.0
 40
9.0
 10
140.2312396517438
 20
260.0259492504265
 10
138.6918933630917
 20
260.0247829926515
 10
137.1522109726294
 20
260.0046496232263
 10
135.6132968148756
 20
260.0298020138322
 10
133.6199730103395
 20
260.0623764454177
 10
132.9863370735098
 20
260.8794501797731
 10
133.5911042656091
 20
262.7384136639575
 10
134.3255587417283
 20
264.9959787916537
 10
135.1374006595417
 20
267.2296018516741
 10
135.9292565233117
 20
269.4690136042539
 10
136.5197393884973
 20
271.1389669492672
 10
137.7085675004889
 20
272.043899258961
 10
139.5369853527982
 20
272.0488690740517
 10
142.7131714622023
 20
272.0575021723805
 10
145.8909540552029
 20
272.1023605004057
 10
149.0650515319324
 20
272.0201709072882
 10
150.9380628922137
 20
271.9716727974406
 10
151.4840242712434
 20
271.1872116844717
 10
150.927547707023
 20
269.442036181802
 10
150.1775005076588
 20
267.0898741821137
 10
149.3303799034574
 20
264.7665462167507
 10
148.487448568243
 20
262.4438748222008
 10
147.8866065651348
 20
260.788229433091
 10
146.5894096267712
 20
260.0569314610694
 10
144.8491824886127
 20
260.0317761327865
 10
143.3101843054064
 20
260.0095276359104
 10
141.7705739367603
 20
260.02711697704
 10
140.2312396517438
 20
260.0259492504265
 97
        0
 97
        0
 92
        1
 93
        1
 72
     4
 94
        3
 73
     0
 74
     1
 95
       23
 96
       19
 40
0.0
 40
0.0
 40
0.0
 40
0.0
 40
1.0
 40
1.0
 40
1.0
 40
2.0
 40
2.0
 40
2.0
 40
3.0
 40
3.0
 40
3.0
 40
4.0
 40
4.0
 40
4.0
 40
5.0
 40
5.0
 40
5.0
 40
6.0
 40
6.0
 40
6.0
 40
6.0
 10
147.3917926793669
 20
269.2679185962605
 10
144.7767045340678
 20
269.2679185962605
 10
142.3216728720248
 20
269.2845744905189
 10
139.8677215372275
 20
269.2422227354068
 10
139.6215869797667
 20
269.237975588862
 10
139.2551279744161
 20
268.9220644123992
 10
139.1601912167957
 20
268.6722524376212
 10
138.62403680843
 20
267.2614785849681
 10
138.1502893039526
 20
265.8278466674587
 10
137.6630016979951
 20
264.3994834736764
 10
137.5042536110697
 20
263.9341730604987
 10
137.3687325599248
 20
263.4612760964295
 10
137.2048829276717
 20
262.9349398497724
 10
139.932241081063
 20
262.9349398497724
 10
142.5171640889388
 20
262.9349398497724
 10
145.1852602910902
 20
262.9349398497724
 10
145.9004369276933
 20
264.9875770353893
 10
146.6161897388263
 20
267.0418490382659
 10
147.3917926793669
 20
269.2679185962605
 97
        0
 97
        0
 75
     2
 76
     1
 98
        0
  0
SPLINE
  5
73
330
41
100
AcDbEntity
  8
Capa 1
370
     0
100
AcDbSpline
210
0.0
220
0.0
230
1.0
 70
    11
 71
     3
 72
    62
 73
    58
 74
     0
 42
0.0000000001
 43
0.0000000001
 12
1.0
 22
0.0
 32
0.0
 13
1.0
 23
0.0
 33
0.0
 40
0.0
 40
0.0
 40
0.0
 40
0.0
 40
1.0
 40
1.0
 40
1.0
 40
2.0
 40
2.0
 40
2.0
 40
3.0
 40
3.0
 40
3.0
 40
4.0
 40
4.0
 40
4.0
 40
5.0
 40
5.0
 40
5.0
 40
6.0
 40
6.0
 40
6.0
 40
7.0
 40
7.0
 40
7.0
 40
8.0
 40
8.0
 40
8.0
 40
9.0
 40
9.0
 40
9.0
 40
10.0
 40
10.0
 40
10.0
 40
11.0
 40
11.0
 40
11.0
 40
12.0
 40
12.0
 40
12.0
 40
13.0
 40
13.0
 40
13.0
 40
14.0
 40
14.0
 40
14.0
 40
15.0
 40
15.0
 40
15.0
 40
16.0
 40
16.0
 40
16.0
 40
17.0
 40
17.0
 40
17.0
 40
18.0
 40
18.0
 40
18.0
 40
19.0
 40
19.0
 40
19.0
 40
19.0
 10
184.6120311891943
 20
260.0241087957762
 30
0.0
 10
185.0021013466816
 20
261.1405714766411
 30
0.0
 10
185.3272438367051
 20
262.0691799942404
 30
0.0
 10
185.6510179122183
 20
262.9982438517769
 30
0.0
 10
186.6123891244619
 20
265.7569076428906
 30
0.0
 10
187.5852478164187
 20
268.5118413186142
 30
0.0
 10
188.5242322474057
 20
271.2777934864031
 30
0.0
 10
188.7137816644695
 20
271.836159225559
 30
0.0
 10
188.9614886982541
 20
272.1089592574014
 30
0.0
 10
189.6206563689889
 20
272.1011920393728
 30
0.0
 10
192.6989888372117
 20
272.0649124626517
 30
0.0
 10
195.7779695017827
 20
272.0830225070328
 30
0.0
 10
198.8566860863597
 20
272.0733876608411
 30
0.0
 10
199.2154987755396
 20
272.0722647338021
 30
0.0
 10
199.5775524464555
 20
272.0411650160788
 30
0.0
 10
199.9322478884652
 20
271.9871550897312
 30
0.0
 10
201.1394295599966
 20
271.8033372946851
 30
0.0
 10
201.6695461394252
 20
271.104067346324
 30
0.0
 10
201.3416188058335
 20
269.9422366504721
 30
0.0
 10
200.9938254545594
 20
268.71006915384
 30
0.0
 10
200.5714175015209
 20
267.490404410586
 30
0.0
 10
200.0751391721538
 20
266.3081098566444
 30
0.0
 10
199.5037660955787
 20
264.9469739325211
 30
0.0
 10
198.3131374381783
 20
264.3959744184814
 30
0.0
 10
196.877046426936
 20
264.2797393520131
 30
0.0
 10
196.5326741119385
 20
264.251866672491
 30
0.0
 10
196.1868253497067
 20
264.2413336315523
 30
0.0
 10
195.64372083606
 20
264.2122124392985
 30
0.0
 10
196.8896382411644
 20
262.8261136047367
 30
0.0
 10
198.019324438277
 20
261.5693283747158
 30
0.0
 10
199.149010635389
 20
260.3125431446952
 30
0.0
 10
199.1211742033596
 20
260.2273035084163
 30
0.0
 10
199.0933377713321
 20
260.1420624032986
 30
0.0
 10
199.0654893356656
 20
260.0568212981813
 30
0.0
 10
197.657618872807
 20
260.0568212981813
 30
0.0
 10
196.2490762063263
 20
260.0366188933466
 30
0.0
 10
194.8427061979753
 20
260.0817004848246
 30
0.0
 10
194.6613912752505
 20
260.0875112099613
 30
0.0
 10
194.4735343708727
 20
260.4185741900505
 30
0.0
 10
194.3192516365612
 20
260.6212548092123
 30
0.0
 10
193.6540821477958
 20
261.4951740626547
 30
0.0
 10
192.924753224275
 20
262.3340057018248
 30
0.0
 10
192.3641954237928
 20
263.2691417377524
 30
0.0
 10
191.8329625062127
 20
264.1553551695039
 30
0.0
 10
191.1174977823443
 20
264.4455256855387
 30
0.0
 10
190.1740600023778
 20
264.243959914804
 30
0.0
 10
189.870704111807
 20
264.1791518221675
 30
0.0
 10
189.4879201614108
 20
263.9166953510958
 30
0.0
 10
189.3751820115112
 20
263.6499954055756
 30
0.0
 10
188.9632892436641
 20
262.6754680585481
 30
0.0
 10
188.6941917304141
 20
261.6425720069025
 30
0.0
 10
188.2723599519075
 20
260.6729182660438
 30
0.0
 10
188.1478582386671
 20
260.3867003944336
 30
0.0
 10
187.7125583804974
 20
260.0851566618337
 30
0.0
 10
187.3924454139834
 20
260.05332840021
 30
0.0
 10
186.5319767664797
 20
259.9677685571362
 30
0.0
 10
185.656779657529
 20
260.0241087957762
 30
0.0
 10
184.6120311891943
 20
260.0241087957762
 30
0.0
  0
SPLINE
  5
74
330
41
100
AcDbEntity
  8
Capa 1
370
     0
100
AcDbSpline
210
0.0
220
0.0
230
1.0
 70
    11
 71
     3
 72
    23
 73
    19
 74
     0
 42
0.0000000001
 43
0.0000000001
 12
1.0
 22
0.0
 32
0.0
 13
1.0
 23
0.0
 33
0.0
 40
0.0
 40
0.0
 40
0.0
 40
0.0
 40
1.0
 40
1.0
 40
1.0
 40
2.0
 40
2.0
 40
2.0
 40
3.0
 40
3.0
 40
3.0
 40
4.0
 40
4.0
 40
4.0
 40
5.0
 40
5.0
 40
5.0
 40
6.0
 40
6.0
 40
6.0
 40
6.0
 10
197.739891794379
 20
269.332992548667
 30
0.0
 10
195.6085501823966
 20
269.332992548667
 30
0.0
 10
193.6294386829594
 20
269.3397903332807
 30
0.0
 10
191.6506392780596
 20
269.3191839978563
 30
0.0
 10
191.5034506926615
 20
269.3176512648737
 30
0.0
 10
191.2793788182837
 20
269.1483228272864
 30
0.0
 10
191.225914623261
 20
269.0078122668014
 30
0.0
 10
190.9835972220674
 20
268.3712352836261
 30
0.0
 10
190.7897264960226
 20
267.7169867043646
 30
0.0
 10
190.5497618074969
 20
266.9812535744692
 30
0.0
 10
192.5399046484756
 20
266.9812535744692
 30
0.0
 10
194.3670741226347
 20
266.9552272249512
 30
0.0
 10
196.1920109204862
 20
267.0061136662122
 30
0.0
 10
196.5069623234941
 20
267.0148973204878
 30
0.0
 10
196.9371966472446
 20
267.2802341838732
 30
0.0
 10
197.0948764105607
 20
267.54993937298
 30
0.0
 10
197.3761696180492
 20
268.0310610982738
 30
0.0
 10
197.4901801533709
 20
268.605907939905
 30
0.0
 10
197.739891794379
 20
269.332992548667
 30
0.0
  0
HATCH
  5
75
330
41
100
AcDbEntity
  8
Capa 1
 62
     7
420
 16777215
100
AcDbHatch
 10
0.0
 20
0.0
 30
0.0
210
0.0
220
0.0
230
1.0
  2
SOLID
 70
     1
 71
     0
 91
        2
 92
        1
 93
        1
 72
     4
 94
        3
 73
     0
 74
     1
 95
       62
 96
       58
 40
0.0
 40
0.0
 40
0.0
 40
0.0
 40
1.0
 40
1.0
 40
1.0
 40
2.0
 40
2.0
 40
2.0
 40
3.0
 40
3.0
 40
3.0
 40
4.0
 40
4.0
 40
4.0
 40
5.0
 40
5.0
 40
5.0
 40
6.0
 40
6.0
 40
6.0
 40
7.0
 40
7.0
 40
7.0
 40
8.0
 40
8.0
 40
8.0
 40
9.0
 40
9.0
 40
9.0
 40
10.0
 40
10.0
 40
10.0
 40
11.0
 40
11.0
 40
11.0
 40
12.0
 40
12.0
 40
12.0
 40
13.0
 40
13.0
 40
13.0
 40
14.0
 40
14.0
 40
14.0
 40
15.0
 40
15.0
 40
15.0
 40
16.0
 40
16.0
 40
16.0
 40
17.0
 40
17.0
 40
17.0
 40
18.0
 40
18.0
 40
18.0
 40
19.0
 40
19.0
 40
19.0
 40
19.0
 10
184.6120311891943
 20
260.0241087957762
 10
185.0021013466816
 20
261.1405714766411
 10
185.3272438367051
 20
262.0691799942404
 10
185.6510179122183
 20
262.9982438517769
 10
186.6123891244619
 20
265.7569076428906
 10
187.5852478164187
 20
268.5118413186142
 10
188.5242322474057
 20
271.2777934864031
 10
188.7137816644695
 20
271.836159225559
 10
188.9614886982541
 20
272.1089592574014
 10
189.6206563689889
 20
272.1011920393728
 10
192.6989888372117
 20
272.0649124626517
 10
195.7779695017827
 20
272.0830225070328
 10
198.8566860863597
 20
272.0733876608411
 10
199.2154987755396
 20
272.0722647338021
 10
199.5775524464555
 20
272.0411650160788
 10
199.9322478884652
 20
271.9871550897312
 10
201.1394295599966
 20
271.8033372946851
 10
201.6695461394252
 20
271.104067346324
 10
201.3416188058335
 20
269.9422366504721
 10
200.9938254545594
 20
268.71006915384
 10
200.5714175015209
 20
267.490404410586
 10
200.0751391721538
 20
266.3081098566444
 10
199.5037660955787
 20
264.9469739325211
 10
198.3131374381783
 20
264.3959744184814
 10
196.877046426936
 20
264.2797393520131
 10
196.5326741119385
 20
264.251866672491
 10
196.1868253497067
 20
264.2413336315523
 10
195.64372083606
 20
264.2122124392985
 10
196.8896382411644
 20
262.8261136047367
 10
198.019324438277
 20
261.5693283747158
 10
199.149010635389
 20
260.3125431446952
 10
199.1211742033596
 20
260.2273035084163
 10
199.0933377713321
 20
260.1420624032986
 10
199.0654893356656
 20
260.0568212981813
 10
197.657618872807
 20
260.0568212981813
 10
196.2490762063263
 20
260.0366188933466
 10
194.8427061979753
 20
260.0817004848246
 10
194.6613912752505
 20
260.0875112099613
 10
194.4735343708727
 20
260.4185741900505
 10
194.3192516365612
 20
260.6212548092123
 10
193.6540821477958
 20
261.4951740626547
 10
192.924753224275
 20
262.3340057018248
 10
192.3641954237928
 20
263.2691417377524
 10
191.8329625062127
 20
264.1553551695039
 10
191.1174977823443
 20
264.4455256855387
 10
190.1740600023778
 20
264.243959914804
 10
189.870704111807
 20
264.1791518221675
 10
189.4879201614108
 20
263.9166953510958
 10
189.3751820115112
 20
263.6499954055756
 10
188.9632892436641
 20
262.6754680585481
 10
188.6941917304141
 20
261.6425720069025
 10
188.2723599519075
 20
260.6729182660438
 10
188.1478582386671
 20
260.3867003944336
 10
187.7125583804974
 20
260.0851566618337
 10
187.3924454139834
 20
260.05332840021
 10
186.5319767664797
 20
259.9677685571362
 10
185.656779657529
 20
260.0241087957762
 10
184.6120311891943
 20
260.0241087957762
 97
        0
 97
        0
 92
        1
 93
        1
 72
     4
 94
        3
 73
     0
 74
     1
 95
       23
 96
       19
 40
0.0
 40
0.0
 40
0.0
 40
0.0
 40
1.0
 40
1.0
 40
1.0
 40
2.0
 40
2.0
 40
2.0
 40
3.0
 40
3.0
 40
3.0
 40
4.0
 40
4.0
 40
4.0
 40
5.0
 40
5.0
 40
5.0
 40
6.0
 40
6.0
 40
6.0
 40
6.0
 10
197.739891794379
 20
269.332992548667
 10
195.6085501823966
 20
269.332992548667
 10
193.6294386829594
 20
269.3397903332807
 10
191.6506392780596
 20
269.3191839978563
 10
191.5034506926615
 20
269.3176512648737
 10
191.2793788182837
 20
269.1483228272864
 10
191.225914623261
 20
269.0078122668014
 10
190.9835972220674
 20
268.3712352836261
 10
190.7897264960226
 20
267.7169867043646
 10
190.5497618074969
 20
266.9812535744692
 10
192.5399046484756
 20
266.9812535744692
 10
194.3670741226347
 20
266.9552272249512
 10
196.1920109204862
 20
267.0061136662122
 10
196.5069623234941
 20
267.0148973204878
 10
196.9371966472446
 20
267.2802341838732
 10
197.0948764105607
 20
267.54993937298
 10
197.3761696180492
 20
268.0310610982738
 10
197.4901801533709
 20
268.605907939905
 10
197.739891794379
 20
269.332992548667
 97
        0
 97
        0
 75
     2
 76
     1
 98
        0
  0
SPLINE
  5
76
330
41
100
AcDbEntity
  8
Capa 1
370
     0
100
AcDbSpline
210
0.0
220
0.0
230
1.0
 70
    11
 71
     3
 72
    65
 73
    61
 74
     0
 42
0.0000000001
 43
0.0000000001
 12
1.0
 22
0.0
 32
0.0
 13
1.0
 23
0.0
 33
0.0
 40
0.0
 40
0.0
 40
0.0
 40
0.0
 40
1.0
 40
1.0
 40
1.0
 40
2.0
 40
2.0
 40
2.0
 40
3.0
 40
3.0
 40
3.0
 40
4.0
 40
4.0
 40
4.0
 40
5.0
 40
5.0
 40
5.0
 40
6.0
 40
6.0
 40
6.0
 40
7.0
 40
7.0
 40
7.0
 40
8.0
 40
8.0
 40
8.0
 40
9.0
 40
9.0
 40
9.0
 40
10.0
 40
10.0
 40
10.0
 40
11.0
 40
11.0
 40
11.0
 40
12.0
 40
12.0
 40
12.0
 40
13.0
 40
13.0
 40
13.0
 40
14.0
 40
14.0
 40
14.0
 40
15.0
 40
15.0
 40
15.0
 40
16.0
 40
16.0
 40
16.0
 40
17.0
 40
17.0
 40
17.0
 40
18.0
 40
18.0
 40
18.0
 40
19.0
 40
19.0
 40
19.0
 40
20.0
 40
20.0
 40
20.0
 40
20.0
 10
109.1505248860661
 20
264.7039487260682
 30
0.0
 10
108.4604118415613
 20
262.9109977820967
 30
0.0
 10
108.2736472680644
 20
261.0345051791614
 30
0.0
 10
106.2508425333602
 20
260.329675677049
 30
0.0
 10
105.7368708444365
 20
260.1505846043204
 30
0.0
 10
105.1683186223373
 20
260.0475646779057
 30
0.0
 10
104.6231734905606
 20
260.0409079017891
 30
0.0
 10
102.1343095802747
 20
260.0105235084188
 30
0.0
 10
99.64484548818763
 20
260.0257935535444
 30
0.0
 10
97.15559746154813
 20
260.0282861724923
 30
0.0
 10
96.92711425091767
 20
260.0285153112994
 30
0.0
 10
96.69554010399959
 20
260.0356714925088
 30
0.0
 10
96.47069999691374
 20
260.0714949948733
 30
0.0
 10
95.03809004012855
 20
260.2997436859392
 30
0.0
 10
94.54134356895506
 20
260.998929910505
 30
0.0
 10
94.94404755339694
 20
262.3789095638436
 30
0.0
 10
95.33911722530353
 20
263.7326968889132
 30
0.0
 10
95.8247543313012
 20
265.0615389296061
 30
0.0
 10
96.28491371975645
 20
266.3966147209259
 30
0.0
 10
96.65100061239019
 20
267.4587318458444
 30
0.0
 10
97.01520893597962
 20
268.5224602866058
 30
0.0
 10
97.422288245767
 20
269.5698163189406
 30
0.0
 10
97.99549187684009
 20
271.0445815900201
 30
0.0
 10
99.02492370555852
 20
271.9927337383835
 30
0.0
 10
100.7149936504295
 20
272.0103120632244
 30
0.0
 10
103.4971964169909
 20
272.0392503850837
 30
0.0
 10
106.2817218871316
 20
272.0905488355459
 30
0.0
 10
109.061601950116
 20
272.0105096220036
 30
0.0
 10
110.7486769877872
 20
271.9619336637156
 30
0.0
 10
111.2167347687726
 20
271.1961539733067
 30
0.0
 10
110.816173433368
 20
269.5664240364073
 30
0.0
 10
110.3404453289392
 20
267.6308635617234
 30
0.0
 10
110.3407574234765
 20
267.6285824555207
 30
0.0
 10
108.3812358580929
 20
267.3586202196755
 30
0.0
 10
107.8400879371248
 20
267.2840678523783
 30
0.0
 10
107.296359234402
 20
267.2275719168562
 30
0.0
 10
106.5711535598695
 20
267.1409838868274
 30
0.0
 10
106.7866488362814
 20
267.8999151176943
 30
0.0
 10
106.9628141991339
 20
268.5203370805428
 30
0.0
 10
107.1735980483918
 20
269.2626939376889
 30
0.0
 10
105.1225427562135
 20
269.2626939376889
 30
0.0
 10
103.1387618423476
 20
269.2714070877166
 30
0.0
 10
101.1554250630158
 20
269.2462583692072
 30
0.0
 10
100.9956746724789
 20
269.2442328409045
 30
0.0
 10
100.7520908876807
 20
269.0393827472668
 30
0.0
 10
100.6941313309531
 20
268.8782328024905
 30
0.0
 10
100.0003091629058
 20
266.9492343638398
 30
0.0
 10
99.3342454032529
 20
265.0106671767306
 30
0.0
 10
98.60482045064417
 20
262.9132730129452
 30
0.0
 10
100.7108043814432
 20
262.9132730129452
 30
0.0
 10
102.6879472845669
 20
262.8907806888766
 30
0.0
 10
104.662797493202
 20
262.946346849623
 30
0.0
 10
104.8716187479634
 20
262.9522222036537
 30
0.0
 10
105.1433990738719
 20
263.3876667234543
 30
0.0
 10
105.2560051837742
 20
263.6729797905442
 30
0.0
 10
105.9136003781852
 20
265.3390172120958
 30
0.0
 10
105.9008285094142
 20
265.3456167035109
 30
0.0
 10
107.6474895965009
 20
265.0146036639312
 30
0.0
 10
108.0902797235753
 20
264.9306918576631
 30
0.0
 10
108.5302850070808
 20
264.8326351365662
 30
0.0
 10
109.1505248860661
 20
264.7039487260682
 30
0.0
  0
HATCH
  5
77
330
41
100
AcDbEntity
  8
Capa 1
 62
     7
420
 16777215
100
AcDbHatch
 10
0.0
 20
0.0
 30
0.0
210
0.0
220
0.0
230
1.0
  2
SOLID
 70
     1
 71
     0
 91
        1
 92
        1
 93
        1
 72
     4
 94
        3
 73
     0
 74
     1
 95
       65
 96
       61
 40
0.0
 40
0.0
 40
0.0
 40
0.0
 40
1.0
 40
1.0
 40
1.0
 40
2.0
 40
2.0
 40
2.0
 40
3.0
 40
3.0
 40
3.0
 40
4.0
 40
4.0
 40
4.0
 40
5.0
 40
5.0
 40
5.0
 40
6.0
 40
6.0
 40
6.0
 40
7.0
 40
7.0
 40
7.0
 40
8.0
 40
8.0
 40
8.0
 40
9.0
 40
9.0
 40
9.0
 40
10.0
 40
10.0
 40
10.0
 40
11.0
 40
11.0
 40
11.0
 40
12.0
 40
12.0
 40
12.0
 40
13.0
 40
13.0
 40
13.0
 40
14.0
 40
14.0
 40
14.0
 40
15.0
 40
15.0
 40
15.0
 40
16.0
 40
16.0
 40
16.0
 40
17.0
 40
17.0
 40
17.0
 40
18.0
 40
18.0
 40
18.0
 40
19.0
 40
19.0
 40
19.0
 40
20.0
 40
20.0
 40
20.0
 40
20.0
 10
109.1505248860661
 20
264.7039487260682
 10
108.4604118415613
 20
262.9109977820967
 10
108.2736472680644
 20
261.0345051791614
 10
106.2508425333602
 20
260.329675677049
 10
105.7368708444365
 20
260.1505846043204
 10
105.1683186223373
 20
260.0475646779057
 10
104.6231734905606
 20
260.0409079017891
 10
102.1343095802747
 20
260.0105235084188
 10
99.64484548818763
 20
260.0257935535444
 10
97.15559746154813
 20
260.0282861724923
 10
96.92711425091767
 20
260.0285153112994
 10
96.69554010399959
 20
260.0356714925088
 10
96.47069999691374
 20
260.0714949948733
 10
95.03809004012855
 20
260.2997436859392
 10
94.54134356895506
 20
260.998929910505
 10
94.94404755339694
 20
262.3789095638436
 10
95.33911722530353
 20
263.7326968889132
 10
95.8247543313012
 20
265.0615389296061
 10
96.28491371975645
 20
266.3966147209259
 10
96.65100061239019
 20
267.4587318458444
 10
97.01520893597962
 20
268.5224602866058
 10
97.422288245767
 20
269.5698163189406
 10
97.99549187684009
 20
271.0445815900201
 10
99.02492370555852
 20
271.9927337383835
 10
100.7149936504295
 20
272.0103120632244
 10
103.4971964169909
 20
272.0392503850837
 10
106.2817218871316
 20
272.0905488355459
 10
109.061601950116
 20
272.0105096220036
 10
110.7486769877872
 20
271.9619336637156
 10
111.2167347687726
 20
271.1961539733067
 10
110.816173433368
 20
269.5664240364073
 10
110.3404453289392
 20
267.6308635617234
 10
110.3407574234765
 20
267.6285824555207
 10
108.3812358580929
 20
267.3586202196755
 10
107.8400879371248
 20
267.2840678523783
 10
107.296359234402
 20
267.2275719168562
 10
106.5711535598695
 20
267.1409838868274
 10
106.7866488362814
 20
267.8999151176943
 10
106.9628141991339
 20
268.5203370805428
 10
107.1735980483918
 20
269.2626939376889
 10
105.1225427562135
 20
269.2626939376889
 10
103.1387618423476
 20
269.2714070877166
 10
101.1554250630158
 20
269.2462583692072
 10
100.9956746724789
 20
269.2442328409045
 10
100.7520908876807
 20
269.0393827472668
 10
100.6941313309531
 20
268.8782328024905
 10
100.0003091629058
 20
266.9492343638398
 10
99.3342454032529
 20
265.0106671767306
 10
98.60482045064417
 20
262.9132730129452
 10
100.7108043814432
 20
262.9132730129452
 10
102.6879472845669
 20
262.8907806888766
 10
104.662797493202
 20
262.946346849623
 10
104.8716187479634
 20
262.9522222036537
 10
105.1433990738719
 20
263.3876667234543
 10
105.2560051837742
 20
263.6729797905442
 10
105.9136003781852
 20
265.3390172120958
 10
105.9008285094142
 20
265.3456167035109
 10
107.6474895965009
 20
265.0146036639312
 10
108.0902797235753
 20
264.9306918576631
 10
108.5302850070808
 20
264.8326351365662
 10
109.1505248860661
 20
264.7039487260682
 97
        0
 97
        0
 75
     2
 76
     1
 98
        0
  0
SPLINE
  5
78
330
41
100
AcDbEntity
  8
Capa 1
370
     0
100
AcDbSpline
210
0.0
220
0.0
230
1.0
 70
    11
 71
     3
 72
    62
 73
    58
 74
     0
 42
0.0000000001
 43
0.0000000001
 12
1.0
 22
0.0
 32
0.0
 13
1.0
 23
0.0
 33
0.0
 40
0.0
 40
0.0
 40
0.0
 40
0.0
 40
1.0
 40
1.0
 40
1.0
 40
2.0
 40
2.0
 40
2.0
 40
3.0
 40
3.0
 40
3.0
 40
4.0
 40
4.0
 40
4.0
 40
5.0
 40
5.0
 40
5.0
 40
6.0
 40
6.0
 40
6.0
 40
7.0
 40
7.0
 40
7.0
 40
8.0
 40
8.0
 40
8.0
 40
9.0
 40
9.0
 40
9.0
 40
10.0
 40
10.0
 40
10.0
 40
11.0
 40
11.0
 40
11.0
 40
12.0
 40
12.0
 40
12.0
 40
13.0
 40
13.0
 40
13.0
 40
14.0
 40
14.0
 40
14.0
 40
15.0
 40
15.0
 40
15.0
 40
16.0
 40
16.0
 40
16.0
 40
17.0
 40
17.0
 40
17.0
 40
18.0
 40
18.0
 40
18.0
 40
19.0
 40
19.0
 40
19.0
 40
19.0
 10
183.9970969173494
 20
271.9556257367445
 30
0.0
 10
183.7271711532131
 20
271.1646451840585
 30
0.0
 10
183.5366614452652
 20
270.4213233000134
 30
0.0
 10
183.2046648790488
 20
269.7445148301122
 30
0.0
 10
183.1030420961445
 20
269.5373564567591
 30
0.0
 10
182.6142780429521
 20
269.4224785970721
 30
0.0
 10
182.3009831417212
 20
269.4188696608583
 30
0.0
 10
180.0083966865118
 20
269.392454069136
 30
0.0
 10
177.7153420894963
 20
269.4056912417676
 30
0.0
 10
175.4224435397495
 20
269.4052469181187
 30
0.0
 10
173.8309294487696
 20
269.404939196451
 30
0.0
 10
173.8309294487696
 20
269.4041085682752
 30
0.0
 10
173.4999411879828
 20
267.6377215687159
 30
0.0
 10
175.1938582982124
 20
267.6377215687159
 30
0.0
 10
176.8637441290447
 20
267.6377215687159
 30
0.0
 10
178.6915137850052
 20
267.6377215687159
 30
0.0
 10
178.3856491344978
 20
266.7564919060208
 30
0.0
 10
178.1989925937261
 20
266.0454286532815
 30
0.0
 10
177.8808962380712
 20
265.3960639620581
 30
0.0
 10
177.7692384154173
 20
265.1681296024331
 30
0.0
 10
177.3404085170849
 20
264.9797216870502
 30
0.0
 10
177.0469556262651
 20
264.9659234181094
 30
0.0
 10
175.9357070141454
 20
264.9136709570363
 30
0.0
 10
174.8127788641367
 20
264.8594987240335
 30
0.0
 10
173.7092005754603
 20
264.961477243946
 30
0.0
 10
172.6998988444186
 20
265.0547455515082
 30
0.0
 10
172.1698062722627
 20
264.7284489523767
 30
0.0
 10
172.0187885269611
 20
263.7595810401197
 30
0.0
 10
171.9804008988332
 20
263.5133449526891
 30
0.0
 10
171.8801585340757
 20
263.2763507971483
 30
0.0
 10
171.7746945876309
 20
262.9221521417246
 30
0.0
 10
174.8192008094293
 20
262.9221521417246
 30
0.0
 10
177.7806418696766
 20
262.9221521417246
 30
0.0
 10
180.9590006372079
 20
262.9221521417246
 30
0.0
 10
180.6119515113694
 20
261.9414248273562
 30
0.0
 10
180.3321107438451
 20
261.1032145068746
 30
0.0
 10
180.0070282720014
 20
260.2821749085482
 30
0.0
 10
179.9572251859778
 20
260.1563865164258
 30
0.0
 10
179.698906937913
 20
260.0376911454571
 30
0.0
 10
179.536605774713
 20
260.0371476752094
 30
0.0
 10
175.5130589883857
 20
260.0236857702863
 30
0.0
 10
171.4894521838779
 20
260.0265940705315
 30
0.0
 10
167.323590288394
 20
260.0265940705315
 30
0.0
 10
167.4027182573177
 20
260.3996114849159
 30
0.0
 10
167.4309147984293
 20
260.6720531201628
 30
0.0
 10
167.5185893562293
 20
260.9247124383879
 30
0.0
 10
168.7186408679395
 20
264.3825257331049
 30
0.0
 10
169.9302878920868
 20
267.8364796546431
 30
0.0
 10
171.1289829929223
 20
271.2947365385895
 30
0.0
 10
171.2837578763113
 20
271.7412796021538
 30
0.0
 10
171.4170222438784
 20
272.0963316527508
 30
0.0
 10
172.0364098647015
 20
272.0921248992648
 30
0.0
 10
175.8685346667402
 20
272.0660948776507
 30
0.0
 10
179.7008995414994
 20
272.0751972698827
 30
0.0
 10
183.5331923944431
 20
272.0688401368216
 30
0.0
 10
183.6273849266253
 20
272.0686844399398
 30
0.0
 10
183.7214934333549
 20
272.0246361763516
 30
0.0
 10
183.9970969173494
 20
271.9556257367445
 30
0.0
  0
HATCH
  5
79
330
41
100
AcDbEntity
  8
Capa 1
 62
     7
420
 16777215
100
AcDbHatch
 10
0.0
 20
0.0
 30
0.0
210
0.0
220
0.0
230
1.0
  2
SOLID
 70
     1
 71
     0
 91
        1
 92
        1
 93
        1
 72
     4
 94
        3
 73
     0
 74
     1
 95
       62
 96
       58
 40
0.0
 40
0.0
 40
0.0
 40
0.0
 40
1.0
 40
1.0
 40
1.0
 40
2.0
 40
2.0
 40
2.0
 40
3.0
 40
3.0
 40
3.0
 40
4.0
 40
4.0
 40
4.0
 40
5.0
 40
5.0
 40
5.0
 40
6.0
 40
6.0
 40
6.0
 40
7.0
 40
7.0
 40
7.0
 40
8.0
 40
8.0
 40
8.0
 40
9.0
 40
9.0
 40
9.0
 40
10.0
 40
10.0
 40
10.0
 40
11.0
 40
11.0
 40
11.0
 40
12.0
 40
12.0
 40
12.0
 40
13.0
 40
13.0
 40
13.0
 40
14.0
 40
14.0
 40
14.0
 40
15.0
 40
15.0
 40
15.0
 40
16.0
 40
16.0
 40
16.0
 40
17.0
 40
17.0
 40
17.0
 40
18.0
 40
18.0
 40
18.0
 40
19.0
 40
19.0
 40
19.0
 40
19.0
 10
183.9970969173494
 20
271.9556257367445
 10
183.7271711532131
 20
271.1646451840585
 10
183.5366614452652
 20
270.4213233000134
 10
183.2046648790488
 20
269.7445148301122
 10
183.1030420961445
 20
269.5373564567591
 10
182.6142780429521
 20
269.4224785970721
 10
182.3009831417212
 20
269.4188696608583
 10
180.0083966865118
 20
269.392454069136
 10
177.7153420894963
 20
269.4056912417676
 10
175.4224435397495
 20
269.4052469181187
 10
173.8309294487696
 20
269.404939196451
 10
173.8309294487696
 20
269.4041085682752
 10
173.4999411879828
 20
267.6377215687159
 10
175.1938582982124
 20
267.6377215687159
 10
176.8637441290447
 20
267.6377215687159
 10
178.6915137850052
 20
267.6377215687159
 10
178.3856491344978
 20
266.7564919060208
 10
178.1989925937261
 20
266.0454286532815
 10
177.8808962380712
 20
265.3960639620581
 10
177.7692384154173
 20
265.1681296024331
 10
177.3404085170849
 20
264.9797216870502
 10
177.0469556262651
 20
264.9659234181094
 10
175.9357070141454
 20
264.9136709570363
 10
174.8127788641367
 20
264.8594987240335
 10
173.7092005754603
 20
264.961477243946
 10
172.6998988444186
 20
265.0547455515082
 10
172.1698062722627
 20
264.7284489523767
 10
172.0187885269611
 20
263.7595810401197
 10
171.9804008988332
 20
263.5133449526891
 10
171.8801585340757
 20
263.2763507971483
 10
171.7746945876309
 20
262.9221521417246
 10
174.8192008094293
 20
262.9221521417246
 10
177.7806418696766
 20
262.9221521417246
 10
180.9590006372079
 20
262.9221521417246
 10
180.6119515113694
 20
261.9414248273562
 10
180.3321107438451
 20
261.1032145068746
 10
180.0070282720014
 20
260.2821749085482
 10
179.9572251859778
 20
260.1563865164258
 10
179.698906937913
 20
260.0376911454571
 10
179.536605774713
 20
260.0371476752094
 10
175.5130589883857
 20
260.0236857702863
 10
171.4894521838779
 20
260.0265940705315
 10
167.323590288394
 20
260.0265940705315
 10
167.4027182573177
 20
260.3996114849159
 10
167.4309147984293
 20
260.6720531201628
 10
167.5185893562293
 20
260.9247124383879
 10
168.7186408679395
 20
264.3825257331049
 10
169.9302878920868
 20
267.8364796546431
 10
171.1289829929223
 20
271.2947365385895
 10
171.2837578763113
 20
271.7412796021538
 10
171.4170222438784
 20
272.0963316527508
 10
172.0364098647015
 20
272.0921248992648
 10
175.8685346667402
 20
272.0660948776507
 10
179.7008995414994
 20
272.0751972698827
 10
183.5331923944431
 20
272.0688401368216
 10
183.6273849266253
 20
272.0686844399398
 10
183.7214934333549
 20
272.0246361763516
 10
183.9970969173494
 20
271.9556257367445
 97
        0
 97
        0
 75
     2
 76
     1
 98
        0
  0
SPLINE
  5
7A
330
41
100
AcDbEntity
  8
Capa 1
370
     0
100
AcDbSpline
210
0.0
220
0.0
230
1.0
 70
    11
 71
     3
 72
    44
 73
    40
 74
     0
 42
0.0000000001
 43
0.0000000001
 12
1.0
 22
0.0
 32
0.0
 13
1.0
 23
0.0
 33
0.0
 40
0.0
 40
0.0
 40
0.0
 40
0.0
 40
1.0
 40
1.0
 40
1.0
 40
2.0
 40
2.0
 40
2.0
 40
3.0
 40
3.0
 40
3.0
 40
4.0
 40
4.0
 40
4.0
 40
5.0
 40
5.0
 40
5.0
 40
6.0
 40
6.0
 40
6.0
 40
7.0
 40
7.0
 40
7.0
 40
8.0
 40
8.0
 40
8.0
 40
9.0
 40
9.0
 40
9.0
 40
10.0
 40
10.0
 40
10.0
 40
11.0
 40
11.0
 40
11.0
 40
12.0
 40
12.0
 40
12.0
 40
13.0
 40
13.0
 40
13.0
 40
13.0
 10
155.6133951130976
 20
260.0260799770538
 30
0.0
 10
156.7027130821317
 20
263.1831779640891
 30
0.0
 10
157.7317607944956
 20
266.1655972692735
 30
0.0
 10
158.8066383893479
 20
269.2808590635134
 30
0.0
 10
157.0279756085174
 20
269.2808590635134
 30
0.0
 10
155.375110933621
 20
269.2808590635134
 30
0.0
 10
153.5151235184676
 20
269.2808590635134
 30
0.0
 10
153.8438070811306
 20
270.2079642249001
 30
0.0
 10
154.0902897440378
 20
270.9894494710529
 30
0.0
 10
154.4106307796374
 20
271.7407603677415
 30
0.0
 10
154.482676603284
 20
271.9097113138315
 30
0.0
 10
154.8123084531955
 20
272.0703383520993
 30
0.0
 10
155.023920553341
 20
272.0710411913252
 30
0.0
 10
159.3804001894974
 20
272.0855114538836
 30
0.0
 10
163.7369398438337
 20
272.0771251204241
 30
0.0
 10
168.0934674945335
 20
272.0669673677243
 30
0.0
 10
168.2116432915683
 20
272.0666919605039
 30
0.0
 10
168.3296390340629
 20
271.9964073034913
 30
0.0
 10
168.567839188087
 20
271.9204764312551
 30
0.0
 10
168.2978053912255
 20
271.1416358288355
 30
0.0
 10
168.0814278475625
 20
270.3789083848458
 30
0.0
 10
167.755109001205
 20
269.6642978871102
 30
0.0
 10
167.6619727889959
 20
269.4603540668312
 30
0.0
 10
167.252996904711
 20
269.293256060518
 30
0.0
 10
166.9833472242036
 20
269.2851825896608
 30
0.0
 10
165.70700060168
 20
269.2469685526253
 30
0.0
 10
164.4274250010556
 20
269.2364502000713
 30
0.0
 10
163.1517265748794
 20
269.2848396158691
 30
0.0
 10
162.5222198888542
 20
269.308717054651
 30
0.0
 10
162.2467124339492
 20
269.1113279262123
 30
0.0
 10
162.0484243698326
 20
268.5121475714431
 30
0.0
 10
161.21139882356
 20
265.9828531951764
 30
0.0
 10
160.2783201815142
 20
263.4838844587398
 30
0.0
 10
159.4515337368027
 20
260.9515598686315
 30
0.0
 10
159.2056992702442
 20
260.1986009351369
 30
0.0
 10
158.8381599376466
 20
259.9348944824956
 30
0.0
 10
158.0517177137416
 20
260.0108819050148
 30
0.0
 10
157.316338957646
 20
260.081935498986
 30
0.0
 10
156.5681763291437
 20
260.0260799770538
 30
0.0
 10
155.6133951130976
 20
260.0260799770538
 30
0.0
  0
HATCH
  5
7B
330
41
100
AcDbEntity
  8
Capa 1
 62
     7
420
 16777215
100
AcDbHatch
 10
0.0
 20
0.0
 30
0.0
210
0.0
220
0.0
230
1.0
  2
SOLID
 70
     1
 71
     0
 91
        1
 92
        1
 93
        1
 72
     4
 94
        3
 73
     0
 74
     1
 95
       44
 96
       40
 40
0.0
 40
0.0
 40
0.0
 40
0.0
 40
1.0
 40
1.0
 40
1.0
 40
2.0
 40
2.0
 40
2.0
 40
3.0
 40
3.0
 40
3.0
 40
4.0
 40
4.0
 40
4.0
 40
5.0
 40
5.0
 40
5.0
 40
6.0
 40
6.0
 40
6.0
 40
7.0
 40
7.0
 40
7.0
 40
8.0
 40
8.0
 40
8.0
 40
9.0
 40
9.0
 40
9.0
 40
10.0
 40
10.0
 40
10.0
 40
11.0
 40
11.0
 40
11.0
 40
12.0
 40
12.0
 40
12.0
 40
13.0
 40
13.0
 40
13.0
 40
13.0
 10
155.6133951130976
 20
260.0260799770538
 10
156.7027130821317
 20
263.1831779640891
 10
157.7317607944956
 20
266.1655972692735
 10
158.8066383893479
 20
269.2808590635134
 10
157.0279756085174
 20
269.2808590635134
 10
155.375110933621
 20
269.2808590635134
 10
153.5151235184676
 20
269.2808590635134
 10
153.8438070811306
 20
270.2079642249001
 10
154.0902897440378
 20
270.9894494710529
 10
154.4106307796374
 20
271.7407603677415
 10
154.482676603284
 20
271.9097113138315
 10
154.8123084531955
 20
272.0703383520993
 10
155.023920553341
 20
272.0710411913252
 10
159.3804001894974
 20
272.0855114538836
 10
163.7369398438337
 20
272.0771251204241
 10
168.0934674945335
 20
272.0669673677243
 10
168.2116432915683
 20
272.0666919605039
 10
168.3296390340629
 20
271.9964073034913
 10
168.567839188087
 20
271.9204764312551
 10
168.2978053912255
 20
271.1416358288355
 10
168.0814278475625
 20
270.3789083848458
 10
167.755109001205
 20
269.6642978871102
 10
167.6619727889959
 20
269.4603540668312
 10
167.252996904711
 20
269.293256060518
 10
166.9833472242036
 20
269.2851825896608
 10
165.70700060168
 20
269.2469685526253
 10
164.4274250010556
 20
269.2364502000713
 10
163.1517265748794
 20
269.2848396158691
 10
162.5222198888542
 20
269.308717054651
 10
162.2467124339492
 20
269.1113279262123
 10
162.0484243698326
 20
268.5121475714431
 10
161.21139882356
 20
265.9828531951764
 10
160.2783201815142
 20
263.4838844587398
 10
159.4515337368027
 20
260.9515598686315
 10
159.2056992702442
 20
260.1986009351369
 10
158.8381599376466
 20
259.9348944824956
 10
158.0517177137416
 20
260.0108819050148
 10
157.316338957646
 20
260.081935498986
 10
156.5681763291437
 20
260.0260799770538
 10
155.6133951130976
 20
260.0260799770538
 97
        0
 97
        0
 75
     2
 76
     1
 98
        0
  0
SPLINE
  5
7C
330
41
100
AcDbEntity
  8
Capa 1
370
     0
100
AcDbSpline
210
0.0
220
0.0
230
1.0
 70
    11
 71
     3
 72
    35
 73
    31
 74
     0
 42
0.0000000001
 43
0.0000000001
 12
1.0
 22
0.0
 32
0.0
 13
1.0
 23
0.0
 33
0.0
 40
0.0
 40
0.0
 40
0.0
 40
0.0
 40
1.0
 40
1.0
 40
1.0
 40
2.0
 40
2.0
 40
2.0
 40
3.0
 40
3.0
 40
3.0
 40
4.0
 40
4.0
 40
4.0
 40
5.0
 40
5.0
 40
5.0
 40
6.0
 40
6.0
 40
6.0
 40
7.0
 40
7.0
 40
7.0
 40
8.0
 40
8.0
 40
8.0
 40
9.0
 40
9.0
 40
9.0
 40
10.0
 40
10.0
 40
10.0
 40
10.0
 10
105.8795880754018
 20
173.7744213105597
 30
0.0
 10
104.8992571199972
 20
173.7744213105597
 30
0.0
 10
103.9169815755503
 20
173.7364665235212
 30
0.0
 10
102.9391113655385
 20
173.784526919493
 30
0.0
 10
101.8434134639372
 20
173.8383804145391
 30
0.0
 10
101.4313826542746
 20
174.3461637620055
 30
0.0
 10
101.7465021081868
 20
175.3700029554133
 30
0.0
 10
102.2259873507027
 20
176.9278648273886
 30
0.0
 10
102.7889098674881
 20
178.4630713342208
 30
0.0
 10
103.3711462346997
 20
179.9878784644188
 30
0.0
 10
103.6869138849584
 20
180.8147992921302
 30
0.0
 10
104.3948643326521
 20
181.2410679777728
 30
0.0
 10
105.2818910249426
 20
181.2548163062051
 30
0.0
 10
107.3397403751323
 20
181.2867312293001
 30
0.0
 10
109.3990241598305
 20
181.3018543905756
 30
0.0
 10
111.456375359124
 20
181.2596693486342
 30
0.0
 10
112.4566023413016
 20
181.239187864483
 30
0.0
 10
112.842819331612
 20
180.7512984657654
 30
0.0
 10
112.5558484042672
 20
179.8006074300413
 30
0.0
 10
112.0668562819893
 20
178.1806313152521
 30
0.0
 10
111.4936586527341
 20
176.5820297384272
 30
0.0
 10
110.882961664419
 20
175.0014419970606
 30
0.0
 10
110.5430186911289
 20
174.1216194816558
 30
0.0
 10
109.7151519191723
 20
173.8248553495602
 30
0.0
 10
108.8200287743567
 20
173.7902612650274
 30
0.0
 10
107.8413003043665
 20
173.7524357357765
 30
0.0
 10
106.8598710162626
 20
173.7816597467258
 30
0.0
 10
105.8796180844921
 20
173.7816597467258
 30
0.0
 10
105.8796120826745
 20
173.7792508515738
 30
0.0
 10
105.8796000790382
 20
173.7768302057133
 30
0.0
 10
105.8795880754018
 20
173.7744213105597
 30
0.0
  0
SPLINE
  5
7D
330
41
100
AcDbEntity
  8
Capa 1
370
     0
100
AcDbSpline
210
0.0
220
0.0
230
1.0
 70
    11
 71
     3
 72
    23
 73
    19
 74
     0
 42
0.0000000001
 43
0.0000000001
 12
1.0
 22
0.0
 32
0.0
 13
1.0
 23
0.0
 33
0.0
 40
0.0
 40
0.0
 40
0.0
 40
0.0
 40
1.0
 40
1.0
 40
1.0
 40
2.0
 40
2.0
 40
2.0
 40
3.0
 40
3.0
 40
3.0
 40
4.0
 40
4.0
 40
4.0
 40
5.0
 40
5.0
 40
5.0
 40
6.0
 40
6.0
 40
6.0
 40
6.0
 10
104.1623058875775
 20
175.7034175459531
 30
0.0
 10
105.6985552381254
 20
175.7034175459531
 30
0.0
 10
107.0937018467591
 20
175.6952390531417
 30
0.0
 10
108.4884643390406
 20
175.7145454664875
 30
0.0
 10
108.6495411313619
 20
175.7167663503108
 30
0.0
 10
108.9060228231083
 20
175.8365765697071
 30
0.0
 10
108.9530770764734
 20
175.9614983471099
 30
0.0
 10
109.3730242841201
 20
177.0764055279948
 30
0.0
 10
109.7558202381526
 20
178.204696765362
 30
0.0
 10
110.1868468018835
 20
179.4354894291511
 30
0.0
 10
108.6418828115542
 20
179.4354894291511
 30
0.0
 10
107.2751488094799
 20
179.4512236272455
 30
0.0
 10
105.9096271746487
 20
179.4187094180391
 30
0.0
 10
105.7024384143919
 20
179.4137623699452
 30
0.0
 10
105.3824574878745
 20
179.2277251599137
 30
0.0
 10
105.3160053586323
 20
179.0523340913864
 30
0.0
 10
104.9118609378629
 20
177.9856870685102
 30
0.0
 10
104.5660301810846
 20
176.897853518999
 30
0.0
 10
104.1623058875775
 20
175.7034175459531
 30
0.0
  0
HATCH
  5
7E
330
41
100
AcDbEntity
  8
Capa 1
 62
     7
420
 16777215
100
AcDbHatch
 10
0.0
 20
0.0
 30
0.0
210
0.0
220
0.0
230
1.0
  2
SOLID
 70
     1
 71
     0
 91
        2
 92
        1
 93
        1
 72
     4
 94
        3
 73
     0
 74
     1
 95
       35
 96
       31
 40
0.0
 40
0.0
 40
0.0
 40
0.0
 40
1.0
 40
1.0
 40
1.0
 40
2.0
 40
2.0
 40
2.0
 40
3.0
 40
3.0
 40
3.0
 40
4.0
 40
4.0
 40
4.0
 40
5.0
 40
5.0
 40
5.0
 40
6.0
 40
6.0
 40
6.0
 40
7.0
 40
7.0
 40
7.0
 40
8.0
 40
8.0
 40
8.0
 40
9.0
 40
9.0
 40
9.0
 40
10.0
 40
10.0
 40
10.0
 40
10.0
 10
105.8795880754018
 20
173.7744213105597
 10
104.8992571199972
 20
173.7744213105597
 10
103.9169815755503
 20
173.7364665235212
 10
102.9391113655385
 20
173.784526919493
 10
101.8434134639372
 20
173.8383804145391
 10
101.4313826542746
 20
174.3461637620055
 10
101.7465021081868
 20
175.3700029554133
 10
102.2259873507027
 20
176.9278648273886
 10
102.7889098674881
 20
178.4630713342208
 10
103.3711462346997
 20
179.9878784644188
 10
103.6869138849584
 20
180.8147992921302
 10
104.3948643326521
 20
181.2410679777728
 10
105.2818910249426
 20
181.2548163062051
 10
107.3397403751323
 20
181.2867312293001
 10
109.3990241598305
 20
181.3018543905756
 10
111.456375359124
 20
181.2596693486342
 10
112.4566023413016
 20
181.239187864483
 10
112.842819331612
 20
180.7512984657654
 10
112.5558484042672
 20
179.8006074300413
 10
112.0668562819893
 20
178.1806313152521
 10
111.4936586527341
 20
176.5820297384272
 10
110.882961664419
 20
175.0014419970606
 10
110.5430186911289
 20
174.1216194816558
 10
109.7151519191723
 20
173.8248553495602
 10
108.8200287743567
 20
173.7902612650274
 10
107.8413003043665
 20
173.7524357357765
 10
106.8598710162626
 20
173.7816597467258
 10
105.8796180844921
 20
173.7816597467258
 10
105.8796120826745
 20
173.7792508515738
 10
105.8796000790382
 20
173.7768302057133
 10
105.8795880754018
 20
173.7744213105597
 97
        0
 97
        0
 92
        1
 93
        1
 72
     4
 94
        3
 73
     0
 74
     1
 95
       23
 96
       19
 40
0.0
 40
0.0
 40
0.0
 40
0.0
 40
1.0
 40
1.0
 40
1.0
 40
2.0
 40
2.0
 40
2.0
 40
3.0
 40
3.0
 40
3.0
 40
4.0
 40
4.0
 40
4.0
 40
5.0
 40
5.0
 40
5.0
 40
6.0
 40
6.0
 40
6.0
 40
6.0
 10
104.1623058875775
 20
175.7034175459531
 10
105.6985552381254
 20
175.7034175459531
 10
107.0937018467591
 20
175.6952390531417
 10
108.4884643390406
 20
175.7145454664875
 10
108.6495411313619
 20
175.7167663503108
 10
108.9060228231083
 20
175.8365765697071
 10
108.9530770764734
 20
175.9614983471099
 10
109.3730242841201
 20
177.0764055279948
 10
109.7558202381526
 20
178.204696765362
 10
110.1868468018835
 20
179.4354894291511
 10
108.6418828115542
 20
179.4354894291511
 10
107.2751488094799
 20
179.4512236272455
 10
105.9096271746487
 20
179.4187094180391
 10
105.7024384143919
 20
179.4137623699452
 10
105.3824574878745
 20
179.2277251599137
 10
105.3160053586323
 20
179.0523340913864
 10
104.9118609378629
 20
177.9856870685102
 10
104.5660301810846
 20
176.897853518999
 10
104.1623058875775
 20
175.7034175459531
 97
        0
 97
        0
 75
     2
 76
     1
 98
        0
  0
SPLINE
  5
7F
330
41
100
AcDbEntity
  8
Capa 1
370
     0
100
AcDbSpline
210
0.0
220
0.0
230
1.0
 70
    11
 71
     3
 72
    35
 73
    31
 74
     0
 42
0.0000000001
 43
0.0000000001
 12
1.0
 22
0.0
 32
0.0
 13
1.0
 23
0.0
 33
0.0
 40
0.0
 40
0.0
 40
0.0
 40
0.0
 40
1.0
 40
1.0
 40
1.0
 40
2.0
 40
2.0
 40
2.0
 40
3.0
 40
3.0
 40
3.0
 40
4.0
 40
4.0
 40
4.0
 40
5.0
 40
5.0
 40
5.0
 40
6.0
 40
6.0
 40
6.0
 40
7.0
 40
7.0
 40
7.0
 40
8.0
 40
8.0
 40
8.0
 40
9.0
 40
9.0
 40
9.0
 40
10.0
 40
10.0
 40
10.0
 40
10.0
 10
96.19338599477992
 20
181.2818899375785
 30
0.0
 10
97.17396902654207
 20
181.2818899375785
 30
0.0
 10
98.15598049099572
 20
181.3144981524498
 30
0.0
 10
99.1347509737125
 20
181.27333542211
 30
0.0
 10
100.2708231052097
 20
181.2255570431318
 30
0.0
 10
100.6644463389709
 20
180.7712746694696
 30
0.0
 10
100.3521837504413
 20
179.73896321555
 30
0.0
 10
99.88052487863851
 20
178.1796560064832
 30
0.0
 10
99.32401830532753
 20
176.643074666807
 30
0.0
 10
98.75123480151606
 20
175.1156353780034
 30
0.0
 10
98.40638234107713
 20
174.1960249651023
 30
0.0
 10
97.60023014675706
 20
173.8152550210744
 30
0.0
 10
96.65842486129483
 20
173.7964068853429
 30
0.0
 10
94.69792499957218
 20
173.7571477697095
 30
0.0
 10
92.73548655062507
 20
173.7407085291316
 30
0.0
 10
90.77532879253002
 20
173.7820945229241
 30
0.0
 10
89.64166339006333
 20
173.8060307152455
 30
0.0
 10
89.23138511126596
 20
174.3617452008949
 30
0.0
 10
89.56389783383317
 20
175.4363239517126
 30
0.0
 10
90.02698610948696
 20
176.9328588783142
 30
0.0
 10
90.5730075066978
 20
178.4058923887927
 30
0.0
 10
91.11924496935684
 20
179.8762702392493
 30
0.0
 10
91.45652913725849
 20
180.7841886976296
 30
0.0
 10
92.18370940992355
 20
181.2347930996679
 30
0.0
 10
93.15416137284856
 20
181.2617492239615
 30
0.0
 10
94.16647001472445
 20
181.2898569176446
 30
0.0
 10
95.18021309110809
 20
181.2680241020658
 30
0.0
 10
96.19333197841796
 20
181.2680241020658
 30
0.0
 10
96.19334998387184
 20
181.2726421303344
 30
0.0
 10
96.19336798932667
 20
181.2772719093107
 30
0.0
 10
96.19338599477992
 20
181.2818899375785
 30
0.0
  0
SPLINE
  5
80
330
41
100
AcDbEntity
  8
Capa 1
370
     0
100
AcDbSpline
210
0.0
220
0.0
230
1.0
 70
    11
 71
     3
 72
    23
 73
    19
 74
     0
 42
0.0000000001
 43
0.0000000001
 12
1.0
 22
0.0
 32
0.0
 13
1.0
 23
0.0
 33
0.0
 40
0.0
 40
0.0
 40
0.0
 40
0.0
 40
1.0
 40
1.0
 40
1.0
 40
2.0
 40
2.0
 40
2.0
 40
3.0
 40
3.0
 40
3.0
 40
4.0
 40
4.0
 40
4.0
 40
5.0
 40
5.0
 40
5.0
 40
6.0
 40
6.0
 40
6.0
 40
6.0
 10
91.96031574098276
 20
175.6990697839701
 30
0.0
 10
93.5021467823001
 20
175.6990697839701
 30
0.0
 10
94.83936384329651
 20
175.6850981920851
 30
0.0
 10
96.17562661522598
 20
175.7135936591341
 30
0.0
 10
96.38438184998812
 20
175.718035426782
 30
0.0
 10
96.71201509449565
 20
175.8695490565278
 30
0.0
 10
96.77537628745117
 20
176.0315208164491
 30
0.0
 10
97.20025698951876
 20
177.1177210175393
 30
0.0
 10
97.5684985348261
 20
178.2251547480976
 30
0.0
 10
97.99413546596509
 20
179.436793757746
 30
0.0
 10
96.46714692063918
 20
179.436793757746
 30
0.0
 10
95.09858836588386
 20
179.4514233892824
 30
0.0
 10
93.73106212382918
 20
179.4211065624833
 30
0.0
 10
93.52468961082516
 20
179.4165472877553
 30
0.0
 10
93.20330425888865
 20
179.2464440378554
 30
0.0
 10
93.13888674595914
 20
179.0781738984136
 30
0.0
 10
92.7304390216607
 20
178.0111978557116
 30
0.0
 10
92.37931466137933
 20
176.9231997962879
 30
0.0
 10
91.96031574098276
 20
175.6990697839701
 30
0.0
  0
HATCH
  5
81
330
41
100
AcDbEntity
  8
Capa 1
 62
     7
420
 16777215
100
AcDbHatch
 10
0.0
 20
0.0
 30
0.0
210
0.0
220
0.0
230
1.0
  2
SOLID
 70
     1
 71
     0
 91
        2
 92
        1
 93
        1
 72
     4
 94
        3
 73
     0
 74
     1
 95
       35
 96
       31
 40
0.0
 40
0.0
 40
0.0
 40
0.0
 40
1.0
 40
1.0
 40
1.0
 40
2.0
 40
2.0
 40
2.0
 40
3.0
 40
3.0
 40
3.0
 40
4.0
 40
4.0
 40
4.0
 40
5.0
 40
5.0
 40
5.0
 40
6.0
 40
6.0
 40
6.0
 40
7.0
 40
7.0
 40
7.0
 40
8.0
 40
8.0
 40
8.0
 40
9.0
 40
9.0
 40
9.0
 40
10.0
 40
10.0
 40
10.0
 40
10.0
 10
96.19338599477992
 20
181.2818899375785
 10
97.17396902654207
 20
181.2818899375785
 10
98.15598049099572
 20
181.3144981524498
 10
99.1347509737125
 20
181.27333542211
 10
100.2708231052097
 20
181.2255570431318
 10
100.6644463389709
 20
180.7712746694696
 10
100.3521837504413
 20
179.73896321555
 10
99.88052487863851
 20
178.1796560064832
 10
99.32401830532753
 20
176.643074666807
 10
98.75123480151606
 20
175.1156353780034
 10
98.40638234107713
 20
174.1960249651023
 10
97.60023014675706
 20
173.8152550210744
 10
96.65842486129483
 20
173.7964068853429
 10
94.69792499957218
 20
173.7571477697095
 10
92.73548655062507
 20
173.7407085291316
 10
90.77532879253002
 20
173.7820945229241
 10
89.64166339006333
 20
173.8060307152455
 10
89.23138511126596
 20
174.3617452008949
 10
89.56389783383317
 20
175.4363239517126
 10
90.02698610948696
 20
176.9328588783142
 10
90.5730075066978
 20
178.4058923887927
 10
91.11924496935684
 20
179.8762702392493
 10
91.45652913725849
 20
180.7841886976296
 10
92.18370940992355
 20
181.2347930996679
 10
93.15416137284856
 20
181.2617492239615
 10
94.16647001472445
 20
181.2898569176446
 10
95.18021309110809
 20
181.2680241020658
 10
96.19333197841796
 20
181.2680241020658
 10
96.19334998387184
 20
181.2726421303344
 10
96.19336798932667
 20
181.2772719093107
 10
96.19338599477992
 20
181.2818899375785
 97
        0
 97
        0
 92
        1
 93
        1
 72
     4
 94
        3
 73
     0
 74
     1
 95
       23
 96
       19
 40
0.0
 40
0.0
 40
0.0
 40
0.0
 40
1.0
 40
1.0
 40
1.0
 40
2.0
 40
2.0
 40
2.0
 40
3.0
 40
3.0
 40
3.0
 40
4.0
 40
4.0
 40
4.0
 40
5.0
 40
5.0
 40
5.0
 40
6.0
 40
6.0
 40
6.0
 40
6.0
 10
91.96031574098276
 20
175.6990697839701
 10
93.5021467823001
 20
175.6990697839701
 10
94.83936384329651
 20
175.6850981920851
 10
96.17562661522598
 20
175.7135936591341
 10
96.38438184998812
 20
175.718035426782
 10
96.71201509449565
 20
175.8695490565278
 10
96.77537628745117
 20
176.0315208164491
 10
97.20025698951876
 20
177.1177210175393
 10
97.5684985348261
 20
178.2251547480976
 10
97.99413546596509
 20
179.436793757746
 10
96.46714692063918
 20
179.436793757746
 10
95.09858836588386
 20
179.4514233892824
 10
93.73106212382918
 20
179.4211065624833
 10
93.52468961082516
 20
179.4165472877553
 10
93.20330425888865
 20
179.2464440378554
 10
93.13888674595914
 20
179.0781738984136
 10
92.7304390216607
 20
178.0111978557116
 10
92.37931466137933
 20
176.9231997962879
 10
91.96031574098276
 20
175.6990697839701
 97
        0
 97
        0
 75
     2
 76
     1
 98
        0
  0
SPLINE
  5
82
330
41
100
AcDbEntity
  8
Capa 1
370
     0
100
AcDbSpline
210
0.0
220
0.0
230
1.0
 70
    11
 71
     3
 72
    65
 73
    61
 74
     0
 42
0.0000000001
 43
0.0000000001
 12
1.0
 22
0.0
 32
0.0
 13
1.0
 23
0.0
 33
0.0
 40
0.0
 40
0.0
 40
0.0
 40
0.0
 40
1.0
 40
1.0
 40
1.0
 40
2.0
 40
2.0
 40
2.0
 40
3.0
 40
3.0
 40
3.0
 40
4.0
 40
4.0
 40
4.0
 40
5.0
 40
5.0
 40
5.0
 40
6.0
 40
6.0
 40
6.0
 40
7.0
 40
7.0
 40
7.0
 40
8.0
 40
8.0
 40
8.0
 40
9.0
 40
9.0
 40
9.0
 40
10.0
 40
10.0
 40
10.0
 40
11.0
 40
11.0
 40
11.0
 40
12.0
 40
12.0
 40
12.0
 40
13.0
 40
13.0
 40
13.0
 40
14.0
 40
14.0
 40
14.0
 40
15.0
 40
15.0
 40
15.0
 40
16.0
 40
16.0
 40
16.0
 40
17.0
 40
17.0
 40
17.0
 40
18.0
 40
18.0
 40
18.0
 40
19.0
 40
19.0
 40
19.0
 40
20.0
 40
20.0
 40
20.0
 40
20.0
 10
74.72168992984145
 20
178.6845604304743
 30
0.0
 10
74.6929472232898
 20
179.0126401995541
 30
0.0
 10
74.67285913833936
 20
179.241943516668
 30
0.0
 10
74.65001621891233
 20
179.5027622328031
 30
0.0
 10
73.55357409187593
 20
179.5027622328031
 30
0.0
 10
72.50577669998174
 20
179.4851596721273
 30
0.0
 10
71.45899961715313
 20
179.5096128956034
 30
0.0
 10
70.86619404838987
 20
179.5234552297005
 30
0.0
 10
70.61436976743448
 20
179.2926360712458
 30
0.0
 10
70.69837721441782
 20
178.5972291681603
 30
0.0
 10
71.99681052729646
 20
178.5972291681603
 30
0.0
 10
73.29529785653706
 20
178.6021997176701
 30
0.0
 10
74.59373116941536
 20
178.5958895874414
 30
0.0
 10
76.03583600232533
 20
178.5888861654365
 30
0.0
 10
76.43305432508733
 20
178.0804565290271
 30
0.0
 10
76.03679029139259
 20
176.7442247618013
 30
0.0
 10
75.90940170368025
 20
176.3147011300256
 30
0.0
 10
75.74186695515566
 20
175.8967284442748
 30
0.0
 10
75.5997499059943
 20
175.4712000532396
 30
0.0
 10
75.22721105897708
 20
174.3557640904916
 30
0.0
 10
74.40981745948423
 20
173.8052551685134
 30
0.0
 10
73.24543475233337
 20
173.7829993274447
 30
0.0
 10
71.60801275523262
 20
173.7517071918768
 30
0.0
 10
69.96934838179898
 20
173.7570185119206
 30
0.0
 10
68.33164429925078
 20
173.778475304841
 30
0.0
 10
67.63467117673694
 20
173.7876056050054
 30
0.0
 10
66.94164725048786
 20
173.9754641747863
 30
0.0
 10
66.96681287349257
 20
174.8194000277706
 30
0.0
 10
66.9882993820446
 20
175.5399534461078
 30
0.0
 10
67.06875975457187
 20
176.3663337412484
 30
0.0
 10
68.1701413778484
 20
176.3108116456571
 30
0.0
 10
68.65606657111104
 20
176.286323170057
 30
0.0
 10
69.53570502540592
 20
177.0568758511964
 30
0.0
 10
69.35425206086789
 20
175.6993753023795
 30
0.0
 10
70.58637728813667
 20
175.6993753023795
 30
0.0
 10
71.76532640764938
 20
175.726131664636
 30
0.0
 10
72.94218089266926
 20
175.6890934328259
 30
0.0
 10
73.62312916103953
 20
175.6676836427373
 30
0.0
 10
73.78721286419533
 20
176.0039889074605
 30
0.0
 10
73.76557030837493
 20
176.6482449783546
 30
0.0
 10
72.48327588418229
 20
176.6482449783546
 30
0.0
 10
71.21171871244798
 20
176.6425928877769
 30
0.0
 10
69.94022756071134
 20
176.6496668140299
 30
0.0
 10
68.34070704447822
 20
176.6585621000322
 30
0.0
 10
67.96411697028984
 20
177.1841477702116
 30
0.0
 10
68.45915892514255
 20
178.6975097107577
 30
0.0
 10
69.20959024086058
 20
180.9915886949169
 30
0.0
 10
69.63672762650786
 20
181.297953155499
 30
0.0
 10
72.11803524789126
 20
181.2983056767409
 30
0.0
 10
73.33010239930049
 20
181.2984701866537
 30
0.0
 10
74.54251165433666
 20
181.3013608608371
 30
0.0
 10
75.75411066393919
 20
181.274651501413
 30
0.0
 10
76.4219809708199
 20
181.2599161135037
 30
0.0
 10
77.0399401589525
 20
181.0767578269475
 30
0.0
 10
77.04663818787537
 20
180.2737966929739
 30
0.0
 10
77.0525859895444
 20
179.5603877051377
 30
0.0
 10
76.8858494828184
 20
178.9237460930682
 30
0.0
 10
75.92558260509186
 20
178.9053679856599
 30
0.0
 10
75.54753408912207
 20
178.89815305091
 30
0.0
 10
75.17187429672889
 20
178.7711396474721
 30
0.0
 10
74.72168992984145
 20
178.6845604304743
 30
0.0
  0
HATCH
  5
83
330
41
100
AcDbEntity
  8
Capa 1
 62
     7
420
 16777215
100
AcDbHatch
 10
0.0
 20
0.0
 30
0.0
210
0.0
220
0.0
230
1.0
  2
SOLID
 70
     1
 71
     0
 91
        1
 92
        1
 93
        1
 72
     4
 94
        3
 73
     0
 74
     1
 95
       65
 96
       61
 40
0.0
 40
0.0
 40
0.0
 40
0.0
 40
1.0
 40
1.0
 40
1.0
 40
2.0
 40
2.0
 40
2.0
 40
3.0
 40
3.0
 40
3.0
 40
4.0
 40
4.0
 40
4.0
 40
5.0
 40
5.0
 40
5.0
 40
6.0
 40
6.0
 40
6.0
 40
7.0
 40
7.0
 40
7.0
 40
8.0
 40
8.0
 40
8.0
 40
9.0
 40
9.0
 40
9.0
 40
10.0
 40
10.0
 40
10.0
 40
11.0
 40
11.0
 40
11.0
 40
12.0
 40
12.0
 40
12.0
 40
13.0
 40
13.0
 40
13.0
 40
14.0
 40
14.0
 40
14.0
 40
15.0
 40
15.0
 40
15.0
 40
16.0
 40
16.0
 40
16.0
 40
17.0
 40
17.0
 40
17.0
 40
18.0
 40
18.0
 40
18.0
 40
19.0
 40
19.0
 40
19.0
 40
20.0
 40
20.0
 40
20.0
 40
20.0
 10
74.72168992984145
 20
178.6845604304743
 10
74.6929472232898
 20
179.0126401995541
 10
74.67285913833936
 20
179.241943516668
 10
74.65001621891233
 20
179.5027622328031
 10
73.55357409187593
 20
179.5027622328031
 10
72.50577669998174
 20
179.4851596721273
 10
71.45899961715313
 20
179.5096128956034
 10
70.86619404838987
 20
179.5234552297005
 10
70.61436976743448
 20
179.2926360712458
 10
70.69837721441782
 20
178.5972291681603
 10
71.99681052729646
 20
178.5972291681603
 10
73.29529785653706
 20
178.6021997176701
 10
74.59373116941536
 20
178.5958895874414
 10
76.03583600232533
 20
178.5888861654365
 10
76.43305432508733
 20
178.0804565290271
 10
76.03679029139259
 20
176.7442247618013
 10
75.90940170368025
 20
176.3147011300256
 10
75.74186695515566
 20
175.8967284442748
 10
75.5997499059943
 20
175.4712000532396
 10
75.22721105897708
 20
174.3557640904916
 10
74.40981745948423
 20
173.8052551685134
 10
73.24543475233337
 20
173.7829993274447
 10
71.60801275523262
 20
173.7517071918768
 10
69.96934838179898
 20
173.7570185119206
 10
68.33164429925078
 20
173.778475304841
 10
67.63467117673694
 20
173.7876056050054
 10
66.94164725048786
 20
173.9754641747863
 10
66.96681287349257
 20
174.8194000277706
 10
66.9882993820446
 20
175.5399534461078
 10
67.06875975457187
 20
176.3663337412484
 10
68.1701413778484
 20
176.3108116456571
 10
68.65606657111104
 20
176.286323170057
 10
69.53570502540592
 20
177.0568758511964
 10
69.35425206086789
 20
175.6993753023795
 10
70.58637728813667
 20
175.6993753023795
 10
71.76532640764938
 20
175.726131664636
 10
72.94218089266926
 20
175.6890934328259
 10
73.62312916103953
 20
175.6676836427373
 10
73.78721286419533
 20
176.0039889074605
 10
73.76557030837493
 20
176.6482449783546
 10
72.48327588418229
 20
176.6482449783546
 10
71.21171871244798
 20
176.6425928877769
 10
69.94022756071134
 20
176.6496668140299
 10
68.34070704447822
 20
176.6585621000322
 10
67.96411697028984
 20
177.1841477702116
 10
68.45915892514255
 20
178.6975097107577
 10
69.20959024086058
 20
180.9915886949169
 10
69.63672762650786
 20
181.297953155499
 10
72.11803524789126
 20
181.2983056767409
 10
73.33010239930049
 20
181.2984701866537
 10
74.54251165433666
 20
181.3013608608371
 10
75.75411066393919
 20
181.274651501413
 10
76.4219809708199
 20
181.2599161135037
 10
77.0399401589525
 20
181.0767578269475
 10
77.04663818787537
 20
180.2737966929739
 10
77.0525859895444
 20
179.5603877051377
 10
76.8858494828184
 20
178.9237460930682
 10
75.92558260509186
 20
178.9053679856599
 10
75.54753408912207
 20
178.89815305091
 10
75.17187429672889
 20
178.7711396474721
 10
74.72168992984145
 20
178.6845604304743
 97
        0
 97
        0
 75
     2
 76
     1
 98
        0
  0
SPLINE
  5
84
330
41
100
AcDbEntity
  8
Capa 1
370
     0
100
AcDbSpline
210
0.0
220
0.0
230
1.0
 70
    11
 71
     3
 72
    41
 73
    37
 74
     0
 42
0.0000000001
 43
0.0000000001
 12
1.0
 22
0.0
 32
0.0
 13
1.0
 23
0.0
 33
0.0
 40
0.0
 40
0.0
 40
0.0
 40
0.0
 40
1.0
 40
1.0
 40
1.0
 40
2.0
 40
2.0
 40
2.0
 40
3.0
 40
3.0
 40
3.0
 40
4.0
 40
4.0
 40
4.0
 40
5.0
 40
5.0
 40
5.0
 40
6.0
 40
6.0
 40
6.0
 40
7.0
 40
7.0
 40
7.0
 40
8.0
 40
8.0
 40
8.0
 40
9.0
 40
9.0
 40
9.0
 40
10.0
 40
10.0
 40
10.0
 40
11.0
 40
11.0
 40
11.0
 40
12.0
 40
12.0
 40
12.0
 40
12.0
 10
139.8289858036544
 20
176.3091900479449
 30
0.0
 10
140.5607514652957
 20
175.4826099907675
 30
0.0
 10
141.2047945545909
 20
174.7551119039655
 30
0.0
 10
141.8894939592319
 20
173.9817155514745
 30
0.0
 10
140.0314271258482
 20
173.4142386070556
 30
0.0
 10
139.1387527227894
 20
173.709710161265
 30
0.0
 10
138.1335562352821
 20
174.9455791309362
 30
0.0
 10
137.6636618979789
 20
175.523302692785
 30
0.0
 10
137.4200961186358
 20
176.6818050005786
 30
0.0
 10
136.41854873649
 20
176.323972438686
 30
0.0
 10
135.9161725600033
 20
176.1444921237537
 30
0.0
 10
135.5600726925734
 20
175.2464795122693
 30
0.0
 10
135.3752887190285
 20
174.607605265668
 30
0.0
 10
134.9579463004086
 20
173.1647123213676
 30
0.0
 10
133.8490263936834
 20
173.9992593586107
 30
0.0
 10
132.9037520574004
 20
173.6914848130609
 30
0.0
 10
132.9718966993261
 20
174.1003389493563
 30
0.0
 10
132.9797350736745
 20
174.3747649854275
 30
0.0
 10
133.0651049333514
 20
174.6237272371283
 30
0.0
 10
133.7515088543116
 20
176.6254368540066
 30
0.0
 10
134.4682099526944
 20
178.6173346296534
 30
0.0
 10
135.1381928995215
 20
180.6242145580791
 30
0.0
 10
135.3081883934389
 20
181.1333962398044
 30
0.0
 10
135.5594244962266
 20
181.3238164639426
 30
0.0
 10
136.1153608968242
 20
181.3138283620903
 30
0.0
 10
137.9484361599264
 20
181.2808676259778
 30
0.0
 10
139.7826877793613
 20
181.3166485320251
 30
0.0
 10
141.6161231515444
 20
181.2953092461858
 30
0.0
 10
143.1087993031856
 20
181.2779299489617
 30
0.0
 10
143.4667357269333
 20
180.7584663976828
 30
0.0
 10
143.0205365672186
 20
179.3365954701045
 30
0.0
 10
142.9533882270843
 20
179.1226033255945
 30
0.0
 10
142.8772611671766
 20
178.911290342523
 30
0.0
 10
142.8040269835597
 20
178.6991430591786
 30
0.0
 10
142.1872681590334
 20
176.9124713998273
 30
0.0
 10
141.8602050872383
 20
176.6348726725801
 30
0.0
 10
139.8289858036544
 20
176.3091900479449
 30
0.0
  0
SPLINE
  5
85
330
41
100
AcDbEntity
  8
Capa 1
370
     0
100
AcDbSpline
210
0.0
220
0.0
230
1.0
 70
    11
 71
     3
 72
    17
 73
    13
 74
     0
 42
0.0000000001
 43
0.0000000001
 12
1.0
 22
0.0
 32
0.0
 13
1.0
 23
0.0
 33
0.0
 40
0.0
 40
0.0
 40
0.0
 40
0.0
 40
1.0
 40
1.0
 40
1.0
 40
2.0
 40
2.0
 40
2.0
 40
3.0
 40
3.0
 40
3.0
 40
4.0
 40
4.0
 40
4.0
 40
4.0
 10
136.7281105069056
 20
178.1888450601872
 30
0.0
 10
137.6341569605374
 20
178.1888450601872
 30
0.0
 10
138.5454129922208
 20
178.2355776261482
 30
0.0
 10
139.4493828168144
 20
178.1762600518528
 30
0.0
 10
140.43940670834
 20
178.1113021376886
 30
0.0
 10
140.6868016475872
 20
178.593327933084
 30
0.0
 10
140.6236385146257
 20
179.5058996718561
 30
0.0
 10
139.7733849614124
 20
179.5058996718561
 30
0.0
 10
138.9560933928269
 20
179.4424928511554
 30
0.0
 10
138.1535302856891
 20
179.5218806348198
 30
0.0
 10
137.1414317074455
 20
179.6219849167968
 30
0.0
 10
136.7107772564317
 20
179.214223596351
 30
0.0
 10
136.7281105069056
 20
178.1888450601872
 30
0.0
  0
HATCH
  5
86
330
41
100
AcDbEntity
  8
Capa 1
 62
     7
420
 16777215
100
AcDbHatch
 10
0.0
 20
0.0
 30
0.0
210
0.0
220
0.0
230
1.0
  2
SOLID
 70
     1
 71
     0
 91
        2
 92
        1
 93
        1
 72
     4
 94
        3
 73
     0
 74
     1
 95
       41
 96
       37
 40
0.0
 40
0.0
 40
0.0
 40
0.0
 40
1.0
 40
1.0
 40
1.0
 40
2.0
 40
2.0
 40
2.0
 40
3.0
 40
3.0
 40
3.0
 40
4.0
 40
4.0
 40
4.0
 40
5.0
 40
5.0
 40
5.0
 40
6.0
 40
6.0
 40
6.0
 40
7.0
 40
7.0
 40
7.0
 40
8.0
 40
8.0
 40
8.0
 40
9.0
 40
9.0
 40
9.0
 40
10.0
 40
10.0
 40
10.0
 40
11.0
 40
11.0
 40
11.0
 40
12.0
 40
12.0
 40
12.0
 40
12.0
 10
139.8289858036544
 20
176.3091900479449
 10
140.5607514652957
 20
175.4826099907675
 10
141.2047945545909
 20
174.7551119039655
 10
141.8894939592319
 20
173.9817155514745
 10
140.0314271258482
 20
173.4142386070556
 10
139.1387527227894
 20
173.709710161265
 10
138.1335562352821
 20
174.9455791309362
 10
137.6636618979789
 20
175.523302692785
 10
137.4200961186358
 20
176.6818050005786
 10
136.41854873649
 20
176.323972438686
 10
135.9161725600033
 20
176.1444921237537
 10
135.5600726925734
 20
175.2464795122693
 10
135.3752887190285
 20
174.607605265668
 10
134.9579463004086
 20
173.1647123213676
 10
133.8490263936834
 20
173.9992593586107
 10
132.9037520574004
 20
173.6914848130609
 10
132.9718966993261
 20
174.1003389493563
 10
132.9797350736745
 20
174.3747649854275
 10
133.0651049333514
 20
174.6237272371283
 10
133.7515088543116
 20
176.6254368540066
 10
134.4682099526944
 20
178.6173346296534
 10
135.1381928995215
 20
180.6242145580791
 10
135.3081883934389
 20
181.1333962398044
 10
135.5594244962266
 20
181.3238164639426
 10
136.1153608968242
 20
181.3138283620903
 10
137.9484361599264
 20
181.2808676259778
 10
139.7826877793613
 20
181.3166485320251
 10
141.6161231515444
 20
181.2953092461858
 10
143.1087993031856
 20
181.2779299489617
 10
143.4667357269333
 20
180.7584663976828
 10
143.0205365672186
 20
179.3365954701045
 10
142.9533882270843
 20
179.1226033255945
 10
142.8772611671766
 20
178.911290342523
 10
142.8040269835597
 20
178.6991430591786
 10
142.1872681590334
 20
176.9124713998273
 10
141.8602050872383
 20
176.6348726725801
 10
139.8289858036544
 20
176.3091900479449
 97
        0
 97
        0
 92
        1
 93
        1
 72
     4
 94
        3
 73
     0
 74
     1
 95
       17
 96
       13
 40
0.0
 40
0.0
 40
0.0
 40
0.0
 40
1.0
 40
1.0
 40
1.0
 40
2.0
 40
2.0
 40
2.0
 40
3.0
 40
3.0
 40
3.0
 40
4.0
 40
4.0
 40
4.0
 40
4.0
 10
136.7281105069056
 20
178.1888450601872
 10
137.6341569605374
 20
178.1888450601872
 10
138.5454129922208
 20
178.2355776261482
 10
139.4493828168144
 20
178.1762600518528
 10
140.43940670834
 20
178.1113021376886
 10
140.6868016475872
 20
178.593327933084
 10
140.6236385146257
 20
179.5058996718561
 10
139.7733849614124
 20
179.5058996718561
 10
138.9560933928269
 20
179.4424928511554
 10
138.1535302856891
 20
179.5218806348198
 10
137.1414317074455
 20
179.6219849167968
 10
136.7107772564317
 20
179.214223596351
 10
136.7281105069056
 20
178.1888450601872
 97
        0
 97
        0
 75
     2
 76
     1
 98
        0
  0
SPLINE
  5
87
330
41
100
AcDbEntity
  8
Capa 1
370
     0
100
AcDbSpline
210
0.0
220
0.0
230
1.0
 70
    11
 71
     3
 72
    56
 73
    52
 74
     0
 42
0.0000000001
 43
0.0000000001
 12
1.0
 22
0.0
 32
0.0
 13
1.0
 23
0.0
 33
0.0
 40
0.0
 40
0.0
 40
0.0
 40
0.0
 40
1.0
 40
1.0
 40
1.0
 40
2.0
 40
2.0
 40
2.0
 40
3.0
 40
3.0
 40
3.0
 40
4.0
 40
4.0
 40
4.0
 40
5.0
 40
5.0
 40
5.0
 40
6.0
 40
6.0
 40
6.0
 40
7.0
 40
7.0
 40
7.0
 40
8.0
 40
8.0
 40
8.0
 40
9.0
 40
9.0
 40
9.0
 40
10.0
 40
10.0
 40
10.0
 40
11.0
 40
11.0
 40
11.0
 40
12.0
 40
12.0
 40
12.0
 40
13.0
 40
13.0
 40
13.0
 40
14.0
 40
14.0
 40
14.0
 40
15.0
 40
15.0
 40
15.0
 40
16.0
 40
16.0
 40
16.0
 40
17.0
 40
17.0
 40
17.0
 40
17.0
 10
85.46371983488307
 20
178.1580582050655
 30
0.0
 10
85.5572401634457
 20
178.6525044988827
 30
0.0
 10
85.62077540912473
 20
178.9884219902391
 30
0.0
 10
85.70493290155827
 20
179.433362550992
 30
0.0
 10
84.57366222448606
 20
179.433362550992
 30
0.0
 10
83.49917474780774
 20
179.4496020295331
 30
0.0
 10
82.42621173290851
 20
179.4172993330716
 30
0.0
 10
82.24880999554134
 20
179.4119527609034
 30
0.0
 10
81.97989253683299
 20
179.2292880040856
 30
0.0
 10
81.92013843651432
 20
179.0689730940015
 30
0.0
 10
81.52068143562715
 20
177.9972497652431
 30
0.0
 10
81.16647814269547
 20
176.9093457114834
 30
0.0
 10
80.75605582026544
 20
175.7048393816287
 30
0.0
 10
81.97125592068663
 20
175.7048393816287
 30
0.0
 10
83.04173418292037
 20
175.6840053762351
 30
0.0
 10
84.10973969612527
 20
175.7250270980786
 30
0.0
 10
84.29106062066732
 20
175.7319835172505
 30
0.0
 10
84.58642208962071
 20
175.9834721711854
 30
0.0
 10
84.61706137067088
 20
176.1577234210309
 30
0.0
 10
84.81374094755388
 20
177.2760970607938
 30
0.0
 10
85.5213372879833
 20
177.2133835318688
 30
0.0
 10
86.35051245627083
 20
176.9433405099059
 30
0.0
 10
86.56191449278532
 20
176.8744931113722
 30
0.0
 10
86.77886220916079
 20
176.8219674463373
 30
0.0
 10
86.98215578951448
 20
176.7650587671946
 30
0.0
 10
86.91135234219979
 20
174.7867448100672
 30
0.0
 10
85.9675304458794
 20
173.8117180579474
 30
0.0
 10
84.05058577760961
 20
173.769239248305
 30
0.0
 10
82.57863990544872
 20
173.7366192827256
 30
0.0
 10
81.10417326971297
 20
173.735385458379
 30
0.0
 10
79.63277956481035
 20
173.7807549422052
 30
0.0
 10
78.4178135352925
 20
173.8182044487974
 30
0.0
 10
78.00891567464188
 20
174.341663240818
 30
0.0
 10
78.36071223854307
 20
175.4719403478474
 30
0.0
 10
78.8270054850266
 20
176.9700381186213
 30
0.0
 10
79.37726416576625
 20
178.4441879463656
 30
0.0
 10
79.92700068833787
 20
179.9158818761256
 30
0.0
 10
80.23706661146791
 20
180.7459518935975
 30
0.0
 10
80.90257820386223
 20
181.2231011451467
 30
0.0
 10
81.79482047602211
 20
181.2455920003768
 30
0.0
 10
83.56039329172633
 20
181.2900919318058
 30
0.0
 10
85.32785668010993
 20
181.2786819942779
 30
0.0
 10
87.09433577033636
 20
181.2648866630138
 30
0.0
 10
87.76315436446554
 20
181.2596693486342
 30
0.0
 10
88.2292315454996
 20
180.9562073129437
 30
0.0
 10
88.25723002661526
 20
180.2349018492899
 30
0.0
 10
88.29154242030026
 20
179.3507668240263
 30
0.0
 10
87.76839995342517
 20
178.4636236174999
 30
0.0
 10
87.15375977066378
 20
178.3682783722877
 30
0.0
 10
86.62321106033825
 20
178.285976413025
 30
0.0
 10
86.08768684286483
 20
178.2343320510938
 30
0.0
 10
85.46371983488307
 20
178.1580582050655
 30
0.0
  0
HATCH
  5
88
330
41
100
AcDbEntity
  8
Capa 1
 62
     7
420
 16777215
100
AcDbHatch
 10
0.0
 20
0.0
 30
0.0
210
0.0
220
0.0
230
1.0
  2
SOLID
 70
     1
 71
     0
 91
        1
 92
        1
 93
        1
 72
     4
 94
        3
 73
     0
 74
     1
 95
       56
 96
       52
 40
0.0
 40
0.0
 40
0.0
 40
0.0
 40
1.0
 40
1.0
 40
1.0
 40
2.0
 40
2.0
 40
2.0
 40
3.0
 40
3.0
 40
3.0
 40
4.0
 40
4.0
 40
4.0
 40
5.0
 40
5.0
 40
5.0
 40
6.0
 40
6.0
 40
6.0
 40
7.0
 40
7.0
 40
7.0
 40
8.0
 40
8.0
 40
8.0
 40
9.0
 40
9.0
 40
9.0
 40
10.0
 40
10.0
 40
10.0
 40
11.0
 40
11.0
 40
11.0
 40
12.0
 40
12.0
 40
12.0
 40
13.0
 40
13.0
 40
13.0
 40
14.0
 40
14.0
 40
14.0
 40
15.0
 40
15.0
 40
15.0
 40
16.0
 40
16.0
 40
16.0
 40
17.0
 40
17.0
 40
17.0
 40
17.0
 10
85.46371983488307
 20
178.1580582050655
 10
85.5572401634457
 20
178.6525044988827
 10
85.62077540912473
 20
178.9884219902391
 10
85.70493290155827
 20
179.433362550992
 10
84.57366222448606
 20
179.433362550992
 10
83.49917474780774
 20
179.4496020295331
 10
82.42621173290851
 20
179.4172993330716
 10
82.24880999554134
 20
179.4119527609034
 10
81.97989253683299
 20
179.2292880040856
 10
81.92013843651432
 20
179.0689730940015
 10
81.52068143562715
 20
177.9972497652431
 10
81.16647814269547
 20
176.9093457114834
 10
80.75605582026544
 20
175.7048393816287
 10
81.97125592068663
 20
175.7048393816287
 10
83.04173418292037
 20
175.6840053762351
 10
84.10973969612527
 20
175.7250270980786
 10
84.29106062066732
 20
175.7319835172505
 10
84.58642208962071
 20
175.9834721711854
 10
84.61706137067088
 20
176.1577234210309
 10
84.81374094755388
 20
177.2760970607938
 10
85.5213372879833
 20
177.2133835318688
 10
86.35051245627083
 20
176.9433405099059
 10
86.56191449278532
 20
176.8744931113722
 10
86.77886220916079
 20
176.8219674463373
 10
86.98215578951448
 20
176.7650587671946
 10
86.91135234219979
 20
174.7867448100672
 10
85.9675304458794
 20
173.8117180579474
 10
84.05058577760961
 20
173.769239248305
 10
82.57863990544872
 20
173.7366192827256
 10
81.10417326971297
 20
173.735385458379
 10
79.63277956481035
 20
173.7807549422052
 10
78.4178135352925
 20
173.8182044487974
 10
78.00891567464188
 20
174.341663240818
 10
78.36071223854307
 20
175.4719403478474
 10
78.8270054850266
 20
176.9700381186213
 10
79.37726416576625
 20
178.4441879463656
 10
79.92700068833787
 20
179.9158818761256
 10
80.23706661146791
 20
180.7459518935975
 10
80.90257820386223
 20
181.2231011451467
 10
81.79482047602211
 20
181.2455920003768
 10
83.56039329172633
 20
181.2900919318058
 10
85.32785668010993
 20
181.2786819942779
 10
87.09433577033636
 20
181.2648866630138
 10
87.76315436446554
 20
181.2596693486342
 10
88.2292315454996
 20
180.9562073129437
 10
88.25723002661526
 20
180.2349018492899
 10
88.29154242030026
 20
179.3507668240263
 10
87.76839995342517
 20
178.4636236174999
 10
87.15375977066378
 20
178.3682783722877
 10
86.62321106033825
 20
178.285976413025
 10
86.08768684286483
 20
178.2343320510938
 10
85.46371983488307
 20
178.1580582050655
 97
        0
 97
        0
 75
     2
 76
     1
 98
        0
  0
SPLINE
  5
89
330
41
100
AcDbEntity
  8
Capa 1
370
     0
100
AcDbSpline
210
0.0
220
0.0
230
1.0
 70
    11
 71
     3
 72
    47
 73
    43
 74
     0
 42
0.0000000001
 43
0.0000000001
 12
1.0
 22
0.0
 32
0.0
 13
1.0
 23
0.0
 33
0.0
 40
0.0
 40
0.0
 40
0.0
 40
0.0
 40
1.0
 40
1.0
 40
1.0
 40
2.0
 40
2.0
 40
2.0
 40
3.0
 40
3.0
 40
3.0
 40
4.0
 40
4.0
 40
4.0
 40
5.0
 40
5.0
 40
5.0
 40
6.0
 40
6.0
 40
6.0
 40
7.0
 40
7.0
 40
7.0
 40
8.0
 40
8.0
 40
8.0
 40
9.0
 40
9.0
 40
9.0
 40
10.0
 40
10.0
 40
10.0
 40
11.0
 40
11.0
 40
11.0
 40
12.0
 40
12.0
 40
12.0
 40
13.0
 40
13.0
 40
13.0
 40
14.0
 40
14.0
 40
14.0
 40
14.0
 10
122.5525965534609
 20
173.7605789764635
 30
0.0
 10
122.5366677284053
 20
173.9766979991329
 30
0.0
 10
122.4887492132442
 20
174.1097042636819
 30
0.0
 10
122.5246880996153
 20
174.2153548798639
 30
0.0
 10
123.2783603970709
 20
176.4304338537247
 30
0.0
 10
124.0353697053512
 20
178.6444787652761
 30
0.0
 10
124.8146697657993
 20
180.8509562208356
 30
0.0
 10
124.8759123169906
 20
181.024384921117
 30
0.0
 10
125.1039333876328
 20
181.2639113542449
 30
0.0
 10
125.2567036638003
 20
181.2655094505415
 30
0.0
 10
127.7323215616894
 20
181.2914667646494
 30
0.0
 10
130.2083115722977
 20
181.2838758072413
 30
0.0
 10
132.696185182607
 20
181.2838758072413
 30
0.0
 10
132.4952563185566
 20
179.5667095860751
 30
0.0
 10
132.4395714508639
 20
179.5175211221293
 30
0.0
 10
130.8734570537917
 20
179.5214223572056
 30
0.0
 10
129.6948440360891
 20
179.5243600342208
 30
0.0
 10
128.5151746984121
 20
179.4942312187509
 30
0.0
 10
127.3380501315814
 20
179.5355702097116
 30
0.0
 10
126.6848842788767
 20
179.5585193425559
 30
0.0
 10
126.4400941286562
 20
179.2947276972809
 30
0.0
 10
126.4756128877647
 20
178.5912480577567
 30
0.0
 10
127.436023809123
 20
178.5912480577567
 30
0.0
 10
128.3998197558526
 20
178.5912480577567
 30
0.0
 10
129.3606988190176
 20
178.5912480577567
 30
0.0
 10
129.3503876956403
 20
177.0608475905213
 30
0.0
 10
129.1085144289807
 20
176.8092179280901
 30
0.0
 10
127.7497628448891
 20
176.8100874804867
 30
0.0
 10
127.3568838365636
 20
176.8103459960641
 30
0.0
 10
126.9591553592692
 20
176.7710986311391
 30
0.0
 10
126.5721101180706
 20
176.8175374293978
 30
0.0
 10
125.7375813280983
 20
176.9176652127907
 30
0.0
 10
125.4516907279979
 20
176.5198567420732
 30
0.0
 10
125.4845806908102
 20
175.6866845376735
 30
0.0
 10
127.2502195265121
 20
175.6866845376735
 30
0.0
 10
129.0085121369443
 20
175.6866845376735
 30
0.0
 10
130.7666487001073
 20
175.6866845376735
 30
0.0
 10
130.7217070866895
 20
174.0331836527844
 30
0.0
 10
130.4498487371472
 20
173.7598034297314
 30
0.0
 10
128.9420480040665
 20
173.760379214426
 30
0.0
 10
126.8241864753823
 20
173.7611782625743
 30
0.0
 10
124.7063129430624
 20
173.7605789764635
 30
0.0
 10
122.5525965534609
 20
173.7605789764635
 30
0.0
  0
HATCH
  5
8A
330
41
100
AcDbEntity
  8
Capa 1
 62
     7
420
 16777215
100
AcDbHatch
 10
0.0
 20
0.0
 30
0.0
210
0.0
220
0.0
230
1.0
  2
SOLID
 70
     1
 71
     0
 91
        1
 92
        1
 93
        1
 72
     4
 94
        3
 73
     0
 74
     1
 95
       47
 96
       43
 40
0.0
 40
0.0
 40
0.0
 40
0.0
 40
1.0
 40
1.0
 40
1.0
 40
2.0
 40
2.0
 40
2.0
 40
3.0
 40
3.0
 40
3.0
 40
4.0
 40
4.0
 40
4.0
 40
5.0
 40
5.0
 40
5.0
 40
6.0
 40
6.0
 40
6.0
 40
7.0
 40
7.0
 40
7.0
 40
8.0
 40
8.0
 40
8.0
 40
9.0
 40
9.0
 40
9.0
 40
10.0
 40
10.0
 40
10.0
 40
11.0
 40
11.0
 40
11.0
 40
12.0
 40
12.0
 40
12.0
 40
13.0
 40
13.0
 40
13.0
 40
14.0
 40
14.0
 40
14.0
 40
14.0
 10
122.5525965534609
 20
173.7605789764635
 10
122.5366677284053
 20
173.9766979991329
 10
122.4887492132442
 20
174.1097042636819
 10
122.5246880996153
 20
174.2153548798639
 10
123.2783603970709
 20
176.4304338537247
 10
124.0353697053512
 20
178.6444787652761
 10
124.8146697657993
 20
180.8509562208356
 10
124.8759123169906
 20
181.024384921117
 10
125.1039333876328
 20
181.2639113542449
 10
125.2567036638003
 20
181.2655094505415
 10
127.7323215616894
 20
181.2914667646494
 10
130.2083115722977
 20
181.2838758072413
 10
132.696185182607
 20
181.2838758072413
 10
132.4952563185566
 20
179.5667095860751
 10
132.4395714508639
 20
179.5175211221293
 10
130.8734570537917
 20
179.5214223572056
 10
129.6948440360891
 20
179.5243600342208
 10
128.5151746984121
 20
179.4942312187509
 10
127.3380501315814
 20
179.5355702097116
 10
126.6848842788767
 20
179.5585193425559
 10
126.4400941286562
 20
179.2947276972809
 10
126.4756128877647
 20
178.5912480577567
 10
127.436023809123
 20
178.5912480577567
 10
128.3998197558526
 20
178.5912480577567
 10
129.3606988190176
 20
178.5912480577567
 10
129.3503876956403
 20
177.0608475905213
 10
129.1085144289807
 20
176.8092179280901
 10
127.7497628448891
 20
176.8100874804867
 10
127.3568838365636
 20
176.8103459960641
 10
126.9591553592692
 20
176.7710986311391
 10
126.5721101180706
 20
176.8175374293978
 10
125.7375813280983
 20
176.9176652127907
 10
125.4516907279979
 20
176.5198567420732
 10
125.4845806908102
 20
175.6866845376735
 10
127.2502195265121
 20
175.6866845376735
 10
129.0085121369443
 20
175.6866845376735
 10
130.7666487001073
 20
175.6866845376735
 10
130.7217070866895
 20
174.0331836527844
 10
130.4498487371472
 20
173.7598034297314
 10
128.9420480040665
 20
173.760379214426
 10
126.8241864753823
 20
173.7611782625743
 10
124.7063129430624
 20
173.7605789764635
 10
122.5525965534609
 20
173.7605789764635
 97
        0
 97
        0
 75
     2
 76
     1
 98
        0
  0
SPLINE
  5
8B
330
41
100
AcDbEntity
  8
Capa 1
370
     0
100
AcDbSpline
210
0.0
220
0.0
230
1.0
 70
    11
 71
     3
 72
    35
 73
    31
 74
     0
 42
0.0000000001
 43
0.0000000001
 12
1.0
 22
0.0
 32
0.0
 13
1.0
 23
0.0
 33
0.0
 40
0.0
 40
0.0
 40
0.0
 40
0.0
 40
1.0
 40
1.0
 40
1.0
 40
2.0
 40
2.0
 40
2.0
 40
3.0
 40
3.0
 40
3.0
 40
4.0
 40
4.0
 40
4.0
 40
5.0
 40
5.0
 40
5.0
 40
6.0
 40
6.0
 40
6.0
 40
7.0
 40
7.0
 40
7.0
 40
8.0
 40
8.0
 40
8.0
 40
9.0
 40
9.0
 40
9.0
 40
10.0
 40
10.0
 40
10.0
 40
10.0
 10
123.1173076120203
 20
181.3010318410111
 30
0.0
 10
123.0397761266925
 20
179.6378013698474
 30
0.0
 10
122.8245509320927
 20
179.4207540412418
 30
0.0
 10
121.3841146045942
 20
179.4340323413511
 30
0.0
 10
119.4526455366891
 20
179.4518346640648
 30
0.0
 10
119.4508089803714
 20
179.4524574515918
 30
0.0
 10
118.8034768947936
 20
177.6218381440906
 30
0.0
 10
118.4718884522047
 20
176.6840963886505
 30
0.0
 10
118.0964627307139
 20
175.7571182817948
 30
0.0
 10
117.8368000754101
 20
174.8003168778785
 30
0.0
 10
117.6167734263856
 20
173.9895180216277
 30
0.0
 10
117.2185888109216
 20
173.5952582647449
 30
0.0
 10
116.3303317459326
 20
173.7520244609947
 30
0.0
 10
116.0191854955569
 20
173.8069355197661
 30
0.0
 10
115.6894216056487
 20
173.7607669877926
 30
0.0
 10
115.1673714696554
 20
173.7607669877926
 30
0.0
 10
115.8241984313586
 20
175.7047688773798
 30
0.0
 10
116.4320985724712
 20
177.5039197886925
 30
0.0
 10
117.0872090142163
 20
179.4428453723973
 30
0.0
 10
116.0201457864436
 20
179.4428453723973
 30
0.0
 10
115.0571180724216
 20
179.4428453723973
 30
0.0
 10
114.0970792637806
 20
179.4428453723973
 30
0.0
 10
114.1067061799033
 20
181.0482153570657
 30
0.0
 10
114.3498758392559
 20
181.3012551044648
 30
0.0
 10
115.7720426326678
 20
181.3015841242901
 30
0.0
 10
117.8688737909693
 20
181.3020659033209
 30
0.0
 10
119.9656929456358
 20
181.3012903565885
 30
0.0
 10
122.0625241039373
 20
181.3010553424276
 30
0.0
 10
122.413138309686
 20
181.3010083395952
 30
0.0
 10
122.763764519073
 20
181.3010318410111
 30
0.0
 10
123.1173076120203
 20
181.3010318410111
 30
0.0
  0
HATCH
  5
8C
330
41
100
AcDbEntity
  8
Capa 1
 62
     7
420
 16777215
100
AcDbHatch
 10
0.0
 20
0.0
 30
0.0
210
0.0
220
0.0
230
1.0
  2
SOLID
 70
     1
 71
     0
 91
        1
 92
        1
 93
        1
 72
     4
 94
        3
 73
     0
 74
     1
 95
       35
 96
       31
 40
0.0
 40
0.0
 40
0.0
 40
0.0
 40
1.0
 40
1.0
 40
1.0
 40
2.0
 40
2.0
 40
2.0
 40
3.0
 40
3.0
 40
3.0
 40
4.0
 40
4.0
 40
4.0
 40
5.0
 40
5.0
 40
5.0
 40
6.0
 40
6.0
 40
6.0
 40
7.0
 40
7.0
 40
7.0
 40
8.0
 40
8.0
 40
8.0
 40
9.0
 40
9.0
 40
9.0
 40
10.0
 40
10.0
 40
10.0
 40
10.0
 10
123.1173076120203
 20
181.3010318410111
 10
123.0397761266925
 20
179.6378013698474
 10
122.8245509320927
 20
179.4207540412418
 10
121.3841146045942
 20
179.4340323413511
 10
119.4526455366891
 20
179.4518346640648
 10
119.4508089803714
 20
179.4524574515918
 10
118.8034768947936
 20
177.6218381440906
 10
118.4718884522047
 20
176.6840963886505
 10
118.0964627307139
 20
175.7571182817948
 10
117.8368000754101
 20
174.8003168778785
 10
117.6167734263856
 20
173.9895180216277
 10
117.2185888109216
 20
173.5952582647449
 10
116.3303317459326
 20
173.7520244609947
 10
116.0191854955569
 20
173.8069355197661
 10
115.6894216056487
 20
173.7607669877926
 10
115.1673714696554
 20
173.7607669877926
 10
115.8241984313586
 20
175.7047688773798
 10
116.4320985724712
 20
177.5039197886925
 10
117.0872090142163
 20
179.4428453723973
 10
116.0201457864436
 20
179.4428453723973
 10
115.0571180724216
 20
179.4428453723973
 10
114.0970792637806
 20
179.4428453723973
 10
114.1067061799033
 20
181.0482153570657
 10
114.3498758392559
 20
181.3012551044648
 10
115.7720426326678
 20
181.3015841242901
 10
117.8688737909693
 20
181.3020659033209
 10
119.9656929456358
 20
181.3012903565885
 10
122.0625241039373
 20
181.3010553424276
 10
122.413138309686
 20
181.3010083395952
 10
122.763764519073
 20
181.3010318410111
 10
123.1173076120203
 20
181.3010318410111
 97
        0
 97
        0
 75
     2
 76
     1
 98
        0
  0
SPLINE
  5
8D
330
41
100
AcDbEntity
  8
Capa 1
370
     0
100
AcDbSpline
210
0.0
220
0.0
230
1.0
 70
    11
 71
     3
 72
    29
 73
    25
 74
     0
 42
0.0000000001
 43
0.0000000001
 12
1.0
 22
0.0
 32
0.0
 13
1.0
 23
0.0
 33
0.0
 40
0.0
 40
0.0
 40
0.0
 40
0.0
 40
1.0
 40
1.0
 40
1.0
 40
2.0
 40
2.0
 40
2.0
 40
3.0
 40
3.0
 40
3.0
 40
4.0
 40
4.0
 40
4.0
 40
5.0
 40
5.0
 40
5.0
 40
6.0
 40
6.0
 40
6.0
 40
7.0
 40
7.0
 40
7.0
 40
8.0
 40
8.0
 40
8.0
 40
8.0
 10
121.415708174711
 20
207.9792695147376
 30
0.0
 10
122.1779270610428
 20
210.1878503470404
 30
0.0
 10
122.8631786329418
 20
212.2231317368507
 30
0.0
 10
123.6013542362393
 20
214.2398528832777
 30
0.0
 10
123.6802301288061
 20
214.4553667444812
 30
0.0
 10
124.0675274463622
 20
214.6990176761389
 30
0.0
 10
124.3125696729422
 20
214.6998402257031
 30
0.0
 10
129.3253961253575
 20
214.7166378628772
 30
0.0
 10
134.338618697764
 20
214.7249162367065
 30
0.0
 10
139.3511210520062
 20
214.6747759654077
 30
0.0
 10
140.8553927160858
 20
214.6597291837349
 30
0.0
 10
141.0147169775425
 20
214.3508853237516
 30
0.0
 10
140.5500682291987
 20
212.9647130472647
 30
0.0
 10
140.2132101903778
 20
211.9597396156497
 30
0.0
 10
139.8750797661341
 20
210.9549013171778
 30
0.0
 10
139.5171433423865
 20
209.9570135625245
 30
0.0
 10
138.924007673632
 20
208.3034127966168
 30
0.0
 10
138.5066172404667
 20
207.9928533332568
 30
0.0
 10
136.7170671617284
 20
207.9847982228805
 30
0.0
 10
133.0473395519792
 20
207.9682708519918
 30
0.0
 10
129.3774919058692
 20
207.9794575260664
 30
0.0
 10
125.7076922743032
 20
207.9792812654454
 30
0.0
 10
124.3374412068628
 20
207.9792107611974
 30
0.0
 10
122.967190139423
 20
207.9792695147376
 30
0.0
 10
121.415708174711
 20
207.9792695147376
 30
0.0
  0
SPLINE
  5
8E
330
41
100
AcDbEntity
  8
Capa 1
370
     0
100
AcDbSpline
210
0.0
220
0.0
230
1.0
 70
    11
 71
     3
 72
    26
 73
    22
 74
     0
 42
0.0000000001
 43
0.0000000001
 12
1.0
 22
0.0
 32
0.0
 13
1.0
 23
0.0
 33
0.0
 40
0.0
 40
0.0
 40
0.0
 40
0.0
 40
1.0
 40
1.0
 40
1.0
 40
2.0
 40
2.0
 40
2.0
 40
3.0
 40
3.0
 40
3.0
 40
4.0
 40
4.0
 40
4.0
 40
5.0
 40
5.0
 40
5.0
 40
6.0
 40
6.0
 40
6.0
 40
7.0
 40
7.0
 40
7.0
 40
7.0
 10
50.36515100728042
 20
267.114067421174
 30
0.0
 10
50.90416828284825
 20
268.6587516084776
 30
0.0
 10
51.37456077104641
 20
270.0849945338743
 30
0.0
 10
51.91626986200098
 20
271.4847895531007
 30
0.0
 10
52.01031534964168
 20
271.7278052121038
 30
0.0
 10
52.40484485792508
 20
272.0167198712144
 30
0.0
 10
52.66216680419636
 20
272.0181850376256
 30
0.0
 10
56.35689798786431
 20
272.0392188050558
 30
0.0
 10
60.05213632515517
 20
272.033198036013
 30
0.0
 10
63.74669945791778
 20
271.9892423092511
 30
0.0
 10
64.8170096692468
 20
271.9765089482273
 30
0.0
 10
64.94013096433949
 20
271.7510429717145
 30
0.0
 10
64.6121616180222
 20
270.7478600542407
 30
0.0
 10
64.32376225798525
 20
269.8657028200282
 30
0.0
 10
64.09497295463464
 20
268.9425392867769
 30
0.0
 10
63.64581489863032
 20
268.1417894891765
 30
0.0
 10
63.39258619225645
 20
267.6903397705772
 30
0.0
 10
62.75310448466375
 20
267.1680237349159
 30
0.0
 10
62.27755643477665
 20
267.1584836288083
 30
0.0
 10
58.35971966943418
 20
267.0798802049071
 30
0.0
 10
54.43953019142285
 20
267.114067421174
 30
0.0
 10
50.36515100728042
 20
267.114067421174
 30
0.0
  0
SPLINE
  5
8F
330
41
100
AcDbEntity
  8
Capa 1
370
     0
100
AcDbSpline
210
0.0
220
0.0
230
1.0
 70
    11
 71
     3
 72
    23
 73
    19
 74
     0
 42
0.0000000001
 43
0.0000000001
 12
1.0
 22
0.0
 32
0.0
 13
1.0
 23
0.0
 33
0.0
 40
0.0
 40
0.0
 40
0.0
 40
0.0
 40
1.0
 40
1.0
 40
1.0
 40
2.0
 40
2.0
 40
2.0
 40
3.0
 40
3.0
 40
3.0
 40
4.0
 40
4.0
 40
4.0
 40
5.0
 40
5.0
 40
5.0
 40
6.0
 40
6.0
 40
6.0
 40
6.0
 10
116.9419170033164
 20
262.9115765044689
 30
0.0
 10
117.6729744504297
 20
265.0154203381417
 30
0.0
 10
118.3465464844398
 20
266.9798317387936
 30
0.0
 10
119.0520601940124
 20
268.9331901296753
 30
0.0
 10
119.1064846799199
 20
269.0838253939943
 30
0.0
 10
119.3847769783918
 20
269.2501603387026
 30
0.0
 10
119.5603901739857
 20
269.2516240362754
 30
0.0
 10
122.0444586316642
 20
269.2723067513028
 30
0.0
 10
124.5287551584269
 20
269.265698446856
 30
0.0
 10
127.1761690956427
 20
269.265698446856
 30
0.0
 10
126.6457764325859
 20
267.7190034196355
 30
0.0
 10
126.1485978305138
 20
266.2785964845092
 30
0.0
 10
125.6579492064601
 20
264.8360604679661
 30
0.0
 10
125.0029588010753
 20
262.9103691192155
 30
0.0
 10
125.0051434628382
 20
262.910358837346
 30
0.0
 10
122.9476602235493
 20
262.9113723359162
 30
0.0
 10
121.0182197701385
 20
262.9123241432692
 30
0.0
 10
119.088791320364
 20
262.9115765044689
 30
0.0
 10
116.9419170033164
 20
262.9115765044689
 30
0.0
  0
SPLINE
  5
90
330
41
100
AcDbEntity
  8
Capa 1
370
     0
100
AcDbSpline
210
0.0
220
0.0
230
1.0
 70
    11
 71
     3
 72
    23
 73
    19
 74
     0
 42
0.0000000001
 43
0.0000000001
 12
1.0
 22
0.0
 32
0.0
 13
1.0
 23
0.0
 33
0.0
 40
0.0
 40
0.0
 40
0.0
 40
0.0
 40
1.0
 40
1.0
 40
1.0
 40
2.0
 40
2.0
 40
2.0
 40
3.0
 40
3.0
 40
3.0
 40
4.0
 40
4.0
 40
4.0
 40
5.0
 40
5.0
 40
5.0
 40
6.0
 40
6.0
 40
6.0
 40
6.0
 10
147.3917926793669
 20
269.2679185962605
 30
0.0
 10
146.6161897388263
 20
267.0418490382659
 30
0.0
 10
145.9004369276933
 20
264.9875770353893
 30
0.0
 10
145.1852602910902
 20
262.9349398497724
 30
0.0
 10
142.5171640889388
 20
262.9349398497724
 30
0.0
 10
139.932241081063
 20
262.9349398497724
 30
0.0
 10
137.2048829276717
 20
262.9349398497724
 30
0.0
 10
137.3687325599248
 20
263.4612760964295
 30
0.0
 10
137.5042536110697
 20
263.9341730604987
 30
0.0
 10
137.6630016979951
 20
264.3994834736764
 30
0.0
 10
138.1502893039526
 20
265.8278466674587
 30
0.0
 10
138.62403680843
 20
267.2614785849681
 30
0.0
 10
139.1601912167957
 20
268.6722524376212
 30
0.0
 10
139.2551279744161
 20
268.9220644123992
 30
0.0
 10
139.6215869797667
 20
269.237975588862
 30
0.0
 10
139.8677215372275
 20
269.2422227354068
 30
0.0
 10
142.3216728720248
 20
269.2845744905189
 30
0.0
 10
144.7767045340678
 20
269.2679185962605
 30
0.0
 10
147.3917926793669
 20
269.2679185962605
 30
0.0
  0
SPLINE
  5
91
330
41
100
AcDbEntity
  8
Capa 1
370
     0
100
AcDbSpline
210
0.0
220
0.0
230
1.0
 70
    11
 71
     3
 72
    23
 73
    19
 74
     0
 42
0.0000000001
 43
0.0000000001
 12
1.0
 22
0.0
 32
0.0
 13
1.0
 23
0.0
 33
0.0
 40
0.0
 40
0.0
 40
0.0
 40
0.0
 40
1.0
 40
1.0
 40
1.0
 40
2.0
 40
2.0
 40
2.0
 40
3.0
 40
3.0
 40
3.0
 40
4.0
 40
4.0
 40
4.0
 40
5.0
 40
5.0
 40
5.0
 40
6.0
 40
6.0
 40
6.0
 40
6.0
 10
197.739891794379
 20
269.332992548667
 30
0.0
 10
197.4901801533709
 20
268.605907939905
 30
0.0
 10
197.3761696180492
 20
268.0310610982738
 30
0.0
 10
197.0948764105607
 20
267.54993937298
 30
0.0
 10
196.9371966472446
 20
267.2802341838732
 30
0.0
 10
196.5069623234941
 20
267.0148973204878
 30
0.0
 10
196.1920109204862
 20
267.0061136662122
 30
0.0
 10
194.3670741226347
 20
266.9552272249512
 30
0.0
 10
192.5399046484756
 20
266.9812535744692
 30
0.0
 10
190.5497618074969
 20
266.9812535744692
 30
0.0
 10
190.7897264960226
 20
267.7169867043646
 30
0.0
 10
190.9835972220674
 20
268.3712352836261
 30
0.0
 10
191.225914623261
 20
269.0078122668014
 30
0.0
 10
191.2793788182837
 20
269.1483228272864
 30
0.0
 10
191.5034506926615
 20
269.3176512648737
 30
0.0
 10
191.6506392780596
 20
269.3191839978563
 30
0.0
 10
193.6294386829594
 20
269.3397903332807
 30
0.0
 10
195.6085501823966
 20
269.332992548667
 30
0.0
 10
197.739891794379
 20
269.332992548667
 30
0.0
  0
SPLINE
  5
92
330
41
100
AcDbEntity
  8
Capa 1
370
     0
100
AcDbSpline
210
0.0
220
0.0
230
1.0
 70
    11
 71
     3
 72
    23
 73
    19
 74
     0
 42
0.0000000001
 43
0.0000000001
 12
1.0
 22
0.0
 32
0.0
 13
1.0
 23
0.0
 33
0.0
 40
0.0
 40
0.0
 40
0.0
 40
0.0
 40
1.0
 40
1.0
 40
1.0
 40
2.0
 40
2.0
 40
2.0
 40
3.0
 40
3.0
 40
3.0
 40
4.0
 40
4.0
 40
4.0
 40
5.0
 40
5.0
 40
5.0
 40
6.0
 40
6.0
 40
6.0
 40
6.0
 10
104.1623058875775
 20
175.7034175459531
 30
0.0
 10
104.5660301810846
 20
176.897853518999
 30
0.0
 10
104.9118609378629
 20
177.9856870685102
 30
0.0
 10
105.3160053586323
 20
179.0523340913864
 30
0.0
 10
105.3824574878745
 20
179.2277251599137
 30
0.0
 10
105.7024384143919
 20
179.4137623699452
 30
0.0
 10
105.9096271746487
 20
179.4187094180391
 30
0.0
 10
107.2751488094799
 20
179.4512236272455
 30
0.0
 10
108.6418828115542
 20
179.4354894291511
 30
0.0
 10
110.1868468018835
 20
179.4354894291511
 30
0.0
 10
109.7558202381526
 20
178.204696765362
 30
0.0
 10
109.3730242841201
 20
177.0764055279948
 30
0.0
 10
108.9530770764734
 20
175.9614983471099
 30
0.0
 10
108.9060228231083
 20
175.8365765697071
 30
0.0
 10
108.6495411313619
 20
175.7167663503108
 30
0.0
 10
108.4884643390406
 20
175.7145454664875
 30
0.0
 10
107.0937018467591
 20
175.6952390531417
 30
0.0
 10
105.6985552381254
 20
175.7034175459531
 30
0.0
 10
104.1623058875775
 20
175.7034175459531
 30
0.0
  0
SPLINE
  5
93
330
41
100
AcDbEntity
  8
Capa 1
370
     0
100
AcDbSpline
210
0.0
220
0.0
230
1.0
 70
    11
 71
     3
 72
    23
 73
    19
 74
     0
 42
0.0000000001
 43
0.0000000001
 12
1.0
 22
0.0
 32
0.0
 13
1.0
 23
0.0
 33
0.0
 40
0.0
 40
0.0
 40
0.0
 40
0.0
 40
1.0
 40
1.0
 40
1.0
 40
2.0
 40
2.0
 40
2.0
 40
3.0
 40
3.0
 40
3.0
 40
4.0
 40
4.0
 40
4.0
 40
5.0
 40
5.0
 40
5.0
 40
6.0
 40
6.0
 40
6.0
 40
6.0
 10
91.96031574098276
 20
175.6990697839701
 30
0.0
 10
92.37931466137933
 20
176.9231997962879
 30
0.0
 10
92.7304390216607
 20
178.0111978557116
 30
0.0
 10
93.13888674595914
 20
179.0781738984136
 30
0.0
 10
93.20330425888865
 20
179.2464440378554
 30
0.0
 10
93.52468961082516
 20
179.4165472877553
 30
0.0
 10
93.73106212382918
 20
179.4211065624833
 30
0.0
 10
95.09858836588386
 20
179.4514233892824
 30
0.0
 10
96.46714692063918
 20
179.436793757746
 30
0.0
 10
97.99413546596509
 20
179.436793757746
 30
0.0
 10
97.5684985348261
 20
178.2251547480976
 30
0.0
 10
97.20025698951876
 20
177.1177210175393
 30
0.0
 10
96.77537628745117
 20
176.0315208164491
 30
0.0
 10
96.71201509449565
 20
175.8695490565278
 30
0.0
 10
96.38438184998812
 20
175.718035426782
 30
0.0
 10
96.17562661522598
 20
175.7135936591341
 30
0.0
 10
94.83936384329651
 20
175.6850981920851
 30
0.0
 10
93.5021467823001
 20
175.6990697839701
 30
0.0
 10
91.96031574098276
 20
175.6990697839701
 30
0.0
  0
SPLINE
  5
94
330
41
100
AcDbEntity
  8
Capa 1
370
     0
100
AcDbSpline
210
0.0
220
0.0
230
1.0
 70
    11
 71
     3
 72
    17
 73
    13
 74
     0
 42
0.0000000001
 43
0.0000000001
 12
1.0
 22
0.0
 32
0.0
 13
1.0
 23
0.0
 33
0.0
 40
0.0
 40
0.0
 40
0.0
 40
0.0
 40
1.0
 40
1.0
 40
1.0
 40
2.0
 40
2.0
 40
2.0
 40
3.0
 40
3.0
 40
3.0
 40
4.0
 40
4.0
 40
4.0
 40
4.0
 10
136.7281105069056
 20
178.1888450601872
 30
0.0
 10
136.7107772564317
 20
179.214223596351
 30
0.0
 10
137.1414317074455
 20
179.6219849167968
 30
0.0
 10
138.1535302856891
 20
179.5218806348198
 30
0.0
 10
138.9560933928269
 20
179.4424928511554
 30
0.0
 10
139.7733849614124
 20
179.5058996718561
 30
0.0
 10
140.6236385146257
 20
179.5058996718561
 30
0.0
 10
140.6868016475872
 20
178.593327933084
 30
0.0
 10
140.43940670834
 20
178.1113021376886
 30
0.0
 10
139.4493828168144
 20
178.1762600518528
 30
0.0
 10
138.5454129922208
 20
178.2355776261482
 30
0.0
 10
137.6341569605374
 20
178.1888450601872
 30
0.0
 10
136.7281105069056
 20
178.1888450601872
 30
0.0
  0
ENDBLK
  5
44
330
41
100
AcDbEntity
  8
0
100
AcDbBlockEnd
  0
ENDSEC
  0
SECTION
  2
ENTITIES
  0
INSERT
  5
42
330
1F
100
AcDbEntity
  8
Capa 1
100
AcDbBlockReference
  2
block 2
 10
0.0
 20
0.0
 30
0.0
  0
ENDSEC
  0
SECTION
  2
OBJECTS
  0
DICTIONARY
  5
C
330
0
100
AcDbDictionary
281
     1
  3
ACAD_GROUP
350
D
  3
ACAD_LAYOUT
350
1A
  3
ACAD_MATERIAL
350
3B
  3
ACAD_MLEADERSTYLE
350
96
  3
ACAD_MLINESTYLE
350
17
  3
ACAD_PLOTSETTINGS
350
19
  3
ACAD_PLOTSTYLENAME
350
E
  3
ACAD_TABLESTYLE
350
95
  3
ACAD_VISUALSTYLE
350
2A
  0
SUN
  5
3F
330
29
100
AcDbSun
 90
        1
290
     0
 63
     7
421
 16777215
 40
1.0
291
     1
 91
  2455826
 92
 54000000
292
     0
 70
     2
 71
   256
280
     1
  0
DICTIONARY
  5
D
102
{ACAD_REACTORS
330
C
102
}
330
C
100
AcDbDictionary
281
     1
  0
DICTIONARY
  5
1A
102
{ACAD_REACTORS
330
C
102
}
330
C
100
AcDbDictionary
281
     1
  3
Layout1
350
1E
  3
Layout2
350
26
  3
Model
350
22
  0
DICTIONARY
  5
3B
102
{ACAD_REACTORS
330
C
102
}
330
C
100
AcDbDictionary
281
     1
  3
ByBlock
350
3D
  3
ByLayer
350
3C
  3
Global
350
3E
  0
DICTIONARY
  5
96
102
{ACAD_REACTORS
330
C
102
}
330
C
100
AcDbDictionary
281
     1
  0
DICTIONARY
  5
17
102
{ACAD_REACTORS
330
C
102
}
330
C
100
AcDbDictionary
281
     1
  3
Standard
350
18
  0
DICTIONARY
  5
19
102
{ACAD_REACTORS
330
C
102
}
330
C
100
AcDbDictionary
281
     1
  0
ACDBDICTIONARYWDFLT
  5
E
102
{ACAD_REACTORS
330
C
102
}
330
C
100
AcDbDictionary
281
     1
  3
Normal
350
F
100
AcDbDictionaryWithDefault
340
F
  0
DICTIONARY
  5
95
102
{ACAD_REACTORS
330
C
102
}
330
C
100
AcDbDictionary
281
     1
  0
DICTIONARY
  5
2A
102
{ACAD_REACTORS
330
C
102
}
330
C
100
AcDbDictionary
281
     1
  3
2dWireframe
350
2F
  3
3D Hidden
350
31
  3
3dWireframe
350
30
  3
Basic
350
32
  3
Brighten
350
36
  3
ColorChange
350
3A
  3
Conceptual
350
34
  3
Dim
350
35
  3
Facepattern
350
39
  3
Flat
350
2B
  3
FlatWithEdges
350
2C
  3
Gouraud
350
2D
  3
GouraudWithEdges
350
2E
  3
Linepattern
350
38
  3
Realistic
350
33
  3
Thicken
350
37
  0
LAYOUT
  5
1E
102
{ACAD_REACTORS
330
1A
102
}
330
1A
100
AcDbPlotSettings
  1

  2
none_device
  4

  6

 40
0.0
 41
0.0
 42
0.0
 43
0.0
 44
0.0
 45
0.0
 46
0.0
 47
0.0
 48
0.0
 49
0.0
140
0.0
141
0.0
142
1.0
143
1.0
 70
   688
 72
     0
 73
     0
 74
     5
  7

 75
    16
 76
     0
 77
     2
 78
   300
147
1.0
148
0.0
149
0.0
100
AcDbLayout
  1
Layout1
 70
     1
 71
     1
 10
0.0
 20
0.0
 11
12.0
 21
9.0
 12
0.0
 22
0.0
 32
0.0
 14
1.000000000000000E+20
 24
1.000000000000000E+20
 34
1.000000000000000E+20
 15
-1.000000000000000E+20
 25
-1.000000000000000E+20
 35
-1.000000000000000E+20
146
0.0
 13
0.0
 23
0.0
 33
0.0
 16
1.0
 26
0.0
 36
0.0
 17
0.0
 27
1.0
 37
0.0
 76
     0
330
1B
  0
LAYOUT
  5
26
102
{ACAD_REACTORS
330
1A
102
}
330
1A
100
AcDbPlotSettings
  1

  2
none_device
  4

  6

 40
0.0
 41
0.0
 42
0.0
 43
0.0
 44
0.0
 45
0.0
 46
0.0
 47
0.0
 48
0.0
 49
0.0
140
0.0
141
0.0
142
1.0
143
1.0
 70
   688
 72
     0
 73
     0
 74
     5
  7

 75
    16
 76
     0
 77
     2
 78
   300
147
1.0
148
0.0
149
0.0
100
AcDbLayout
  1
Layout2
 70
     1
 71
     2
 10
0.0
 20
0.0
 11
0.0
 21
0.0
 12
0.0
 22
0.0
 32
0.0
 14
0.0
 24
0.0
 34
0.0
 15
0.0
 25
0.0
 35
0.0
146
0.0
 13
0.0
 23
0.0
 33
0.0
 16
1.0
 26
0.0
 36
0.0
 17
0.0
 27
1.0
 37
0.0
 76
     0
330
23
  0
LAYOUT
  5
22
102
{ACAD_REACTORS
330
1A
102
}
330
1A
100
AcDbPlotSettings
  1

  2
none_device
  4

  6

 40
0.0
 41
0.0
 42
0.0
 43
0.0
 44
0.0
 45
0.0
 46
0.0
 47
0.0
 48
0.0
 49
0.0
140
0.0
141
0.0
142
1.0
143
1.0
 70
  1712
 72
     0
 73
     0
 74
     0
  7

 75
     0
 76
     0
 77
     2
 78
   300
147
1.0
148
0.0
149
0.0
100
AcDbLayout
  1
Model
 70
     1
 71
     0
 10
0.0
 20
0.0
 11
12.0
 21
9.0
 12
0.0
 22
0.0
 32
0.0
 14
1.000000000000000E+20
 24
1.000000000000000E+20
 34
1.000000000000000E+20
 15
-1.000000000000000E+20
 25
-1.000000000000000E+20
 35
-1.000000000000000E+20
146
0.0
 13
0.0
 23
0.0
 33
0.0
 16
1.0
 26
0.0
 36
0.0
 17
0.0
 27
1.0
 37
0.0
 76
     0
330
1F
331
29
  0
MATERIAL
  5
3D
102
{ACAD_REACTORS
330
3B
102
}
330
3B
100
AcDbMaterial
  1
ByBlock
 72
     1
 94
      127
  0
MATERIAL
  5
3C
102
{ACAD_REACTORS
330
3B
102
}
330
3B
100
AcDbMaterial
  1
ByLayer
 72
     1
 94
      127
  0
MATERIAL
  5
3E
102
{ACAD_REACTORS
330
3B
102
}
330
3B
100
AcDbMaterial
  1
Global
 72
     1
 94
      127
  0
MLINESTYLE
  5
18
102
{ACAD_REACTORS
330
17
102
}
330
17
100
AcDbMlineStyle
  2
Standard
 70
     0
  3

 62
   256
 51
90.0
 52
90.0
 71
     2
 49
0.5
 62
   256
  6
BYLAYER
 49
-0.5
 62
   256
  6
BYLAYER
  0
ACDBPLACEHOLDER
  5
F
102
{ACAD_REACTORS
330
E
102
}
330
E
  0
VISUALSTYLE
  5
2F
102
{ACAD_REACTORS
330
2A
102
}
330
2A
100
AcDbVisualStyle
  2
2dWireframe
 70
     4
177
     2
291
     0
 71
     0
176
     1
 72
     2
176
     1
 73
     0
176
     1
 90
        0
176
     1
 40
-0.6
176
     1
 41
-30.0
176
     1
 62
     5
 63
     7
421
 16777215
176
     1
 74
     1
176
     1
 91
        4
176
     1
 64
     7
176
     1
 65
   257
176
     1
 75
     1
176
     1
175
     1
176
     1
 42
1.0
176
     1
 92
        0
176
     1
 66
   257
176
     1
 43
1.0
176
     1
 76
     1
176
     1
 77
     6
176
     1
 78
     2
176
     1
 67
     7
176
     1
 79
     5
176
     1
170
     0
176
     1
171
     0
176
     1
290
     0
176
     1
 93
        1
176
     1
 44
0.0
176
     1
173
     0
176
     1
  0
VISUALSTYLE
  5
31
102
{ACAD_REACTORS
330
2A
102
}
330
2A
100
AcDbVisualStyle
  2
3D Hidden
 70
     6
177
     2
291
     0
 71
     1
176
     1
 72
     2
176
     1
 73
     2
176
     1
 90
        0
176
     1
 40
-0.6
176
     1
 41
-30.0
176
     1
 62
     5
 63
     7
421
 16777215
176
     1
 74
     2
176
     1
 91
        2
176
     1
 64
     7
176
     1
 65
   257
176
     1
 75
     2
176
     1
175
     1
176
     1
 42
40.0
176
     1
 92
        0
176
     1
 66
   257
176
     1
 43
1.0
176
     1
 76
     1
176
     1
 77
     6
176
     1
 78
     2
176
     1
 67
     7
176
     1
 79
     3
176
     1
170
     0
176
     1
171
     0
176
     1
290
     0
176
     1
 93
        1
176
     1
 44
0.0
176
     1
173
     0
176
     1
  0
VISUALSTYLE
  5
30
102
{ACAD_REACTORS
330
2A
102
}
330
2A
100
AcDbVisualStyle
  2
3dWireframe
 70
     5
177
     2
291
     0
 71
     0
176
     1
 72
     2
176
     1
 73
     0
176
     1
 90
        0
176
     1
 40
-0.6
176
     1
 41
-30.0
176
     1
 62
     5
 63
     7
421
 16777215
176
     1
 74
     1
176
     1
 91
        4
176
     1
 64
     7
176
     1
 65
   257
176
     1
 75
     1
176
     1
175
     1
176
     1
 42
1.0
176
     1
 92
        0
176
     1
 66
   257
176
     1
 43
1.0
176
     1
 76
     1
176
     1
 77
     6
176
     1
 78
     2
176
     1
 67
     7
176
     1
 79
     5
176
     1
170
     0
176
     1
171
     0
176
     1
290
     0
176
     1
 93
        1
176
     1
 44
0.0
176
     1
173
     0
176
     1
  0
VISUALSTYLE
  5
32
102
{ACAD_REACTORS
330
2A
102
}
330
2A
100
AcDbVisualStyle
  2
Basic
 70
     7
177
     2
291
     1
 71
     1
176
     1
 72
     0
176
     1
 73
     1
176
     1
 90
        0
176
     1
 40
-0.6
176
     1
 41
-30.0
176
     1
 62
     5
 63
     7
421
 16777215
176
     1
 74
     0
176
     1
 91
        4
176
     1
 64
     7
176
     1
 65
   257
176
     1
 75
     1
176
     1
175
     1
176
     1
 42
1.0
176
     1
 92
        8
176
     1
 66
     7
176
     1
 43
1.0
176
     1
 76
     1
176
     1
 77
     6
176
     1
 78
     2
176
     1
 67
     7
176
     1
 79
     5
176
     1
170
     0
176
     1
171
     0
176
     1
290
     0
176
     1
 93
        1
176
     1
 44
0.0
176
     1
173
     0
176
     1
  0
VISUALSTYLE
  5
36
102
{ACAD_REACTORS
330
2A
102
}
330
2A
100
AcDbVisualStyle
  2
Brighten
 70
    12
177
     2
291
     1
 71
     2
176
     1
 72
     2
176
     1
 73
     0
176
     1
 90
        0
176
     1
 40
-0.6
176
     1
 41
-30.0
176
     1
 62
     5
 63
     7
421
 16777215
176
     1
 74
     1
176
     1
 91
        4
176
     1
 64
     7
176
     1
 65
   257
176
     1
 75
     1
176
     1
175
     1
176
     1
 42
1.0
176
     1
 92
        8
176
     1
 66
     7
176
     1
 43
1.0
176
     1
 76
     1
176
     1
 77
     6
176
     1
 78
     2
176
     1
 67
     7
176
     1
 79
     5
176
     1
170
     0
176
     1
171
     0
176
     1
290
     0
176
     1
 93
        1
176
     1
 44
50.0
176
     1
173
     0
176
     1
  0
VISUALSTYLE
  5
3A
102
{ACAD_REACTORS
330
2A
102
}
330
2A
100
AcDbVisualStyle
  2
ColorChange
 70
    16
177
     2
291
     1
 71
     2
176
     1
 72
     2
176
     1
 73
     3
176
     1
 90
        0
176
     1
 40
-0.6
176
     1
 41
-30.0
176
     1
 62
     5
 63
     8
421
  8421504
176
     1
 74
     1
176
     1
 91
        4
176
     1
 64
     7
176
     1
 65
   257
176
     1
 75
     1
176
     1
175
     1
176
     1
 42
1.0
176
     1
 92
        8
176
     1
 66
     8
424
  8421504
176
     1
 43
1.0
176
     1
 76
     1
176
     1
 77
     6
176
     1
 78
     2
176
     1
 67
     7
176
     1
 79
     5
176
     1
170
     0
176
     1
171
     0
176
     1
290
     0
176
     1
 93
        1
176
     1
 44
0.0
176
     1
173
     0
176
     1
  0
VISUALSTYLE
  5
34
102
{ACAD_REACTORS
330
2A
102
}
330
2A
100
AcDbVisualStyle
  2
Conceptual
 70
     9
177
     2
291
     0
 71
     3
176
     1
 72
     2
176
     1
 73
     0
176
     1
 90
        0
176
     1
 40
-0.6
176
     1
 41
-30.0
176
     1
 62
     5
 63
     7
421
 16777215
176
     1
 74
     2
176
     1
 91
        2
176
     1
 64
     7
176
     1
 65
   257
176
     1
 75
     1
176
     1
175
     1
176
     1
 42
40.0
176
     1
 92
        8
176
     1
 66
     7
176
     1
 43
1.0
176
     1
 76
     1
176
     1
 77
     6
176
     1
 78
     2
176
     1
 67
     7
176
     1
 79
     3
176
     1
170
     0
176
     1
171
     0
176
     1
290
     0
176
     1
 93
        1
176
     1
 44
0.0
176
     1
173
     0
176
     1
  0
VISUALSTYLE
  5
35
102
{ACAD_REACTORS
330
2A
102
}
330
2A
100
AcDbVisualStyle
  2
Dim
 70
    11
177
     2
291
     1
 71
     2
176
     1
 72
     2
176
     1
 73
     0
176
     1
 90
        0
176
     1
 40
-0.6
176
     1
 41
-30.0
176
     1
 62
     5
 63
     7
421
 16777215
176
     1
 74
     1
176
     1
 91
        4
176
     1
 64
     7
176
     1
 65
   257
176
     1
 75
     1
176
     1
175
     1
176
     1
 42
1.0
176
     1
 92
        8
176
     1
 66
     7
176
     1
 43
1.0
176
     1
 76
     1
176
     1
 77
     6
176
     1
 78
     2
176
     1
 67
     7
176
     1
 79
     5
176
     1
170
     0
176
     1
171
     0
176
     1
290
     0
176
     1
 93
        1
176
     1
 44
-50.0
176
     1
173
     0
176
     1
  0
VISUALSTYLE
  5
39
102
{ACAD_REACTORS
330
2A
102
}
330
2A
100
AcDbVisualStyle
  2
Facepattern
 70
    15
177
     2
291
     1
 71
     2
176
     1
 72
     2
176
     1
 73
     0
176
     1
 90
        0
176
     1
 40
-0.6
176
     1
 41
-30.0
176
     1
 62
     5
 63
     7
421
 16777215
176
     1
 74
     1
176
     1
 91
        4
176
     1
 64
     7
176
     1
 65
   257
176
     1
 75
     1
176
     1
175
     1
176
     1
 42
1.0
176
     1
 92
        8
176
     1
 66
     7
176
     1
 43
1.0
176
     1
 76
     1
176
     1
 77
     6
176
     1
 78
     2
176
     1
 67
     7
176
     1
 79
     5
176
     1
170
     0
176
     1
171
     0
176
     1
290
     0
176
     1
 93
        1
176
     1
 44
0.0
176
     1
173
     0
176
     1
  0
VISUALSTYLE
  5
2B
102
{ACAD_REACTORS
330
2A
102
}
330
2A
100
AcDbVisualStyle
  2
Flat
 70
     0
177
     2
291
     1
 71
     2
176
     1
 72
     1
176
     1
 73
     1
176
     1
 90
        2
176
     1
 40
-0.6
176
     1
 41
30.0
176
     1
 62
     5
 63
     7
421
 16777215
176
     1
 74
     0
176
     1
 91
        4
176
     1
 64
     7
176
     1
 65
   257
176
     1
 75
     1
176
     1
175
     1
176
     1
 42
1.0
176
     1
 92
        8
176
     1
 66
     7
176
     1
 43
1.0
176
     1
 76
     1
176
     1
 77
     6
176
     1
 78
     2
176
     1
 67
     7
176
     1
 79
     5
176
     1
170
     0
176
     1
171
     0
176
     1
290
     0
176
     1
 93
       13
176
     1
 44
0.0
176
     1
173
     0
176
     1
  0
VISUALSTYLE
  5
2C
102
{ACAD_REACTORS
330
2A
102
}
330
2A
100
AcDbVisualStyle
  2
FlatWithEdges
 70
     1
177
     2
291
     1
 71
     2
176
     1
 72
     1
176
     1
 73
     1
176
     1
 90
        2
176
     1
 40
-0.6
176
     1
 41
30.0
176
     1
 62
     5
 63
     7
421
 16777215
176
     1
 74
     1
176
     1
 91
        4
176
     1
 64
     7
176
     1
 65
   257
176
     1
 75
     1
176
     1
175
     1
176
     1
 42
1.0
176
     1
 92
        0
176
     1
 66
   257
176
     1
 43
1.0
176
     1
 76
     1
176
     1
 77
     6
176
     1
 78
     2
176
     1
 67
     7
176
     1
 79
     5
176
     1
170
     0
176
     1
171
     0
176
     1
290
     0
176
     1
 93
       13
176
     1
 44
0.0
176
     1
173
     0
176
     1
  0
VISUALSTYLE
  5
2D
102
{ACAD_REACTORS
330
2A
102
}
330
2A
100
AcDbVisualStyle
  2
Gouraud
 70
     2
177
     2
291
     1
 71
     2
176
     1
 72
     2
176
     1
 73
     1
176
     1
 90
        2
176
     1
 40
-0.6
176
     1
 41
30.0
176
     1
 62
     5
 63
     7
421
 16777215
176
     1
 74
     0
176
     1
 91
        4
176
     1
 64
     7
176
     1
 65
   257
176
     1
 75
     1
176
     1
175
     1
176
     1
 42
1.0
176
     1
 92
        0
176
     1
 66
     7
176
     1
 43
1.0
176
     1
 76
     1
176
     1
 77
     6
176
     1
 78
     2
176
     1
 67
     7
176
     1
 79
     5
176
     1
170
     0
176
     1
171
     0
176
     1
290
     0
176
     1
 93
       13
176
     1
 44
0.0
176
     1
173
     0
176
     1
  0
VISUALSTYLE
  5
2E
102
{ACAD_REACTORS
330
2A
102
}
330
2A
100
AcDbVisualStyle
  2
GouraudWithEdges
 70
     3
177
     2
291
     1
 71
     2
176
     1
 72
     2
176
     1
 73
     1
176
     1
 90
        2
176
     1
 40
-0.6
176
     1
 41
30.0
176
     1
 62
     5
 63
     7
421
 16777215
176
     1
 74
     1
176
     1
 91
        4
176
     1
 64
     7
176
     1
 65
   257
176
     1
 75
     1
176
     1
175
     1
176
     1
 42
1.0
176
     1
 92
        0
176
     1
 66
   257
176
     1
 43
1.0
176
     1
 76
     1
176
     1
 77
     6
176
     1
 78
     2
176
     1
 67
     7
176
     1
 79
     5
176
     1
170
     0
176
     1
171
     0
176
     1
290
     0
176
     1
 93
       13
176
     1
 44
0.0
176
     1
173
     0
176
     1
  0
VISUALSTYLE
  5
38
102
{ACAD_REACTORS
330
2A
102
}
330
2A
100
AcDbVisualStyle
  2
Linepattern
 70
    14
177
     2
291
     1
 71
     2
176
     1
 72
     2
176
     1
 73
     0
176
     1
 90
        0
176
     1
 40
-0.6
176
     1
 41
-30.0
176
     1
 62
     5
 63
     7
421
 16777215
176
     1
 74
     1
176
     1
 91
        4
176
     1
 64
     7
176
     1
 65
   257
176
     1
 75
     7
176
     1
175
     7
176
     1
 42
1.0
176
     1
 92
        8
176
     1
 66
     7
176
     1
 43
1.0
176
     1
 76
     1
176
     1
 77
     6
176
     1
 78
     2
176
     1
 67
     7
176
     1
 79
     5
176
     1
170
     0
176
     1
171
     0
176
     1
290
     0
176
     1
 93
        1
176
     1
 44
0.0
176
     1
173
     0
176
     1
  0
VISUALSTYLE
  5
33
102
{ACAD_REACTORS
330
2A
102
}
330
2A
100
AcDbVisualStyle
  2
Realistic
 70
     8
177
     2
291
     0
 71
     2
176
     1
 72
     2
176
     1
 73
     0
176
     1
 90
        0
176
     1
 40
-0.6
176
     1
 41
-30.0
176
     1
 62
     5
 63
     7
421
 16777215
176
     1
 74
     1
176
     1
 91
        0
176
     1
 64
     7
176
     1
 65
   257
176
     1
 75
     1
176
     1
175
     1
176
     1
 42
1.0
176
     1
 92
        8
176
     1
 66
     8
424
  7895160
176
     1
 43
1.0
176
     1
 76
     1
176
     1
 77
     6
176
     1
 78
     2
176
     1
 67
     7
176
     1
 79
     5
176
     1
170
     0
176
     1
171
     0
176
     1
290
     0
176
     1
 93
       13
176
     1
 44
0.0
176
     1
173
     0
176
     1
  0
VISUALSTYLE
  5
37
102
{ACAD_REACTORS
330
2A
102
}
330
2A
100
AcDbVisualStyle
  2
Thicken
 70
    13
177
     2
291
     1
 71
     2
176
     1
 72
     2
176
     1
 73
     0
176
     1
 90
        0
176
     1
 40
-0.6
176
     1
 41
-30.0
176
     1
 62
     5
 63
     7
421
 16777215
176
     1
 74
     1
176
     1
 91
        4
176
     1
 64
     7
176
     1
 65
   257
176
     1
 75
     1
176
     1
175
     1
176
     1
 42
1.0
176
     1
 92
       12
176
     1
 66
     7
176
     1
 43
1.0
176
     1
 76
     1
176
     1
 77
     6
176
     1
 78
     2
176
     1
 67
     7
176
     1
 79
     5
176
     1
170
     0
176
     1
171
     0
176
     1
290
     0
176
     1
 93
        1
176
     1
 44
0.0
176
     1
173
     0
176
     1
  0
ENDSEC
  0
EOF
