  0
SECTION
  2
HEADER
  9
$ACADVER
  1
AC1009
  9
$DWGCODEPAGE
  3
ansi_1252
  9
$INSBASE
 10
0.0
 20
0.0
 30
0.0
  9
$EXTMIN
 10
-3544.716694590507
 20
1651.164548132104
 30
0.0
  9
$EXTMAX
 10
-2817.526484449108
 20
2311.758510793627
 30
0.0
  9
$LIMMIN
 10
0.0
 20
0.0
  9
$LIMMAX
 10
12.0
 20
9.0
  9
$ORTHOMODE
 70
     0
  9
$REGENMODE
 70
     1
  9
$FILLMODE
 70
     1
  9
$QTEXTMODE
 70
     0
  9
$MIRRTEXT
 70
     1
  9
$DRAGMODE
 70
     2
  9
$LTSCALE
 40
1.0
  9
$OSMODE
 70
    37
  9
$ATTMODE
 70
     1
  9
$TEXTSIZE
 40
0.2
  9
$TRACEWID
 40
0.05
  9
$TEXTSTYLE
  7
STANDARD
  9
$CLAYER
  8
0
  9
$CELTYPE
  6
BYLAYER
  9
$CECOLOR
 62
   256
  9
$DIMSCALE
 40
1.0
  9
$DIMASZ
 40
0.18
  9
$DIMEXO
 40
0.0625
  9
$DIMDLI
 40
0.38
  9
$DIMRND
 40
0.0
  9
$DIMDLE
 40
0.0
  9
$DIMEXE
 40
0.18
  9
$DIMTP
 40
0.0
  9
$DIMTM
 40
0.0
  9
$DIMTXT
 40
0.18
  9
$DIMCEN
 40
0.09
  9
$DIMTSZ
 40
0.0
  9
$DIMTOL
 70
     0
  9
$DIMLIM
 70
     0
  9
$DIMTIH
 70
     1
  9
$DIMTOH
 70
     1
  9
$DIMSE1
 70
     0
  9
$DIMSE2
 70
     0
  9
$DIMTAD
 70
     0
  9
$DIMZIN
 70
     0
  9
$DIMBLK
  1

  9
$DIMASO
 70
     1
  9
$DIMSHO
 70
     1
  9
$DIMPOST
  1

  9
$DIMAPOST
  1

  9
$DIMALT
 70
     0
  9
$DIMALTD
 70
     2
  9
$DIMALTF
 40
25.4
  9
$DIMLFAC
 40
1.0
  9
$DIMTOFL
 70
     0
  9
$DIMTVP
 40
0.0
  9
$DIMTIX
 70
     0
  9
$DIMSOXD
 70
     0
  9
$DIMSAH
 70
     0
  9
$DIMBLK1
  1

  9
$DIMBLK2
  1

  9
$DIMSTYLE
  2
STANDARD
  9
$DIMCLRD
 70
     0
  9
$DIMCLRE
 70
     0
  9
$DIMCLRT
 70
     0
  9
$DIMTFAC
 40
1.0
  9
$DIMGAP
 40
0.09
  9
$LUNITS
 70
     2
  9
$LUPREC
 70
     4
  9
$SKETCHINC
 40
0.1
  9
$FILLETRAD
 40
0.5
  9
$AUNITS
 70
     0
  9
$AUPREC
 70
     0
  9
$MENU
  1
.
  9
$ELEVATION
 40
0.0
  9
$PELEVATION
 40
0.0
  9
$THICKNESS
 40
0.0
  9
$LIMCHECK
 70
     0
  9
$CHAMFERA
 40
0.0
  9
$CHAMFERB
 40
0.0
  9
$SKPOLY
 70
     0
  9
$TDCREATE
 40
2454910.5
  9
$TDUPDATE
 40
2459378.520496192
  9
$TDINDWG
 40
0.0000000116
  9
$TDUSRTIMER
 40
0.0000000116
  9
$USRTIMER
 70
     1
  9
$ANGBASE
 50
0.0
  9
$ANGDIR
 70
     0
  9
$PDMODE
 70
     0
  9
$PDSIZE
 40
0.0
  9
$PLINEWID
 40
0.0
  9
$COORDS
 70
     1
  9
$SPLFRAME
 70
     0
  9
$SPLINETYPE
 70
     6
  9
$SPLINESEGS
 70
     8
  9
$ATTDIA
 70
     0
  9
$ATTREQ
 70
     1
  9
$HANDLING
 70
     1
  9
$HANDSEED
  5
91A
  9
$SURFTAB1
 70
     6
  9
$SURFTAB2
 70
     6
  9
$SURFTYPE
 70
     6
  9
$SURFU
 70
     6
  9
$SURFV
 70
     6
  9
$UCSNAME
  2

  9
$UCSORG
 10
0.0
 20
0.0
 30
0.0
  9
$UCSXDIR
 10
1.0
 20
0.0
 30
0.0
  9
$UCSYDIR
 10
0.0
 20
1.0
 30
0.0
  9
$PUCSNAME
  2

  9
$PUCSORG
 10
0.0
 20
0.0
 30
0.0
  9
$PUCSXDIR
 10
1.0
 20
0.0
 30
0.0
  9
$PUCSYDIR
 10
0.0
 20
1.0
 30
0.0
  9
$USERI1
 70
     0
  9
$USERI2
 70
     0
  9
$USERI3
 70
     0
  9
$USERI4
 70
     0
  9
$USERI5
 70
     0
  9
$USERR1
 40
0.0
  9
$USERR2
 40
0.0
  9
$USERR3
 40
0.0
  9
$USERR4
 40
0.0
  9
$USERR5
 40
0.0
  9
$WORLDVIEW
 70
     1
  9
$SHADEDGE
 70
     3
  9
$SHADEDIF
 70
    70
  9
$TILEMODE
 70
     1
  9
$MAXACTVP
 70
    64
  9
$PLIMCHECK
 70
     0
  9
$PEXTMIN
 10
1.000000000000000E+20
 20
1.000000000000000E+20
 30
1.000000000000000E+20
  9
$PEXTMAX
 10
-1.000000000000000E+20
 20
-1.000000000000000E+20
 30
-1.000000000000000E+20
  9
$PLIMMIN
 10
0.0
 20
0.0
  9
$PLIMMAX
 10
12.0
 20
9.0
  9
$UNITMODE
 70
     0
  9
$VISRETAIN
 70
     1
  9
$PLINEGEN
 70
     0
  9
$PSLTSCALE
 70
     1
  0
ENDSEC
  0
SECTION
  2
TABLES
  0
TABLE
  2
VPORT
 70
     1
  0
VPORT
  2
*ACTIVE
 70
     0
 10
0.0
 20
0.0
 11
1.0
 21
1.0
 12
10.42990654205607
 22
4.5
 13
0.0
 23
0.0
 14
0.5
 24
0.5
 15
0.5
 25
0.5
 16
0.0
 26
0.0
 36
1.0
 17
0.0
 27
0.0
 37
0.0
 40
9.0
 41
1.972972972850329
 42
50.0
 43
0.0
 44
0.0
 50
0.0
 51
0.0
 71
     0
 72
   100
 73
     1
 74
     3
 75
     0
 76
     0
 77
     0
 78
     0
  0
ENDTAB
  0
TABLE
  2
LTYPE
 70
     2
  0
LTYPE
  2
CONTINUOUS
 70
     0
  3
Solid line
 72
    65
 73
     0
 40
0.0
  0
LTYPE
  2
CONTINUOUS2
 70
     0
  3
Solid Line
 72
    65
 73
     0
 40
0.0
  0
ENDTAB
  0
TABLE
  2
LAYER
 70
     2
  0
LAYER
  2
0
 70
     0
 62
     7
  6
CONTINUOUS
  0
LAYER
  2
OUTER_PROFILES
 70
     0
 62
     7
  6
CONTINUOUS
  0
ENDTAB
  0
TABLE
  2
STYLE
 70
     1
  0
STYLE
  2
STANDARD
 70
     0
 40
0.0
 41
1.0
 50
0.0
 71
     0
 42
0.2
  3
txt
  4

  0
ENDTAB
  0
TABLE
  2
VIEW
 70
     0
  0
ENDTAB
  0
TABLE
  2
UCS
 70
     0
  0
ENDTAB
  0
TABLE
  2
APPID
 70
     1
  0
APPID
  2
ACAD
 70
     0
  0
ENDTAB
  0
TABLE
  2
DIMSTYLE
 70
     1
  0
DIMSTYLE
  2
STANDARD
 70
     0
  3

  4

  5

  6

  7

 40
1.0
 41
0.18
 42
0.0625
 43
0.38
 44
0.18
 45
0.0
 46
0.0
 47
0.0
 48
0.0
140
0.18
141
0.09
142
0.0
143
25.4
144
1.0
145
0.0
146
1.0
147
0.09
 71
     0
 72
     0
 73
     1
 74
     1
 75
     0
 76
     0
 77
     0
 78
     0
170
     0
171
     2
172
     0
173
     0
174
     0
175
     0
176
     0
177
     0
178
     0
  0
ENDTAB
  0
ENDSEC
  0
SECTION
  2
BLOCKS
  0
BLOCK
  8
0
  2
$MODEL_SPACE
 70
     0
 10
0.0
 20
0.0
 30
0.0
  3
$MODEL_SPACE
  1

  0
ENDBLK
  5
21
  8
0
  0
BLOCK
 67
     1
  8
0
  2
$PAPER_SPACE
 70
     0
 10
0.0
 20
0.0
 30
0.0
  3
$PAPER_SPACE
  1

  0
ENDBLK
  5
1D
 67
     1
  8
0
  0
ENDSEC
  0
SECTION
  2
ENTITIES
  0
POLYLINE
  5
70
  8
OUTER_PROFILES
 66
     1
 10
0.0
 20
0.0
 30
0.0
 70
     1
  0
VERTEX
  5
182
  8
OUTER_PROFILES
 10
-3481.469630542877
 20
2250.042778919791
 30
0.0
 42
0.4142135623730951
  0
VERTEX
  5
183
  8
OUTER_PROFILES
 10
-3484.478137775439
 20
2253.034247494191
 30
0.0
 42
0.4142135623730951
  0
VERTEX
  5
184
  8
OUTER_PROFILES
 10
-3487.469606349839
 20
2250.025740261629
 30
0.0
 42
0.4142135623730951
  0
VERTEX
  5
185
  8
OUTER_PROFILES
 10
-3484.461099117277
 20
2247.034271687229
 30
0.0
 42
0.4142135623730951
  0
SEQEND
  5
80F
  8
OUTER_PROFILES
  0
POLYLINE
  5
71
  8
OUTER_PROFILES
 66
     1
 10
0.0
 20
0.0
 30
0.0
 70
     1
  0
VERTEX
  5
186
  8
OUTER_PROFILES
 10
-3503.514486361773
 20
2272.509315892034
 30
0.0
 42
0.4142135623730951
  0
VERTEX
  5
187
  8
OUTER_PROFILES
 10
-3506.522993594335
 20
2275.500784466434
 30
0.0
 42
0.4142135623730951
  0
VERTEX
  5
188
  8
OUTER_PROFILES
 10
-3509.514462168735
 20
2272.492277233872
 30
0.0
 42
0.4142135623730951
  0
VERTEX
  5
189
  8
OUTER_PROFILES
 10
-3506.505954936173
 20
2269.500808659472
 30
0.0
 42
0.4142135623730951
  0
SEQEND
  5
810
  8
OUTER_PROFILES
  0
POLYLINE
  5
72
  8
OUTER_PROFILES
 66
     1
 10
0.0
 20
0.0
 30
0.0
 70
     1
  0
VERTEX
  5
18A
  8
OUTER_PROFILES
 10
-3524.785538496143
 20
2022.489408083156
 30
0.0
 42
0.4142135623730951
  0
VERTEX
  5
18B
  8
OUTER_PROFILES
 10
-3527.794045728705
 20
2025.480876657556
 30
0.0
 42
0.4142135623730951
  0
VERTEX
  5
18C
  8
OUTER_PROFILES
 10
-3530.785514303105
 20
2022.472369424994
 30
0.0
 42
0.4142135623730951
  0
VERTEX
  5
18D
  8
OUTER_PROFILES
 10
-3527.777007070543
 20
2019.480900850594
 30
0.0
 42
0.4142135623730951
  0
SEQEND
  5
811
  8
OUTER_PROFILES
  0
POLYLINE
  5
73
  8
OUTER_PROFILES
 66
     1
 10
0.0
 20
0.0
 30
0.0
 70
     1
  0
VERTEX
  5
18E
  8
OUTER_PROFILES
 10
-3446.300739340133
 20
2250.142651108353
 30
0.0
 42
0.4142135623730951
  0
VERTEX
  5
18F
  8
OUTER_PROFILES
 10
-3449.309246572695
 20
2253.134119682752
 30
0.0
 42
0.4142135623730951
  0
VERTEX
  5
190
  8
OUTER_PROFILES
 10
-3452.300715147094
 20
2250.125612450191
 30
0.0
 42
0.4142135623730951
  0
VERTEX
  5
191
  8
OUTER_PROFILES
 10
-3449.292207914532
 20
2247.134143875791
 30
0.0
 42
0.4142135623730951
  0
SEQEND
  5
812
  8
OUTER_PROFILES
  0
POLYLINE
  5
74
  8
OUTER_PROFILES
 66
     1
 10
0.0
 20
0.0
 30
0.0
 70
     1
  0
VERTEX
  5
192
  8
OUTER_PROFILES
 10
-3481.047949389529
 20
2294.554171710931
 30
0.0
 42
0.4142135623730951
  0
VERTEX
  5
193
  8
OUTER_PROFILES
 10
-3484.056456622091
 20
2297.545640285331
 30
0.0
 42
0.4142135623730951
  0
VERTEX
  5
194
  8
OUTER_PROFILES
 10
-3487.047925196491
 20
2294.537133052769
 30
0.0
 42
0.4142135623730951
  0
VERTEX
  5
195
  8
OUTER_PROFILES
 10
-3484.039417963929
 20
2291.545664478369
 30
0.0
 42
0.4142135623730951
  0
SEQEND
  5
813
  8
OUTER_PROFILES
  0
POLYLINE
  5
75
  8
OUTER_PROFILES
 66
     1
 10
0.0
 20
0.0
 30
0.0
 70
     1
  0
VERTEX
  5
196
  8
OUTER_PROFILES
 10
-3525.559342180669
 20
2294.975852864278
 30
0.0
 42
0.4142135623730951
  0
VERTEX
  5
197
  8
OUTER_PROFILES
 10
-3528.567849413231
 20
2297.967321438678
 30
0.0
 42
0.4142135623730951
  0
VERTEX
  5
198
  8
OUTER_PROFILES
 10
-3531.559317987631
 20
2294.958814206116
 30
0.0
 42
0.4142135623730951
  0
VERTEX
  5
199
  8
OUTER_PROFILES
 10
-3528.550810755069
 20
2291.967345631716
 30
0.0
 42
0.4142135623730951
  0
SEQEND
  5
814
  8
OUTER_PROFILES
  0
POLYLINE
  5
76
  8
OUTER_PROFILES
 66
     1
 10
0.0
 20
0.0
 30
0.0
 70
     1
  0
VERTEX
  5
19A
  8
OUTER_PROFILES
 10
-3480.943708798116
 20
2064.845229037651
 30
0.0
 42
0.4142135623730951
  0
VERTEX
  5
19B
  8
OUTER_PROFILES
 10
-3483.952216030678
 20
2067.836697612051
 30
0.0
 42
0.4142135623730951
  0
VERTEX
  5
19C
  8
OUTER_PROFILES
 10
-3486.943684605078
 20
2064.828190379489
 30
0.0
 42
0.4142135623730951
  0
VERTEX
  5
19D
  8
OUTER_PROFILES
 10
-3483.935177372516
 20
2061.836721805089
 30
0.0
 42
0.4142135623730951
  0
SEQEND
  5
815
  8
OUTER_PROFILES
  0
POLYLINE
  5
77
  8
OUTER_PROFILES
 66
     1
 10
0.0
 20
0.0
 30
0.0
 70
     1
  0
VERTEX
  5
19E
  8
OUTER_PROFILES
 10
-3524.042534124377
 20
2065.588233409418
 30
0.0
 42
0.4142135623730951
  0
VERTEX
  5
19F
  8
OUTER_PROFILES
 10
-3527.05104135694
 20
2068.579701983817
 30
0.0
 42
0.4142135623730951
  0
VERTEX
  5
1A0
  8
OUTER_PROFILES
 10
-3530.042509931339
 20
2065.571194751255
 30
0.0
 42
0.4142135623730951
  0
VERTEX
  5
1A1
  8
OUTER_PROFILES
 10
-3527.034002698777
 20
2062.579726176855
 30
0.0
 42
0.4142135623730951
  0
SEQEND
  5
816
  8
OUTER_PROFILES
  0
POLYLINE
  5
78
  8
OUTER_PROFILES
 66
     1
 10
0.0
 20
0.0
 30
0.0
 70
     1
  0
VERTEX
  5
1A2
  8
OUTER_PROFILES
 10
-3446.427137830896
 20
2294.652487469599
 30
0.0
 42
0.4142135623730951
  0
VERTEX
  5
1A3
  8
OUTER_PROFILES
 10
-3449.435645063459
 20
2297.643956043999
 30
0.0
 42
0.4142135623730951
  0
VERTEX
  5
1A4
  8
OUTER_PROFILES
 10
-3452.427113637858
 20
2294.635448811437
 30
0.0
 42
0.4142135623730951
  0
VERTEX
  5
1A5
  8
OUTER_PROFILES
 10
-3449.418606405296
 20
2291.643980237036
 30
0.0
 42
0.4142135623730951
  0
SEQEND
  5
817
  8
OUTER_PROFILES
  0
POLYLINE
  5
79
  8
OUTER_PROFILES
 66
     1
 10
0.0
 20
0.0
 30
0.0
 70
     1
  0
VERTEX
  5
1A6
  8
OUTER_PROFILES
 10
-3503.299657280112
 20
2196.859620925925
 30
0.0
 42
0.4142135623730951
  0
VERTEX
  5
1A7
  8
OUTER_PROFILES
 10
-3506.308164512674
 20
2199.851089500325
 30
0.0
 42
0.4142135623730951
  0
VERTEX
  5
1A8
  8
OUTER_PROFILES
 10
-3509.299633087074
 20
2196.842582267762
 30
0.0
 42
0.4142135623730951
  0
VERTEX
  5
1A9
  8
OUTER_PROFILES
 10
-3506.291125854511
 20
2193.851113693363
 30
0.0
 42
0.4142135623730951
  0
SEQEND
  5
818
  8
OUTER_PROFILES
  0
POLYLINE
  5
7A
  8
OUTER_PROFILES
 66
     1
 10
0.0
 20
0.0
 30
0.0
 70
     1
  0
VERTEX
  5
1AA
  8
OUTER_PROFILES
 10
-3525.340499148229
 20
2217.912689342301
 30
0.0
 42
0.4142135623730951
  0
VERTEX
  5
1AB
  8
OUTER_PROFILES
 10
-3528.349006380792
 20
2220.904157916701
 30
0.0
 42
0.4142135623730951
  0
VERTEX
  5
1AC
  8
OUTER_PROFILES
 10
-3531.340474955191
 20
2217.895650684139
 30
0.0
 42
0.4142135623730951
  0
VERTEX
  5
1AD
  8
OUTER_PROFILES
 10
-3528.33196772263
 20
2214.904182109739
 30
0.0
 42
0.4142135623730951
  0
SEQEND
  5
819
  8
OUTER_PROFILES
  0
POLYLINE
  5
7B
  8
OUTER_PROFILES
 66
     1
 10
0.0
 20
0.0
 30
0.0
 70
     1
  0
VERTEX
  5
1AE
  8
OUTER_PROFILES
 10
-3446.363938585514
 20
2272.397569288976
 30
0.0
 42
0.4142135623730951
  0
VERTEX
  5
1AF
  8
OUTER_PROFILES
 10
-3449.372445818076
 20
2275.389037863376
 30
0.0
 42
0.4142135623730951
  0
VERTEX
  5
1B0
  8
OUTER_PROFILES
 10
-3452.363914392476
 20
2272.380530630814
 30
0.0
 42
0.4142135623730951
  0
VERTEX
  5
1B1
  8
OUTER_PROFILES
 10
-3449.355407159914
 20
2269.389062056414
 30
0.0
 42
0.4142135623730951
  0
SEQEND
  5
81A
  8
OUTER_PROFILES
  0
POLYLINE
  5
7C
  8
OUTER_PROFILES
 66
     1
 10
0.0
 20
0.0
 30
0.0
 70
     1
  0
VERTEX
  5
1B2
  8
OUTER_PROFILES
 10
-3481.686713169883
 20
2021.74640371139
 30
0.0
 42
0.4142135623730951
  0
VERTEX
  5
1B3
  8
OUTER_PROFILES
 10
-3484.695220402445
 20
2024.73787228579
 30
0.0
 42
0.4142135623730951
  0
VERTEX
  5
1B4
  8
OUTER_PROFILES
 10
-3487.686688976844
 20
2021.729365053228
 30
0.0
 42
0.4142135623730951
  0
VERTEX
  5
1B5
  8
OUTER_PROFILES
 10
-3484.678181744282
 20
2018.737896478828
 30
0.0
 42
0.4142135623730951
  0
SEQEND
  5
81B
  8
OUTER_PROFILES
  0
POLYLINE
  5
7D
  8
OUTER_PROFILES
 66
     1
 10
0.0
 20
0.0
 30
0.0
 70
     1
  0
VERTEX
  5
1B6
  8
OUTER_PROFILES
 10
-3502.86462364713
 20
2043.667318560404
 30
0.0
 42
0.4142135623730951
  0
VERTEX
  5
1B7
  8
OUTER_PROFILES
 10
-3505.873130879692
 20
2046.658787134803
 30
0.0
 42
0.4142135623730951
  0
VERTEX
  5
1B8
  8
OUTER_PROFILES
 10
-3508.864599454092
 20
2043.650279902241
 30
0.0
 42
0.4142135623730951
  0
VERTEX
  5
1B9
  8
OUTER_PROFILES
 10
-3505.85609222153
 20
2040.658811327841
 30
0.0
 42
0.4142135623730951
  0
SEQEND
  5
81C
  8
OUTER_PROFILES
  0
POLYLINE
  5
7E
  8
OUTER_PROFILES
 66
     1
 10
0.0
 20
0.0
 30
0.0
 70
     1
  0
VERTEX
  5
1BA
  8
OUTER_PROFILES
 10
-3525.981023334016
 20
2250.464460073138
 30
0.0
 42
0.4142135623730951
  0
VERTEX
  5
1BB
  8
OUTER_PROFILES
 10
-3528.989530566578
 20
2253.455928647538
 30
0.0
 42
0.4142135623730951
  0
VERTEX
  5
1BC
  8
OUTER_PROFILES
 10
-3531.980999140978
 20
2250.447421414976
 30
0.0
 42
0.4142135623730951
  0
VERTEX
  5
1BD
  8
OUTER_PROFILES
 10
-3528.972491908416
 20
2247.455952840576
 30
0.0
 42
0.4142135623730951
  0
SEQEND
  5
81D
  8
OUTER_PROFILES
  0
POLYLINE
  5
7F
  8
OUTER_PROFILES
 66
     1
 10
0.0
 20
0.0
 30
0.0
 70
     1
  0
VERTEX
  5
1BE
  8
OUTER_PROFILES
 10
-3503.084828198446
 20
2121.209925959811
 30
0.0
 42
0.4142135623730951
  0
VERTEX
  5
1BF
  8
OUTER_PROFILES
 10
-3506.093335431008
 20
2124.20139453421
 30
0.0
 42
0.4142135623730951
  0
VERTEX
  5
1C0
  8
OUTER_PROFILES
 10
-3509.084804005408
 20
2121.192887301648
 30
0.0
 42
0.4142135623730951
  0
VERTEX
  5
1C1
  8
OUTER_PROFILES
 10
-3506.076296772846
 20
2118.201418727248
 30
0.0
 42
0.4142135623730951
  0
SEQEND
  5
81E
  8
OUTER_PROFILES
  0
POLYLINE
  5
80
  8
OUTER_PROFILES
 66
     1
 10
0.0
 20
0.0
 30
0.0
 70
     1
  0
VERTEX
  5
1C2
  8
OUTER_PROFILES
 10
-3482.246588863736
 20
2218.900462794043
 30
0.0
 42
0.4142135623730951
  0
VERTEX
  5
1C3
  8
OUTER_PROFILES
 10
-3485.255096096298
 20
2221.891931368442
 30
0.0
 42
0.4142135623730951
  0
VERTEX
  5
1C4
  8
OUTER_PROFILES
 10
-3488.246564670697
 20
2218.88342413588
 30
0.0
 42
0.4142135623730951
  0
VERTEX
  5
1C5
  8
OUTER_PROFILES
 10
-3485.238057438135
 20
2215.891955561481
 30
0.0
 42
0.4142135623730951
  0
SEQEND
  5
81F
  8
OUTER_PROFILES
  0
POLYLINE
  5
81
  8
OUTER_PROFILES
 66
     1
 10
0.0
 20
0.0
 30
0.0
 70
     1
  0
VERTEX
  5
1C6
  8
OUTER_PROFILES
 10
-3524.352725696488
 20
2174.818779057807
 30
0.0
 42
0.4142135623730951
  0
VERTEX
  5
1C7
  8
OUTER_PROFILES
 10
-3527.36123292905
 20
2177.810247632206
 30
0.0
 42
0.4142135623730951
  0
VERTEX
  5
1C8
  8
OUTER_PROFILES
 10
-3530.35270150345
 20
2174.801740399644
 30
0.0
 42
0.4142135623730951
  0
VERTEX
  5
1C9
  8
OUTER_PROFILES
 10
-3527.344194270888
 20
2171.810271825244
 30
0.0
 42
0.4142135623730951
  0
SEQEND
  5
820
  8
OUTER_PROFILES
  0
POLYLINE
  5
82
  8
OUTER_PROFILES
 66
     1
 10
0.0
 20
0.0
 30
0.0
 70
     1
  0
VERTEX
  5
1CA
  8
OUTER_PROFILES
 10
-3481.258815411993
 20
2175.806552509549
 30
0.0
 42
0.4142135623730951
  0
VERTEX
  5
1CB
  8
OUTER_PROFILES
 10
-3484.267322644556
 20
2178.798021083948
 30
0.0
 42
0.4142135623730951
  0
VERTEX
  5
1CC
  8
OUTER_PROFILES
 10
-3487.258791218955
 20
2175.789513851386
 30
0.0
 42
0.4142135623730951
  0
VERTEX
  5
1CD
  8
OUTER_PROFILES
 10
-3484.250283986393
 20
2172.798045276987
 30
0.0
 42
0.4142135623730951
  0
SEQEND
  5
821
  8
OUTER_PROFILES
  0
POLYLINE
  5
83
  8
OUTER_PROFILES
 66
     1
 10
0.0
 20
0.0
 30
0.0
 70
     1
  0
VERTEX
  5
1CE
  8
OUTER_PROFILES
 10
-3525.001729096686
 20
2098.618546926696
 30
0.0
 42
0.4142135623730951
  0
VERTEX
  5
1CF
  8
OUTER_PROFILES
 10
-3528.010236329248
 20
2101.610015501096
 30
0.0
 42
0.4142135623730951
  0
VERTEX
  5
1D0
  8
OUTER_PROFILES
 10
-3531.001704903648
 20
2098.601508268534
 30
0.0
 42
0.4142135623730951
  0
VERTEX
  5
1D1
  8
OUTER_PROFILES
 10
-3527.993197671085
 20
2095.610039694134
 30
0.0
 42
0.4142135623730951
  0
SEQEND
  5
822
  8
OUTER_PROFILES
  0
POLYLINE
  5
84
  8
OUTER_PROFILES
 66
     1
 10
0.0
 20
0.0
 30
0.0
 70
     1
  0
VERTEX
  5
1D2
  8
OUTER_PROFILES
 10
-3480.493449165331
 20
2099.293025061571
 30
0.0
 42
0.4142135623730951
  0
VERTEX
  5
1D3
  8
OUTER_PROFILES
 10
-3483.501956397894
 20
2102.284493635971
 30
0.0
 42
0.4142135623730951
  0
VERTEX
  5
1D4
  8
OUTER_PROFILES
 10
-3486.493424972293
 20
2099.275986403409
 30
0.0
 42
0.4142135623730951
  0
VERTEX
  5
1D5
  8
OUTER_PROFILES
 10
-3483.484917739731
 20
2096.284517829009
 30
0.0
 42
0.4142135623730951
  0
SEQEND
  5
823
  8
OUTER_PROFILES
  0
POLYLINE
  5
85
  8
OUTER_PROFILES
 66
     1
 10
0.0
 20
0.0
 30
0.0
 70
     1
  0
VERTEX
  5
1D6
  8
OUTER_PROFILES
 10
-3446.209851228352
 20
2218.137403591732
 30
0.0
 42
0.4142135623730951
  0
VERTEX
  5
1D7
  8
OUTER_PROFILES
 10
-3449.218358460914
 20
2221.128872166132
 30
0.0
 42
0.4142135623730951
  0
VERTEX
  5
1D8
  8
OUTER_PROFILES
 10
-3452.209827035314
 20
2218.12036493357
 30
0.0
 42
0.4142135623730951
  0
VERTEX
  5
1D9
  8
OUTER_PROFILES
 10
-3449.201319802752
 20
2215.12889635917
 30
0.0
 42
0.4142135623730951
  0
SEQEND
  5
824
  8
OUTER_PROFILES
  0
POLYLINE
  5
86
  8
OUTER_PROFILES
 66
     1
 10
0.0
 20
0.0
 30
0.0
 70
     1
  0
VERTEX
  5
1DA
  8
OUTER_PROFILES
 10
-3445.935836852081
 20
2121.646259000863
 30
0.0
 42
0.4142135623730951
  0
VERTEX
  5
1DB
  8
OUTER_PROFILES
 10
-3448.944344084643
 20
2124.637727575262
 30
0.0
 42
0.4142135623730951
  0
VERTEX
  5
1DC
  8
OUTER_PROFILES
 10
-3451.935812659042
 20
2121.629220342701
 30
0.0
 42
0.4142135623730951
  0
VERTEX
  5
1DD
  8
OUTER_PROFILES
 10
-3448.92730542648
 20
2118.637751768301
 30
0.0
 42
0.4142135623730951
  0
SEQEND
  5
825
  8
OUTER_PROFILES
  0
POLYLINE
  5
87
  8
OUTER_PROFILES
 66
     1
 10
0.0
 20
0.0
 30
0.0
 70
     1
  0
VERTEX
  5
1DE
  8
OUTER_PROFILES
 10
-3445.774817595368
 20
2064.945101226212
 30
0.0
 42
0.4142135623730951
  0
VERTEX
  5
1DF
  8
OUTER_PROFILES
 10
-3448.78332482793
 20
2067.936569800611
 30
0.0
 42
0.4142135623730951
  0
VERTEX
  5
1E0
  8
OUTER_PROFILES
 10
-3451.77479340233
 20
2064.928062568049
 30
0.0
 42
0.4142135623730951
  0
VERTEX
  5
1E1
  8
OUTER_PROFILES
 10
-3448.766286169768
 20
2061.936593993649
 30
0.0
 42
0.4142135623730951
  0
SEQEND
  5
826
  8
OUTER_PROFILES
  0
POLYLINE
  5
88
  8
OUTER_PROFILES
 66
     1
 10
0.0
 20
0.0
 30
0.0
 70
     1
  0
VERTEX
  5
1E2
  8
OUTER_PROFILES
 10
-3525.676207231561
 20
2143.12682685805
 30
0.0
 42
0.4142135623730951
  0
VERTEX
  5
1E3
  8
OUTER_PROFILES
 10
-3528.684714464122
 20
2146.11829543245
 30
0.0
 42
0.4142135623730951
  0
VERTEX
  5
1E4
  8
OUTER_PROFILES
 10
-3531.676183038523
 20
2143.109788199888
 30
0.0
 42
0.4142135623730951
  0
VERTEX
  5
1E5
  8
OUTER_PROFILES
 10
-3528.66767580596
 20
2140.118319625488
 30
0.0
 42
0.4142135623730951
  0
SEQEND
  5
827
  8
OUTER_PROFILES
  0
POLYLINE
  5
89
  8
OUTER_PROFILES
 66
     1
 10
0.0
 20
0.0
 30
0.0
 70
     1
  0
VERTEX
  5
1E6
  8
OUTER_PROFILES
 10
-3445.654890576263
 20
2022.714122332588
 30
0.0
 42
0.4142135623730951
  0
VERTEX
  5
1E7
  8
OUTER_PROFILES
 10
-3448.663397808825
 20
2025.705590906988
 30
0.0
 42
0.4142135623730951
  0
VERTEX
  5
1E8
  8
OUTER_PROFILES
 10
-3451.654866383225
 20
2022.697083674426
 30
0.0
 42
0.4142135623730951
  0
VERTEX
  5
1E9
  8
OUTER_PROFILES
 10
-3448.646359150663
 20
2019.705615100026
 30
0.0
 42
0.4142135623730951
  0
SEQEND
  5
828
  8
OUTER_PROFILES
  0
POLYLINE
  5
8A
  8
OUTER_PROFILES
 66
     1
 10
0.0
 20
0.0
 30
0.0
 70
     1
  0
VERTEX
  5
1EA
  8
OUTER_PROFILES
 10
-3446.089924209247
 20
2175.906424698109
 30
0.0
 42
0.4142135623730951
  0
VERTEX
  5
1EB
  8
OUTER_PROFILES
 10
-3449.09843144181
 20
2178.897893272508
 30
0.0
 42
0.4142135623730951
  0
VERTEX
  5
1EC
  8
OUTER_PROFILES
 10
-3452.089900016209
 20
2175.889386039946
 30
0.0
 42
0.4142135623730951
  0
VERTEX
  5
1ED
  8
OUTER_PROFILES
 10
-3449.081392783647
 20
2172.897917465546
 30
0.0
 42
0.4142135623730951
  0
SEQEND
  5
829
  8
OUTER_PROFILES
  0
POLYLINE
  5
8B
  8
OUTER_PROFILES
 66
     1
 10
0.0
 20
0.0
 30
0.0
 70
     1
  0
VERTEX
  5
1EE
  8
OUTER_PROFILES
 10
-3481.167927300206
 20
2143.801304992925
 30
0.0
 42
0.4142135623730951
  0
VERTEX
  5
1EF
  8
OUTER_PROFILES
 10
-3484.176434532769
 20
2146.792773567325
 30
0.0
 42
0.4142135623730951
  0
VERTEX
  5
1F0
  8
OUTER_PROFILES
 10
-3487.167903107169
 20
2143.784266334763
 30
0.0
 42
0.4142135623730951
  0
VERTEX
  5
1F1
  8
OUTER_PROFILES
 10
-3484.159395874607
 20
2140.792797760363
 30
0.0
 42
0.4142135623730951
  0
SEQEND
  5
82A
  8
OUTER_PROFILES
  0
POLYLINE
  5
8C
  8
OUTER_PROFILES
 66
     1
 10
0.0
 20
0.0
 30
0.0
 70
     1
  0
VERTEX
  5
1F2
  8
OUTER_PROFILES
 10
-3445.714854085816
 20
2043.8296117794
 30
0.0
 42
0.4142135623730951
  0
VERTEX
  5
1F3
  8
OUTER_PROFILES
 10
-3448.723361318378
 20
2046.8210803538
 30
0.0
 42
0.4142135623730951
  0
VERTEX
  5
1F4
  8
OUTER_PROFILES
 10
-3451.714829892777
 20
2043.812573121237
 30
0.0
 42
0.4142135623730951
  0
VERTEX
  5
1F5
  8
OUTER_PROFILES
 10
-3448.706322660215
 20
2040.821104546838
 30
0.0
 42
0.4142135623730951
  0
SEQEND
  5
82B
  8
OUTER_PROFILES
  0
POLYLINE
  5
8D
  8
OUTER_PROFILES
 66
     1
 10
0.0
 20
0.0
 30
0.0
 70
     1
  0
VERTEX
  5
1F6
  8
OUTER_PROFILES
 10
-3446.1498877188
 20
2197.02191414492
 30
0.0
 42
0.4142135623730951
  0
VERTEX
  5
1F7
  8
OUTER_PROFILES
 10
-3449.158394951362
 20
2200.01338271932
 30
0.0
 42
0.4142135623730951
  0
VERTEX
  5
1F8
  8
OUTER_PROFILES
 10
-3452.149863525761
 20
2197.004875486758
 30
0.0
 42
0.4142135623730951
  0
VERTEX
  5
1F9
  8
OUTER_PROFILES
 10
-3449.141356293199
 20
2194.013406912358
 30
0.0
 42
0.4142135623730951
  0
SEQEND
  5
82C
  8
OUTER_PROFILES
  0
POLYLINE
  5
8E
  8
OUTER_PROFILES
 66
     1
 10
0.0
 20
0.0
 30
0.0
 70
     1
  0
VERTEX
  5
1FA
  8
OUTER_PROFILES
 10
-3445.999036097463
 20
2143.901177181486
 30
0.0
 42
0.4142135623730951
  0
VERTEX
  5
1FB
  8
OUTER_PROFILES
 10
-3449.007543330024
 20
2146.892645755885
 30
0.0
 42
0.4142135623730951
  0
VERTEX
  5
1FC
  8
OUTER_PROFILES
 10
-3451.999011904424
 20
2143.884138523324
 30
0.0
 42
0.4142135623730951
  0
VERTEX
  5
1FD
  8
OUTER_PROFILES
 10
-3448.990504671862
 20
2140.892669948923
 30
0.0
 42
0.4142135623730951
  0
SEQEND
  5
82D
  8
OUTER_PROFILES
  0
POLYLINE
  5
8F
  8
OUTER_PROFILES
 66
     1
 10
0.0
 20
0.0
 30
0.0
 70
     1
  0
VERTEX
  5
1FE
  8
OUTER_PROFILES
 10
-3445.872637606698
 20
2099.39134082024
 30
0.0
 42
0.4142135623730951
  0
VERTEX
  5
1FF
  8
OUTER_PROFILES
 10
-3448.881144839261
 20
2102.382809394639
 30
0.0
 42
0.4142135623730951
  0
VERTEX
  5
200
  8
OUTER_PROFILES
 10
-3451.87261341366
 20
2099.374302162078
 30
0.0
 42
0.4142135623730951
  0
VERTEX
  5
201
  8
OUTER_PROFILES
 10
-3448.864106181098
 20
2096.382833587678
 30
0.0
 42
0.4142135623730951
  0
SEQEND
  5
82E
  8
OUTER_PROFILES
  0
POLYLINE
  5
90
  8
OUTER_PROFILES
 66
     1
 10
0.0
 20
0.0
 30
0.0
 70
     1
  0
VERTEX
  5
202
  8
OUTER_PROFILES
 10
-3145.260133175301
 20
2253.739893576761
 30
0.0
 42
0.4142135623730951
  0
VERTEX
  5
203
  8
OUTER_PROFILES
 10
-3148.251601749701
 20
2250.731386344199
 30
0.0
 42
0.4142135623730951
  0
VERTEX
  5
204
  8
OUTER_PROFILES
 10
-3145.243094517139
 20
2247.739917769799
 30
0.0
 42
0.4142135623730951
  0
VERTEX
  5
205
  8
OUTER_PROFILES
 10
-3142.251625942739
 20
2250.748425002361
 30
0.0
 42
0.4142135623730951
  0
SEQEND
  5
82F
  8
OUTER_PROFILES
  0
POLYLINE
  5
91
  8
OUTER_PROFILES
 66
     1
 10
0.0
 20
0.0
 30
0.0
 70
     1
  0
VERTEX
  5
206
  8
OUTER_PROFILES
 10
-3168.120040999826
 20
2253.674976289162
 30
0.0
 42
0.4142135623730951
  0
VERTEX
  5
207
  8
OUTER_PROFILES
 10
-3171.111509574226
 20
2250.6664690566
 30
0.0
 42
0.4142135623730951
  0
VERTEX
  5
208
  8
OUTER_PROFILES
 10
-3168.103002341664
 20
2247.675000482201
 30
0.0
 42
0.4142135623730951
  0
VERTEX
  5
209
  8
OUTER_PROFILES
 10
-3165.111533767264
 20
2250.683507714763
 30
0.0
 42
0.4142135623730951
  0
SEQEND
  5
830
  8
OUTER_PROFILES
  0
POLYLINE
  5
92
  8
OUTER_PROFILES
 66
     1
 10
0.0
 20
0.0
 30
0.0
 70
     1
  0
VERTEX
  5
20A
  8
OUTER_PROFILES
 10
-3099.43212204692
 20
2215.76988177775
 30
0.0
 42
0.4142135623730951
  0
VERTEX
  5
20B
  8
OUTER_PROFILES
 10
-3102.42359062132
 20
2212.761374545188
 30
0.0
 42
0.4142135623730951
  0
VERTEX
  5
20C
  8
OUTER_PROFILES
 10
-3099.415083388758
 20
2209.769905970788
 30
0.0
 42
0.4142135623730951
  0
VERTEX
  5
20D
  8
OUTER_PROFILES
 10
-3096.423614814358
 20
2212.77841320335
 30
0.0
 42
0.4142135623730951
  0
SEQEND
  5
831
  8
OUTER_PROFILES
  0
POLYLINE
  5
93
  8
OUTER_PROFILES
 66
     1
 10
0.0
 20
0.0
 30
0.0
 70
     1
  0
VERTEX
  5
20E
  8
OUTER_PROFILES
 10
-3145.206035435635
 20
2234.689970389657
 30
0.0
 42
0.4142135623730951
  0
VERTEX
  5
20F
  8
OUTER_PROFILES
 10
-3148.197504010036
 20
2231.681463157095
 30
0.0
 42
0.4142135623730951
  0
VERTEX
  5
210
  8
OUTER_PROFILES
 10
-3145.188996777473
 20
2228.689994582694
 30
0.0
 42
0.4142135623730951
  0
VERTEX
  5
211
  8
OUTER_PROFILES
 10
-3142.197528203073
 20
2231.698501815257
 30
0.0
 42
0.4142135623730951
  0
SEQEND
  5
832
  8
OUTER_PROFILES
  0
POLYLINE
  5
94
  8
OUTER_PROFILES
 66
     1
 10
0.0
 20
0.0
 30
0.0
 70
     1
  0
VERTEX
  5
212
  8
OUTER_PROFILES
 10
-3122.292029871445
 20
2215.704964490151
 30
0.0
 42
0.4142135623730951
  0
VERTEX
  5
213
  8
OUTER_PROFILES
 10
-3125.283498445845
 20
2212.696457257589
 30
0.0
 42
0.4142135623730951
  0
VERTEX
  5
214
  8
OUTER_PROFILES
 10
-3122.274991213283
 20
2209.70498868319
 30
0.0
 42
0.4142135623730951
  0
VERTEX
  5
215
  8
OUTER_PROFILES
 10
-3119.283522638883
 20
2212.713495915752
 30
0.0
 42
0.4142135623730951
  0
SEQEND
  5
833
  8
OUTER_PROFILES
  0
POLYLINE
  5
95
  8
OUTER_PROFILES
 66
     1
 10
0.0
 20
0.0
 30
0.0
 70
     1
  0
VERTEX
  5
216
  8
OUTER_PROFILES
 10
-3122.400225350776
 20
2253.804810864359
 30
0.0
 42
0.4142135623730951
  0
VERTEX
  5
217
  8
OUTER_PROFILES
 10
-3125.391693925176
 20
2250.796303631797
 30
0.0
 42
0.4142135623730951
  0
VERTEX
  5
218
  8
OUTER_PROFILES
 10
-3122.383186692614
 20
2247.804835057398
 30
0.0
 42
0.4142135623730951
  0
VERTEX
  5
219
  8
OUTER_PROFILES
 10
-3119.391718118214
 20
2250.81334228996
 30
0.0
 42
0.4142135623730951
  0
SEQEND
  5
834
  8
OUTER_PROFILES
  0
POLYLINE
  5
96
  8
OUTER_PROFILES
 66
     1
 10
0.0
 20
0.0
 30
0.0
 70
     1
  0
VERTEX
  5
21A
  8
OUTER_PROFILES
 10
-3099.016378787759
 20
2069.37047208788
 30
0.0
 42
0.4142135623730951
  0
VERTEX
  5
21B
  8
OUTER_PROFILES
 10
-3102.007847362159
 20
2066.361964855318
 30
0.0
 42
0.4142135623730951
  0
VERTEX
  5
21C
  8
OUTER_PROFILES
 10
-3098.999340129597
 20
2063.370496280917
 30
0.0
 42
0.4142135623730951
  0
VERTEX
  5
21D
  8
OUTER_PROFILES
 10
-3096.007871555197
 20
2066.37900351348
 30
0.0
 42
0.4142135623730951
  0
SEQEND
  5
835
  8
OUTER_PROFILES
  0
POLYLINE
  5
97
  8
OUTER_PROFILES
 66
     1
 10
0.0
 20
0.0
 30
0.0
 70
     1
  0
VERTEX
  5
21E
  8
OUTER_PROFILES
 10
-3099.070476527424
 20
2088.420395274984
 30
0.0
 42
0.4142135623730951
  0
VERTEX
  5
21F
  8
OUTER_PROFILES
 10
-3102.061945101825
 20
2085.411888042422
 30
0.0
 42
0.4142135623730951
  0
VERTEX
  5
220
  8
OUTER_PROFILES
 10
-3099.053437869262
 20
2082.420419468022
 30
0.0
 42
0.4142135623730951
  0
VERTEX
  5
221
  8
OUTER_PROFILES
 10
-3096.061969294863
 20
2085.428926700584
 30
0.0
 42
0.4142135623730951
  0
SEQEND
  5
836
  8
OUTER_PROFILES
  0
POLYLINE
  5
98
  8
OUTER_PROFILES
 66
     1
 10
0.0
 20
0.0
 30
0.0
 70
     1
  0
VERTEX
  5
222
  8
OUTER_PROFILES
 10
-3099.12457426709
 20
2107.470318462088
 30
0.0
 42
0.4142135623730951
  0
VERTEX
  5
223
  8
OUTER_PROFILES
 10
-3102.11604284149
 20
2104.461811229526
 30
0.0
 42
0.4142135623730951
  0
VERTEX
  5
224
  8
OUTER_PROFILES
 10
-3099.107535608928
 20
2101.470342655126
 30
0.0
 42
0.4142135623730951
  0
VERTEX
  5
225
  8
OUTER_PROFILES
 10
-3096.116067034528
 20
2104.478849887688
 30
0.0
 42
0.4142135623730951
  0
SEQEND
  5
837
  8
OUTER_PROFILES
  0
POLYLINE
  5
99
  8
OUTER_PROFILES
 66
     1
 10
0.0
 20
0.0
 30
0.0
 70
     1
  0
VERTEX
  5
226
  8
OUTER_PROFILES
 10
-3144.790292176474
 20
2088.290560699787
 30
0.0
 42
0.4142135623730951
  0
VERTEX
  5
227
  8
OUTER_PROFILES
 10
-3147.781760750875
 20
2085.282053467225
 30
0.0
 42
0.4142135623730951
  0
VERTEX
  5
228
  8
OUTER_PROFILES
 10
-3144.773253518312
 20
2082.290584892825
 30
0.0
 42
0.4142135623730951
  0
VERTEX
  5
229
  8
OUTER_PROFILES
 10
-3141.781784943912
 20
2085.299092125387
 30
0.0
 42
0.4142135623730951
  0
SEQEND
  5
838
  8
OUTER_PROFILES
  0
POLYLINE
  5
9A
  8
OUTER_PROFILES
 66
     1
 10
0.0
 20
0.0
 30
0.0
 70
     1
  0
VERTEX
  5
22A
  8
OUTER_PROFILES
 10
-3099.486219786585
 20
2234.819804964854
 30
0.0
 42
0.4142135623730951
  0
VERTEX
  5
22B
  8
OUTER_PROFILES
 10
-3102.477688360986
 20
2231.811297732292
 30
0.0
 42
0.4142135623730951
  0
VERTEX
  5
22C
  8
OUTER_PROFILES
 10
-3099.469181128423
 20
2228.819829157891
 30
0.0
 42
0.4142135623730951
  0
VERTEX
  5
22D
  8
OUTER_PROFILES
 10
-3096.477712554024
 20
2231.828336390454
 30
0.0
 42
0.4142135623730951
  0
SEQEND
  5
839
  8
OUTER_PROFILES
  0
POLYLINE
  5
9B
  8
OUTER_PROFILES
 66
     1
 10
0.0
 20
0.0
 30
0.0
 70
     1
  0
VERTEX
  5
22E
  8
OUTER_PROFILES
 10
-3122.346127611111
 20
2234.754887677255
 30
0.0
 42
0.4142135623730951
  0
VERTEX
  5
22F
  8
OUTER_PROFILES
 10
-3125.33759618551
 20
2231.746380444693
 30
0.0
 42
0.4142135623730951
  0
VERTEX
  5
230
  8
OUTER_PROFILES
 10
-3122.329088952948
 20
2228.754911870293
 30
0.0
 42
0.4142135623730951
  0
VERTEX
  5
231
  8
OUTER_PROFILES
 10
-3119.337620378549
 20
2231.763419102856
 30
0.0
 42
0.4142135623730951
  0
SEQEND
  5
83A
  8
OUTER_PROFILES
  0
POLYLINE
  5
9C
  8
OUTER_PROFILES
 66
     1
 10
0.0
 20
0.0
 30
0.0
 70
     1
  0
VERTEX
  5
232
  8
OUTER_PROFILES
 10
-3121.93038435195
 20
2088.355477987385
 30
0.0
 42
0.4142135623730951
  0
VERTEX
  5
233
  8
OUTER_PROFILES
 10
-3124.921852926349
 20
2085.346970754823
 30
0.0
 42
0.4142135623730951
  0
VERTEX
  5
234
  8
OUTER_PROFILES
 10
-3121.913345693788
 20
2082.355502180424
 30
0.0
 42
0.4142135623730951
  0
VERTEX
  5
235
  8
OUTER_PROFILES
 10
-3118.921877119388
 20
2085.364009412986
 30
0.0
 42
0.4142135623730951
  0
SEQEND
  5
83B
  8
OUTER_PROFILES
  0
POLYLINE
  5
9D
  8
OUTER_PROFILES
 66
     1
 10
0.0
 20
0.0
 30
0.0
 70
     1
  0
VERTEX
  5
236
  8
OUTER_PROFILES
 10
-3144.736194436809
 20
2069.240637512683
 30
0.0
 42
0.4142135623730951
  0
VERTEX
  5
237
  8
OUTER_PROFILES
 10
-3147.727663011209
 20
2066.232130280121
 30
0.0
 42
0.4142135623730951
  0
VERTEX
  5
238
  8
OUTER_PROFILES
 10
-3144.719155778647
 20
2063.240661705721
 30
0.0
 42
0.4142135623730951
  0
VERTEX
  5
239
  8
OUTER_PROFILES
 10
-3141.727687204247
 20
2066.249168938284
 30
0.0
 42
0.4142135623730951
  0
SEQEND
  5
83C
  8
OUTER_PROFILES
  0
POLYLINE
  5
9E
  8
OUTER_PROFILES
 66
     1
 10
0.0
 20
0.0
 30
0.0
 70
     1
  0
VERTEX
  5
23A
  8
OUTER_PROFILES
 10
-3099.540317526251
 20
2253.869728151958
 30
0.0
 42
0.4142135623730951
  0
VERTEX
  5
23B
  8
OUTER_PROFILES
 10
-3102.531786100651
 20
2250.861220919396
 30
0.0
 42
0.4142135623730951
  0
VERTEX
  5
23C
  8
OUTER_PROFILES
 10
-3099.523278868089
 20
2247.869752344996
 30
0.0
 42
0.4142135623730951
  0
VERTEX
  5
23D
  8
OUTER_PROFILES
 10
-3096.531810293689
 20
2250.878259577558
 30
0.0
 42
0.4142135623730951
  0
SEQEND
  5
83D
  8
OUTER_PROFILES
  0
POLYLINE
  5
9F
  8
OUTER_PROFILES
 66
     1
 10
0.0
 20
0.0
 30
0.0
 70
     1
  0
VERTEX
  5
23E
  8
OUTER_PROFILES
 10
-3167.596102261334
 20
2069.175720225085
 30
0.0
 42
0.4142135623730951
  0
VERTEX
  5
23F
  8
OUTER_PROFILES
 10
-3170.587570835734
 20
2066.167212992523
 30
0.0
 42
0.4142135623730951
  0
VERTEX
  5
240
  8
OUTER_PROFILES
 10
-3167.579063603172
 20
2063.175744418123
 30
0.0
 42
0.4142135623730951
  0
VERTEX
  5
241
  8
OUTER_PROFILES
 10
-3164.587595028772
 20
2066.184251650685
 30
0.0
 42
0.4142135623730951
  0
SEQEND
  5
83E
  8
OUTER_PROFILES
  0
POLYLINE
  5
A0
  8
OUTER_PROFILES
 66
     1
 10
0.0
 20
0.0
 30
0.0
 70
     1
  0
VERTEX
  5
242
  8
OUTER_PROFILES
 10
-3121.876286612284
 20
2069.305554800281
 30
0.0
 42
0.4142135623730951
  0
VERTEX
  5
243
  8
OUTER_PROFILES
 10
-3124.867755186684
 20
2066.297047567719
 30
0.0
 42
0.4142135623730951
  0
VERTEX
  5
244
  8
OUTER_PROFILES
 10
-3121.859247954122
 20
2063.305578993319
 30
0.0
 42
0.4142135623730951
  0
VERTEX
  5
245
  8
OUTER_PROFILES
 10
-3118.867779379722
 20
2066.314086225882
 30
0.0
 42
0.4142135623730951
  0
SEQEND
  5
83F
  8
OUTER_PROFILES
  0
POLYLINE
  5
A1
  8
OUTER_PROFILES
 66
     1
 10
0.0
 20
0.0
 30
0.0
 70
     1
  0
VERTEX
  5
246
  8
OUTER_PROFILES
 10
-3121.984482091615
 20
2107.40540117449
 30
0.0
 42
0.4142135623730951
  0
VERTEX
  5
247
  8
OUTER_PROFILES
 10
-3124.975950666015
 20
2104.396893941927
 30
0.0
 42
0.4142135623730951
  0
VERTEX
  5
248
  8
OUTER_PROFILES
 10
-3121.967443433453
 20
2101.405425367528
 30
0.0
 42
0.4142135623730951
  0
VERTEX
  5
249
  8
OUTER_PROFILES
 10
-3118.975974859053
 20
2104.41393260009
 30
0.0
 42
0.4142135623730951
  0
SEQEND
  5
840
  8
OUTER_PROFILES
  0
POLYLINE
  5
A2
  8
OUTER_PROFILES
 66
     1
 10
0.0
 20
0.0
 30
0.0
 70
     1
  0
VERTEX
  5
24A
  8
OUTER_PROFILES
 10
-2940.374538303999
 20
2247.298354548356
 30
0.0
 42
0.4142135623730951
  0
VERTEX
  5
24B
  8
OUTER_PROFILES
 10
-2937.374538303999
 20
2244.298354548356
 30
0.0
 42
0.4142135623730951
  0
VERTEX
  5
24C
  8
OUTER_PROFILES
 10
-2934.374538303999
 20
2247.298354548356
 30
0.0
 42
0.4142135623730951
  0
VERTEX
  5
24D
  8
OUTER_PROFILES
 10
-2937.374538303999
 20
2250.298354548356
 30
0.0
 42
0.4142135623730951
  0
SEQEND
  5
841
  8
OUTER_PROFILES
  0
POLYLINE
  5
A3
  8
OUTER_PROFILES
 66
     1
 10
0.0
 20
0.0
 30
0.0
 70
     1
  0
VERTEX
  5
24E
  8
OUTER_PROFILES
 10
-2917.673462677144
 20
2249.98922158034
 30
0.0
 42
0.4142135623730951
  0
VERTEX
  5
24F
  8
OUTER_PROFILES
 10
-2914.673462677144
 20
2246.98922158034
 30
0.0
 42
0.4142135623730951
  0
VERTEX
  5
250
  8
OUTER_PROFILES
 10
-2911.673462677144
 20
2249.98922158034
 30
0.0
 42
0.4142135623730951
  0
VERTEX
  5
251
  8
OUTER_PROFILES
 10
-2914.673462677144
 20
2252.98922158034
 30
0.0
 42
0.4142135623730951
  0
SEQEND
  5
842
  8
OUTER_PROFILES
  0
POLYLINE
  5
A4
  8
OUTER_PROFILES
 66
     1
 10
0.0
 20
0.0
 30
0.0
 70
     1
  0
VERTEX
  5
252
  8
OUTER_PROFILES
 10
-2915.432431952042
 20
2231.083119060989
 30
0.0
 42
0.4142135623730951
  0
VERTEX
  5
253
  8
OUTER_PROFILES
 10
-2912.432431952042
 20
2228.083119060989
 30
0.0
 42
0.4142135623730951
  0
VERTEX
  5
254
  8
OUTER_PROFILES
 10
-2909.432431952042
 20
2231.083119060989
 30
0.0
 42
0.4142135623730951
  0
VERTEX
  5
255
  8
OUTER_PROFILES
 10
-2912.432431952042
 20
2234.083119060989
 30
0.0
 42
0.4142135623730951
  0
SEQEND
  5
843
  8
OUTER_PROFILES
  0
POLYLINE
  5
A5
  8
OUTER_PROFILES
 66
     1
 10
0.0
 20
0.0
 30
0.0
 70
     1
  0
VERTEX
  5
256
  8
OUTER_PROFILES
 10
-2892.634837282234
 20
2232.284655096332
 30
0.0
 42
0.4142135623730951
  0
VERTEX
  5
257
  8
OUTER_PROFILES
 10
-2889.634837282234
 20
2229.284655096332
 30
0.0
 42
0.4142135623730951
  0
VERTEX
  5
258
  8
OUTER_PROFILES
 10
-2886.634837282234
 20
2232.284655096332
 30
0.0
 42
0.4142135623730951
  0
VERTEX
  5
259
  8
OUTER_PROFILES
 10
-2889.634837282234
 20
2235.284655096332
 30
0.0
 42
0.4142135623730951
  0
SEQEND
  5
844
  8
OUTER_PROFILES
  0
POLYLINE
  5
A6
  8
OUTER_PROFILES
 66
     1
 10
0.0
 20
0.0
 30
0.0
 70
     1
  0
VERTEX
  5
25A
  8
OUTER_PROFILES
 10
-2867.516749700751
 20
2213.234655096332
 30
0.0
 42
0.4142135623730951
  0
VERTEX
  5
25B
  8
OUTER_PROFILES
 10
-2864.516749700751
 20
2210.234655096332
 30
0.0
 42
0.4142135623730951
  0
VERTEX
  5
25C
  8
OUTER_PROFILES
 10
-2861.516749700751
 20
2213.234655096332
 30
0.0
 42
0.4142135623730951
  0
VERTEX
  5
25D
  8
OUTER_PROFILES
 10
-2864.516749700751
 20
2216.234655096332
 30
0.0
 42
0.4142135623730951
  0
SEQEND
  5
845
  8
OUTER_PROFILES
  0
POLYLINE
  5
A7
  8
OUTER_PROFILES
 66
     1
 10
0.0
 20
0.0
 30
0.0
 70
     1
  0
VERTEX
  5
25E
  8
OUTER_PROFILES
 10
-2869.774837282234
 20
2232.284655096332
 30
0.0
 42
0.4142135623730951
  0
VERTEX
  5
25F
  8
OUTER_PROFILES
 10
-2866.774837282234
 20
2229.284655096332
 30
0.0
 42
0.4142135623730951
  0
VERTEX
  5
260
  8
OUTER_PROFILES
 10
-2863.774837282234
 20
2232.284655096332
 30
0.0
 42
0.4142135623730951
  0
VERTEX
  5
261
  8
OUTER_PROFILES
 10
-2866.774837282234
 20
2235.284655096332
 30
0.0
 42
0.4142135623730951
  0
SEQEND
  5
846
  8
OUTER_PROFILES
  0
POLYLINE
  5
A8
  8
OUTER_PROFILES
 66
     1
 10
0.0
 20
0.0
 30
0.0
 70
     1
  0
VERTEX
  5
262
  8
OUTER_PROFILES
 10
-2872.032924863717
 20
2251.334655096332
 30
0.0
 42
0.4142135623730951
  0
VERTEX
  5
263
  8
OUTER_PROFILES
 10
-2869.032924863717
 20
2248.334655096332
 30
0.0
 42
0.4142135623730951
  0
VERTEX
  5
264
  8
OUTER_PROFILES
 10
-2866.032924863717
 20
2251.334655096332
 30
0.0
 42
0.4142135623730951
  0
VERTEX
  5
265
  8
OUTER_PROFILES
 10
-2869.032924863717
 20
2254.334655096332
 30
0.0
 42
0.4142135623730951
  0
SEQEND
  5
847
  8
OUTER_PROFILES
  0
POLYLINE
  5
A9
  8
OUTER_PROFILES
 66
     1
 10
0.0
 20
0.0
 30
0.0
 70
     1
  0
VERTEX
  5
266
  8
OUTER_PROFILES
 10
-2894.892924863717
 20
2251.334655096332
 30
0.0
 42
0.4142135623730951
  0
VERTEX
  5
267
  8
OUTER_PROFILES
 10
-2891.892924863717
 20
2248.334655096332
 30
0.0
 42
0.4142135623730951
  0
VERTEX
  5
268
  8
OUTER_PROFILES
 10
-2888.892924863717
 20
2251.334655096332
 30
0.0
 42
0.4142135623730951
  0
VERTEX
  5
269
  8
OUTER_PROFILES
 10
-2891.892924863717
 20
2254.334655096332
 30
0.0
 42
0.4142135623730951
  0
SEQEND
  5
848
  8
OUTER_PROFILES
  0
POLYLINE
  5
AA
  8
OUTER_PROFILES
 66
     1
 10
0.0
 20
0.0
 30
0.0
 70
     1
  0
VERTEX
  5
26A
  8
OUTER_PROFILES
 10
-2890.376749700751
 20
2213.234655096332
 30
0.0
 42
0.4142135623730951
  0
VERTEX
  5
26B
  8
OUTER_PROFILES
 10
-2887.376749700751
 20
2210.234655096332
 30
0.0
 42
0.4142135623730951
  0
VERTEX
  5
26C
  8
OUTER_PROFILES
 10
-2884.376749700751
 20
2213.234655096332
 30
0.0
 42
0.4142135623730951
  0
VERTEX
  5
26D
  8
OUTER_PROFILES
 10
-2887.376749700751
 20
2216.234655096332
 30
0.0
 42
0.4142135623730951
  0
SEQEND
  5
849
  8
OUTER_PROFILES
  0
POLYLINE
  5
AB
  8
OUTER_PROFILES
 66
     1
 10
0.0
 20
0.0
 30
0.0
 70
     1
  0
VERTEX
  5
26E
  8
OUTER_PROFILES
 10
-2894.892924863717
 20
2066.834655096332
 30
0.0
 42
0.4142135623730951
  0
VERTEX
  5
26F
  8
OUTER_PROFILES
 10
-2891.892924863717
 20
2063.834655096332
 30
0.0
 42
0.4142135623730951
  0
VERTEX
  5
270
  8
OUTER_PROFILES
 10
-2888.892924863717
 20
2066.834655096332
 30
0.0
 42
0.4142135623730951
  0
VERTEX
  5
271
  8
OUTER_PROFILES
 10
-2891.892924863717
 20
2069.834655096332
 30
0.0
 42
0.4142135623730951
  0
SEQEND
  5
84A
  8
OUTER_PROFILES
  0
POLYLINE
  5
AC
  8
OUTER_PROFILES
 66
     1
 10
0.0
 20
0.0
 30
0.0
 70
     1
  0
VERTEX
  5
272
  8
OUTER_PROFILES
 10
-2892.634837282234
 20
2085.884655096333
 30
0.0
 42
0.4142135623730951
  0
VERTEX
  5
273
  8
OUTER_PROFILES
 10
-2889.634837282234
 20
2082.884655096333
 30
0.0
 42
0.4142135623730951
  0
VERTEX
  5
274
  8
OUTER_PROFILES
 10
-2886.634837282234
 20
2085.884655096333
 30
0.0
 42
0.4142135623730951
  0
VERTEX
  5
275
  8
OUTER_PROFILES
 10
-2889.634837282234
 20
2088.884655096333
 30
0.0
 42
0.4142135623730951
  0
SEQEND
  5
84B
  8
OUTER_PROFILES
  0
POLYLINE
  5
AD
  8
OUTER_PROFILES
 66
     1
 10
0.0
 20
0.0
 30
0.0
 70
     1
  0
VERTEX
  5
276
  8
OUTER_PROFILES
 10
-2890.376749700751
 20
2104.934655096332
 30
0.0
 42
0.4142135623730951
  0
VERTEX
  5
277
  8
OUTER_PROFILES
 10
-2887.376749700751
 20
2101.934655096332
 30
0.0
 42
0.4142135623730951
  0
VERTEX
  5
278
  8
OUTER_PROFILES
 10
-2884.376749700751
 20
2104.934655096332
 30
0.0
 42
0.4142135623730951
  0
VERTEX
  5
279
  8
OUTER_PROFILES
 10
-2887.376749700751
 20
2107.934655096332
 30
0.0
 42
0.4142135623730951
  0
SEQEND
  5
84C
  8
OUTER_PROFILES
  0
POLYLINE
  5
AE
  8
OUTER_PROFILES
 66
     1
 10
0.0
 20
0.0
 30
0.0
 70
     1
  0
VERTEX
  5
27A
  8
OUTER_PROFILES
 10
-2917.673462677144
 20
2068.180088612325
 30
0.0
 42
0.4142135623730951
  0
VERTEX
  5
27B
  8
OUTER_PROFILES
 10
-2914.673462677144
 20
2065.180088612325
 30
0.0
 42
0.4142135623730951
  0
VERTEX
  5
27C
  8
OUTER_PROFILES
 10
-2911.673462677144
 20
2068.180088612325
 30
0.0
 42
0.4142135623730951
  0
VERTEX
  5
27D
  8
OUTER_PROFILES
 10
-2914.673462677144
 20
2071.180088612325
 30
0.0
 42
0.4142135623730951
  0
SEQEND
  5
84D
  8
OUTER_PROFILES
  0
POLYLINE
  5
AF
  8
OUTER_PROFILES
 66
     1
 10
0.0
 20
0.0
 30
0.0
 70
     1
  0
VERTEX
  5
27E
  8
OUTER_PROFILES
 10
-2915.432431952042
 20
2087.086191131676
 30
0.0
 42
0.4142135623730951
  0
VERTEX
  5
27F
  8
OUTER_PROFILES
 10
-2912.432431952042
 20
2084.086191131676
 30
0.0
 42
0.4142135623730951
  0
VERTEX
  5
280
  8
OUTER_PROFILES
 10
-2909.432431952042
 20
2087.086191131676
 30
0.0
 42
0.4142135623730951
  0
VERTEX
  5
281
  8
OUTER_PROFILES
 10
-2912.432431952042
 20
2090.086191131676
 30
0.0
 42
0.4142135623730951
  0
SEQEND
  5
84E
  8
OUTER_PROFILES
  0
POLYLINE
  5
B0
  8
OUTER_PROFILES
 66
     1
 10
0.0
 20
0.0
 30
0.0
 70
     1
  0
VERTEX
  5
282
  8
OUTER_PROFILES
 10
-2940.374538303999
 20
2070.870955644309
 30
0.0
 42
0.4142135623730951
  0
VERTEX
  5
283
  8
OUTER_PROFILES
 10
-2937.374538303999
 20
2067.870955644309
 30
0.0
 42
0.4142135623730951
  0
VERTEX
  5
284
  8
OUTER_PROFILES
 10
-2934.374538303999
 20
2070.870955644309
 30
0.0
 42
0.4142135623730951
  0
VERTEX
  5
285
  8
OUTER_PROFILES
 10
-2937.374538303999
 20
2073.870955644309
 30
0.0
 42
0.4142135623730951
  0
SEQEND
  5
84F
  8
OUTER_PROFILES
  0
POLYLINE
  5
B1
  8
OUTER_PROFILES
 66
     1
 10
0.0
 20
0.0
 30
0.0
 70
     1
  0
VERTEX
  5
286
  8
OUTER_PROFILES
 10
-2867.516749700751
 20
2104.934655096332
 30
0.0
 42
0.4142135623730951
  0
VERTEX
  5
287
  8
OUTER_PROFILES
 10
-2864.516749700751
 20
2101.934655096332
 30
0.0
 42
0.4142135623730951
  0
VERTEX
  5
288
  8
OUTER_PROFILES
 10
-2861.516749700751
 20
2104.934655096332
 30
0.0
 42
0.4142135623730951
  0
VERTEX
  5
289
  8
OUTER_PROFILES
 10
-2864.516749700751
 20
2107.934655096332
 30
0.0
 42
0.4142135623730951
  0
SEQEND
  5
850
  8
OUTER_PROFILES
  0
POLYLINE
  5
B2
  8
OUTER_PROFILES
 66
     1
 10
0.0
 20
0.0
 30
0.0
 70
     1
  0
VERTEX
  5
28A
  8
OUTER_PROFILES
 10
-2869.774837282234
 20
2085.884655096333
 30
0.0
 42
0.4142135623730951
  0
VERTEX
  5
28B
  8
OUTER_PROFILES
 10
-2866.774837282234
 20
2082.884655096333
 30
0.0
 42
0.4142135623730951
  0
VERTEX
  5
28C
  8
OUTER_PROFILES
 10
-2863.774837282234
 20
2085.884655096333
 30
0.0
 42
0.4142135623730951
  0
VERTEX
  5
28D
  8
OUTER_PROFILES
 10
-2866.774837282234
 20
2088.884655096333
 30
0.0
 42
0.4142135623730951
  0
SEQEND
  5
851
  8
OUTER_PROFILES
  0
POLYLINE
  5
B3
  8
OUTER_PROFILES
 66
     1
 10
0.0
 20
0.0
 30
0.0
 70
     1
  0
VERTEX
  5
28E
  8
OUTER_PROFILES
 10
-2872.032924863717
 20
2066.834655096332
 30
0.0
 42
0.4142135623730951
  0
VERTEX
  5
28F
  8
OUTER_PROFILES
 10
-2869.032924863717
 20
2063.834655096332
 30
0.0
 42
0.4142135623730951
  0
VERTEX
  5
290
  8
OUTER_PROFILES
 10
-2866.032924863717
 20
2066.834655096332
 30
0.0
 42
0.4142135623730951
  0
VERTEX
  5
291
  8
OUTER_PROFILES
 10
-2869.032924863717
 20
2069.834655096332
 30
0.0
 42
0.4142135623730951
  0
SEQEND
  5
852
  8
OUTER_PROFILES
  0
POLYLINE
  5
B4
  8
OUTER_PROFILES
 66
     1
 10
0.0
 20
0.0
 30
0.0
 70
     1
  0
VERTEX
  5
292
  8
OUTER_PROFILES
 10
-3026.686902811996
 20
2255.383800601132
 30
0.0
 42
0.4142135623730951
  0
VERTEX
  5
293
  8
OUTER_PROFILES
 10
-3029.695410044558
 20
2258.375269175532
 30
0.0
 42
0.4142135623730951
  0
VERTEX
  5
294
  8
OUTER_PROFILES
 10
-3032.686878618958
 20
2255.36676194297
 30
0.0
 42
0.4142135623730951
  0
VERTEX
  5
295
  8
OUTER_PROFILES
 10
-3029.678371386396
 20
2252.37529336857
 30
0.0
 42
0.4142135623730951
  0
SEQEND
  5
853
  8
OUTER_PROFILES
  0
POLYLINE
  5
B5
  8
OUTER_PROFILES
 66
     1
 10
0.0
 20
0.0
 30
0.0
 70
     1
  0
VERTEX
  5
296
  8
OUTER_PROFILES
 10
-3026.149281053118
 20
2066.06621961355
 30
0.0
 42
0.4142135623730951
  0
VERTEX
  5
297
  8
OUTER_PROFILES
 10
-3029.15778828568
 20
2069.05768818795
 30
0.0
 42
0.4142135623730951
  0
VERTEX
  5
298
  8
OUTER_PROFILES
 10
-3032.149256860079
 20
2066.049180955388
 30
0.0
 42
0.4142135623730951
  0
VERTEX
  5
299
  8
OUTER_PROFILES
 10
-3029.140749627517
 20
2063.057712380988
 30
0.0
 42
0.4142135623730951
  0
SEQEND
  5
854
  8
OUTER_PROFILES
  0
POLYLINE
  5
B6
  8
OUTER_PROFILES
 66
     1
 10
0.0
 20
0.0
 30
0.0
 70
     1
  0
VERTEX
  5
29A
  8
OUTER_PROFILES
 10
-3048.842623684721
 20
2063.310897453686
 30
0.0
 42
0.4142135623730951
  0
VERTEX
  5
29B
  8
OUTER_PROFILES
 10
-3051.851130917283
 20
2066.302366028086
 30
0.0
 42
0.4142135623730951
  0
VERTEX
  5
29C
  8
OUTER_PROFILES
 10
-3054.842599491683
 20
2063.293858795524
 30
0.0
 42
0.4142135623730951
  0
VERTEX
  5
29D
  8
OUTER_PROFILES
 10
-3051.834092259121
 20
2060.302390221124
 30
0.0
 42
0.4142135623730951
  0
SEQEND
  5
855
  8
OUTER_PROFILES
  0
POLYLINE
  5
B7
  8
OUTER_PROFILES
 66
     1
 10
0.0
 20
0.0
 30
0.0
 70
     1
  0
VERTEX
  5
29E
  8
OUTER_PROFILES
 10
-3049.395528364772
 20
2258.010190805154
 30
0.0
 42
0.4142135623730951
  0
VERTEX
  5
29F
  8
OUTER_PROFILES
 10
-3052.404035597334
 20
2261.001659379554
 30
0.0
 42
0.4142135623730951
  0
VERTEX
  5
2A0
  8
OUTER_PROFILES
 10
-3055.395504171734
 20
2257.993152146992
 30
0.0
 42
0.4142135623730951
  0
VERTEX
  5
2A1
  8
OUTER_PROFILES
 10
-3052.386996939172
 20
2255.001683572592
 30
0.0
 42
0.4142135623730951
  0
SEQEND
  5
856
  8
OUTER_PROFILES
  0
POLYLINE
  5
B8
  8
OUTER_PROFILES
 66
     1
 10
0.0
 20
0.0
 30
0.0
 70
     1
  0
VERTEX
  5
2A2
  8
OUTER_PROFILES
 10
-3028.890883548813
 20
2236.327464950294
 30
0.0
 42
0.4142135623730951
  0
VERTEX
  5
2A3
  8
OUTER_PROFILES
 10
-3031.899390781375
 20
2239.318933524694
 30
0.0
 42
0.4142135623730951
  0
VERTEX
  5
2A4
  8
OUTER_PROFILES
 10
-3034.890859355775
 20
2236.310426292132
 30
0.0
 42
0.4142135623730951
  0
VERTEX
  5
2A5
  8
OUTER_PROFILES
 10
-3031.882352123213
 20
2233.318957717732
 30
0.0
 42
0.4142135623730951
  0
SEQEND
  5
857
  8
OUTER_PROFILES
  0
POLYLINE
  5
B9
  8
OUTER_PROFILES
 66
     1
 10
0.0
 20
0.0
 30
0.0
 70
     1
  0
VERTEX
  5
2A6
  8
OUTER_PROFILES
 10
-3028.461457269266
 20
2085.10973033692
 30
0.0
 42
0.4142135623730951
  0
VERTEX
  5
2A7
  8
OUTER_PROFILES
 10
-3031.469964501828
 20
2088.10119891132
 30
0.0
 42
0.4142135623730951
  0
VERTEX
  5
2A8
  8
OUTER_PROFILES
 10
-3034.461433076228
 20
2085.092691678758
 30
0.0
 42
0.4142135623730951
  0
VERTEX
  5
2A9
  8
OUTER_PROFILES
 10
-3031.452925843666
 20
2082.101223104358
 30
0.0
 42
0.4142135623730951
  0
SEQEND
  5
858
  8
OUTER_PROFILES
  0
POLYLINE
  5
BA
  8
OUTER_PROFILES
 66
     1
 10
0.0
 20
0.0
 30
0.0
 70
     1
  0
VERTEX
  5
2AA
  8
OUTER_PROFILES
 10
-3010.31524006821
 20
2105.844358850487
 30
0.0
 42
0.4142135623730951
  0
VERTEX
  5
2AB
  8
OUTER_PROFILES
 10
-3013.31524006821
 20
2108.844358850487
 30
0.0
 42
0.4142135623730951
  0
VERTEX
  5
2AC
  8
OUTER_PROFILES
 10
-3016.31524006821
 20
2105.844358850487
 30
0.0
 42
0.4142135623730951
  0
VERTEX
  5
2AD
  8
OUTER_PROFILES
 10
-3013.31524006821
 20
2102.844358850487
 30
0.0
 42
0.4142135623730951
  0
SEQEND
  5
859
  8
OUTER_PROFILES
  0
POLYLINE
  5
BB
  8
OUTER_PROFILES
 66
     1
 10
0.0
 20
0.0
 30
0.0
 70
     1
  0
VERTEX
  5
2AE
  8
OUTER_PROFILES
 10
-3008.057152486727
 20
2086.794358850487
 30
0.0
 42
0.4142135623730951
  0
VERTEX
  5
2AF
  8
OUTER_PROFILES
 10
-3011.057152486727
 20
2089.794358850487
 30
0.0
 42
0.4142135623730951
  0
VERTEX
  5
2B0
  8
OUTER_PROFILES
 10
-3014.057152486727
 20
2086.794358850487
 30
0.0
 42
0.4142135623730951
  0
VERTEX
  5
2B1
  8
OUTER_PROFILES
 10
-3011.057152486727
 20
2083.794358850487
 30
0.0
 42
0.4142135623730951
  0
SEQEND
  5
85A
  8
OUTER_PROFILES
  0
POLYLINE
  5
BC
  8
OUTER_PROFILES
 66
     1
 10
0.0
 20
0.0
 30
0.0
 70
     1
  0
VERTEX
  5
2B2
  8
OUTER_PROFILES
 10
-2985.197152486727
 20
2086.794358850487
 30
0.0
 42
0.4142135623730951
  0
VERTEX
  5
2B3
  8
OUTER_PROFILES
 10
-2988.197152486727
 20
2089.794358850487
 30
0.0
 42
0.4142135623730951
  0
VERTEX
  5
2B4
  8
OUTER_PROFILES
 10
-2991.197152486727
 20
2086.794358850487
 30
0.0
 42
0.4142135623730951
  0
VERTEX
  5
2B5
  8
OUTER_PROFILES
 10
-2988.197152486727
 20
2083.794358850487
 30
0.0
 42
0.4142135623730951
  0
SEQEND
  5
85B
  8
OUTER_PROFILES
  0
POLYLINE
  5
BD
  8
OUTER_PROFILES
 66
     1
 10
0.0
 20
0.0
 30
0.0
 70
     1
  0
VERTEX
  5
2B6
  8
OUTER_PROFILES
 10
-2985.197152486727
 20
2233.194358850487
 30
0.0
 42
0.4142135623730951
  0
VERTEX
  5
2B7
  8
OUTER_PROFILES
 10
-2988.197152486727
 20
2236.194358850487
 30
0.0
 42
0.4142135623730951
  0
VERTEX
  5
2B8
  8
OUTER_PROFILES
 10
-2991.197152486727
 20
2233.194358850487
 30
0.0
 42
0.4142135623730951
  0
VERTEX
  5
2B9
  8
OUTER_PROFILES
 10
-2988.197152486727
 20
2230.194358850487
 30
0.0
 42
0.4142135623730951
  0
SEQEND
  5
85C
  8
OUTER_PROFILES
  0
POLYLINE
  5
BE
  8
OUTER_PROFILES
 66
     1
 10
0.0
 20
0.0
 30
0.0
 70
     1
  0
VERTEX
  5
2BA
  8
OUTER_PROFILES
 10
-2987.45524006821
 20
2214.144358850487
 30
0.0
 42
0.4142135623730951
  0
VERTEX
  5
2BB
  8
OUTER_PROFILES
 10
-2990.45524006821
 20
2217.144358850487
 30
0.0
 42
0.4142135623730951
  0
VERTEX
  5
2BC
  8
OUTER_PROFILES
 10
-2993.45524006821
 20
2214.144358850487
 30
0.0
 42
0.4142135623730951
  0
VERTEX
  5
2BD
  8
OUTER_PROFILES
 10
-2990.45524006821
 20
2211.144358850487
 30
0.0
 42
0.4142135623730951
  0
SEQEND
  5
85D
  8
OUTER_PROFILES
  0
POLYLINE
  5
BF
  8
OUTER_PROFILES
 66
     1
 10
0.0
 20
0.0
 30
0.0
 70
     1
  0
VERTEX
  5
2BE
  8
OUTER_PROFILES
 10
-3005.799064905244
 20
2252.244358850487
 30
0.0
 42
0.4142135623730951
  0
VERTEX
  5
2BF
  8
OUTER_PROFILES
 10
-3008.799064905244
 20
2255.244358850487
 30
0.0
 42
0.4142135623730951
  0
VERTEX
  5
2C0
  8
OUTER_PROFILES
 10
-3011.799064905244
 20
2252.244358850487
 30
0.0
 42
0.4142135623730951
  0
VERTEX
  5
2C1
  8
OUTER_PROFILES
 10
-3008.799064905244
 20
2249.244358850487
 30
0.0
 42
0.4142135623730951
  0
SEQEND
  5
85E
  8
OUTER_PROFILES
  0
POLYLINE
  5
C0
  8
OUTER_PROFILES
 66
     1
 10
0.0
 20
0.0
 30
0.0
 70
     1
  0
VERTEX
  5
2C2
  8
OUTER_PROFILES
 10
-3005.799064905244
 20
2067.744358850487
 30
0.0
 42
0.4142135623730951
  0
VERTEX
  5
2C3
  8
OUTER_PROFILES
 10
-3008.799064905244
 20
2070.744358850487
 30
0.0
 42
0.4142135623730951
  0
VERTEX
  5
2C4
  8
OUTER_PROFILES
 10
-3011.799064905244
 20
2067.744358850487
 30
0.0
 42
0.4142135623730951
  0
VERTEX
  5
2C5
  8
OUTER_PROFILES
 10
-3008.799064905244
 20
2064.744358850487
 30
0.0
 42
0.4142135623730951
  0
SEQEND
  5
85F
  8
OUTER_PROFILES
  0
POLYLINE
  5
C1
  8
OUTER_PROFILES
 66
     1
 10
0.0
 20
0.0
 30
0.0
 70
     1
  0
VERTEX
  5
2C6
  8
OUTER_PROFILES
 10
-2982.939064905244
 20
2252.244358850487
 30
0.0
 42
0.4142135623730951
  0
VERTEX
  5
2C7
  8
OUTER_PROFILES
 10
-2985.939064905244
 20
2255.244358850487
 30
0.0
 42
0.4142135623730951
  0
VERTEX
  5
2C8
  8
OUTER_PROFILES
 10
-2988.939064905244
 20
2252.244358850487
 30
0.0
 42
0.4142135623730951
  0
VERTEX
  5
2C9
  8
OUTER_PROFILES
 10
-2985.939064905244
 20
2249.244358850487
 30
0.0
 42
0.4142135623730951
  0
SEQEND
  5
860
  8
OUTER_PROFILES
  0
POLYLINE
  5
C2
  8
OUTER_PROFILES
 66
     1
 10
0.0
 20
0.0
 30
0.0
 70
     1
  0
VERTEX
  5
2CA
  8
OUTER_PROFILES
 10
-3010.31524006821
 20
2214.144358850487
 30
0.0
 42
0.4142135623730951
  0
VERTEX
  5
2CB
  8
OUTER_PROFILES
 10
-3013.31524006821
 20
2217.144358850487
 30
0.0
 42
0.4142135623730951
  0
VERTEX
  5
2CC
  8
OUTER_PROFILES
 10
-3016.31524006821
 20
2214.144358850487
 30
0.0
 42
0.4142135623730951
  0
VERTEX
  5
2CD
  8
OUTER_PROFILES
 10
-3013.31524006821
 20
2211.144358850487
 30
0.0
 42
0.4142135623730951
  0
SEQEND
  5
861
  8
OUTER_PROFILES
  0
POLYLINE
  5
C3
  8
OUTER_PROFILES
 66
     1
 10
0.0
 20
0.0
 30
0.0
 70
     1
  0
VERTEX
  5
2CE
  8
OUTER_PROFILES
 10
-3008.057152486727
 20
2233.194358850487
 30
0.0
 42
0.4142135623730951
  0
VERTEX
  5
2CF
  8
OUTER_PROFILES
 10
-3011.057152486727
 20
2236.194358850487
 30
0.0
 42
0.4142135623730951
  0
VERTEX
  5
2D0
  8
OUTER_PROFILES
 10
-3014.057152486727
 20
2233.194358850487
 30
0.0
 42
0.4142135623730951
  0
VERTEX
  5
2D1
  8
OUTER_PROFILES
 10
-3011.057152486727
 20
2230.194358850487
 30
0.0
 42
0.4142135623730951
  0
SEQEND
  5
862
  8
OUTER_PROFILES
  0
POLYLINE
  5
C4
  8
OUTER_PROFILES
 66
     1
 10
0.0
 20
0.0
 30
0.0
 70
     1
  0
VERTEX
  5
2D2
  8
OUTER_PROFILES
 10
-2982.939064905244
 20
2067.744358850487
 30
0.0
 42
0.4142135623730951
  0
VERTEX
  5
2D3
  8
OUTER_PROFILES
 10
-2985.939064905244
 20
2070.744358850487
 30
0.0
 42
0.4142135623730951
  0
VERTEX
  5
2D4
  8
OUTER_PROFILES
 10
-2988.939064905244
 20
2067.744358850487
 30
0.0
 42
0.4142135623730951
  0
VERTEX
  5
2D5
  8
OUTER_PROFILES
 10
-2985.939064905244
 20
2064.744358850487
 30
0.0
 42
0.4142135623730951
  0
SEQEND
  5
863
  8
OUTER_PROFILES
  0
POLYLINE
  5
C5
  8
OUTER_PROFILES
 66
     1
 10
0.0
 20
0.0
 30
0.0
 70
     1
  0
VERTEX
  5
2D6
  8
OUTER_PROFILES
 10
-2987.45524006821
 20
2105.844358850487
 30
0.0
 42
0.4142135623730951
  0
VERTEX
  5
2D7
  8
OUTER_PROFILES
 10
-2990.45524006821
 20
2108.844358850487
 30
0.0
 42
0.4142135623730951
  0
VERTEX
  5
2D8
  8
OUTER_PROFILES
 10
-2993.45524006821
 20
2105.844358850487
 30
0.0
 42
0.4142135623730951
  0
VERTEX
  5
2D9
  8
OUTER_PROFILES
 10
-2990.45524006821
 20
2102.844358850487
 30
0.0
 42
0.4142135623730951
  0
SEQEND
  5
864
  8
OUTER_PROFILES
  0
POLYLINE
  5
C6
  8
OUTER_PROFILES
 66
     1
 10
0.0
 20
0.0
 30
0.0
 70
     1
  0
VERTEX
  5
2DA
  8
OUTER_PROFILES
 10
-3367.675511113923
 20
2162.35846096547
 30
0.0
 42
0.4142135623730951
  0
VERTEX
  5
2DB
  8
OUTER_PROFILES
 10
-3370.666979688323
 20
2159.349953732908
 30
0.0
 42
0.4142135623730951
  0
VERTEX
  5
2DC
  8
OUTER_PROFILES
 10
-3367.658472455761
 20
2156.358485158508
 30
0.0
 42
0.4142135623730951
  0
VERTEX
  5
2DD
  8
OUTER_PROFILES
 10
-3364.667003881361
 20
2159.36699239107
 30
0.0
 42
0.4142135623730951
  0
SEQEND
  5
865
  8
OUTER_PROFILES
  0
POLYLINE
  5
C7
  8
OUTER_PROFILES
 66
     1
 10
0.0
 20
0.0
 30
0.0
 70
     1
  0
VERTEX
  5
2DE
  8
OUTER_PROFILES
 10
-3389.716352982041
 20
2183.411529381846
 30
0.0
 42
0.4142135623730951
  0
VERTEX
  5
2DF
  8
OUTER_PROFILES
 10
-3392.707821556441
 20
2180.403022149284
 30
0.0
 42
0.4142135623730951
  0
VERTEX
  5
2E0
  8
OUTER_PROFILES
 10
-3389.699314323879
 20
2177.411553574884
 30
0.0
 42
0.4142135623730951
  0
VERTEX
  5
2E1
  8
OUTER_PROFILES
 10
-3386.707845749479
 20
2180.420060807446
 30
0.0
 42
0.4142135623730951
  0
SEQEND
  5
866
  8
OUTER_PROFILES
  0
POLYLINE
  5
C8
  8
OUTER_PROFILES
 66
     1
 10
0.0
 20
0.0
 30
0.0
 70
     1
  0
VERTEX
  5
2E2
  8
OUTER_PROFILES
 10
-3388.728579530299
 20
2140.317619097352
 30
0.0
 42
0.4142135623730951
  0
VERTEX
  5
2E3
  8
OUTER_PROFILES
 10
-3391.720048104698
 20
2137.30911186479
 30
0.0
 42
0.4142135623730951
  0
VERTEX
  5
2E4
  8
OUTER_PROFILES
 10
-3388.711540872137
 20
2134.31764329039
 30
0.0
 42
0.4142135623730951
  0
VERTEX
  5
2E5
  8
OUTER_PROFILES
 10
-3385.720072297737
 20
2137.326150522952
 30
0.0
 42
0.4142135623730951
  0
SEQEND
  5
867
  8
OUTER_PROFILES
  0
POLYLINE
  5
C9
  8
OUTER_PROFILES
 66
     1
 10
0.0
 20
0.0
 30
0.0
 70
     1
  0
VERTEX
  5
2E6
  8
OUTER_PROFILES
 10
-3345.634669245805
 20
2141.305392549094
 30
0.0
 42
0.4142135623730951
  0
VERTEX
  5
2E7
  8
OUTER_PROFILES
 10
-3348.626137820204
 20
2138.296885316532
 30
0.0
 42
0.4142135623730951
  0
VERTEX
  5
2E8
  8
OUTER_PROFILES
 10
-3345.617630587642
 20
2135.305416742132
 30
0.0
 42
0.4142135623730951
  0
VERTEX
  5
2E9
  8
OUTER_PROFILES
 10
-3342.626162013243
 20
2138.313923974694
 30
0.0
 42
0.4142135623730951
  0
SEQEND
  5
868
  8
OUTER_PROFILES
  0
POLYLINE
  5
CA
  8
OUTER_PROFILES
 66
     1
 10
0.0
 20
0.0
 30
0.0
 70
     1
  0
VERTEX
  5
2EA
  8
OUTER_PROFILES
 10
-3346.622442697547
 20
2184.399302833588
 30
0.0
 42
0.4142135623730951
  0
VERTEX
  5
2EB
  8
OUTER_PROFILES
 10
-3349.613911271947
 20
2181.390795601026
 30
0.0
 42
0.4142135623730951
  0
VERTEX
  5
2EC
  8
OUTER_PROFILES
 10
-3346.605404039385
 20
2178.399327026626
 30
0.0
 42
0.4142135623730951
  0
VERTEX
  5
2ED
  8
OUTER_PROFILES
 10
-3343.613935464985
 20
2181.407834259189
 30
0.0
 42
0.4142135623730951
  0
SEQEND
  5
869
  8
OUTER_PROFILES
  0
POLYLINE
  5
CB
  8
OUTER_PROFILES
 66
     1
 10
0.0
 20
0.0
 30
0.0
 70
     1
  0
VERTEX
  5
2EE
  8
OUTER_PROFILES
 10
-3315.104295186994
 20
2216.091331460233
 30
0.0
 42
0.4142135623730951
  0
VERTEX
  5
2EF
  8
OUTER_PROFILES
 10
-3318.095763761394
 20
2213.082824227671
 30
0.0
 42
0.4142135623730951
  0
VERTEX
  5
2F0
  8
OUTER_PROFILES
 10
-3315.087256528831
 20
2210.091355653271
 30
0.0
 42
0.4142135623730951
  0
VERTEX
  5
2F1
  8
OUTER_PROFILES
 10
-3312.095787954432
 20
2213.099862885833
 30
0.0
 42
0.4142135623730951
  0
SEQEND
  5
86A
  8
OUTER_PROFILES
  0
POLYLINE
  5
CC
  8
OUTER_PROFILES
 66
     1
 10
0.0
 20
0.0
 30
0.0
 70
     1
  0
VERTEX
  5
2F2
  8
OUTER_PROFILES
 10
-3272.005434009832
 20
2215.350409580568
 30
0.0
 42
0.4142135623730951
  0
VERTEX
  5
2F3
  8
OUTER_PROFILES
 10
-3274.996902584232
 20
2212.341902348006
 30
0.0
 42
0.4142135623730951
  0
VERTEX
  5
2F4
  8
OUTER_PROFILES
 10
-3271.98839535167
 20
2209.350433773606
 30
0.0
 42
0.4142135623730951
  0
VERTEX
  5
2F5
  8
OUTER_PROFILES
 10
-3268.99692677727
 20
2212.358941006169
 30
0.0
 42
0.4142135623730951
  0
SEQEND
  5
86B
  8
OUTER_PROFILES
  0
POLYLINE
  5
CD
  8
OUTER_PROFILES
 66
     1
 10
0.0
 20
0.0
 30
0.0
 70
     1
  0
VERTEX
  5
2F6
  8
OUTER_PROFILES
 10
-3271.264512130168
 20
2258.44927075773
 30
0.0
 42
0.4142135623730951
  0
VERTEX
  5
2F7
  8
OUTER_PROFILES
 10
-3274.255980704567
 20
2255.440763525168
 30
0.0
 42
0.4142135623730951
  0
VERTEX
  5
2F8
  8
OUTER_PROFILES
 10
-3271.247473472005
 20
2252.449294950768
 30
0.0
 42
0.4142135623730951
  0
VERTEX
  5
2F9
  8
OUTER_PROFILES
 10
-3268.256004897605
 20
2255.45780218333
 30
0.0
 42
0.4142135623730951
  0
SEQEND
  5
86C
  8
OUTER_PROFILES
  0
POLYLINE
  5
CE
  8
OUTER_PROFILES
 66
     1
 10
0.0
 20
0.0
 30
0.0
 70
     1
  0
VERTEX
  5
2FA
  8
OUTER_PROFILES
 10
-3214.87612722996
 20
2162.792378793337
 30
0.0
 42
0.4142135623730951
  0
VERTEX
  5
2FB
  8
OUTER_PROFILES
 10
-3217.86759580436
 20
2159.783871560775
 30
0.0
 42
0.4142135623730951
  0
VERTEX
  5
2FC
  8
OUTER_PROFILES
 10
-3214.859088571798
 20
2156.792402986375
 30
0.0
 42
0.4142135623730951
  0
VERTEX
  5
2FD
  8
OUTER_PROFILES
 10
-3211.867619997398
 20
2159.800910218937
 30
0.0
 42
0.4142135623730951
  0
SEQEND
  5
86D
  8
OUTER_PROFILES
  0
POLYLINE
  5
CF
  8
OUTER_PROFILES
 66
     1
 10
0.0
 20
0.0
 30
0.0
 70
     1
  0
VERTEX
  5
2FE
  8
OUTER_PROFILES
 10
-3193.823058813584
 20
2184.833220661455
 30
0.0
 42
0.4142135623730951
  0
VERTEX
  5
2FF
  8
OUTER_PROFILES
 10
-3196.814527387984
 20
2181.824713428894
 30
0.0
 42
0.4142135623730951
  0
VERTEX
  5
300
  8
OUTER_PROFILES
 10
-3193.806020155422
 20
2178.833244854494
 30
0.0
 42
0.4142135623730951
  0
VERTEX
  5
301
  8
OUTER_PROFILES
 10
-3190.814551581022
 20
2181.841752087056
 30
0.0
 42
0.4142135623730951
  0
SEQEND
  5
86E
  8
OUTER_PROFILES
  0
POLYLINE
  5
D0
  8
OUTER_PROFILES
 66
     1
 10
0.0
 20
0.0
 30
0.0
 70
     1
  0
VERTEX
  5
302
  8
OUTER_PROFILES
 10
-3192.835285361842
 20
2141.739310376961
 30
0.0
 42
0.4142135623730951
  0
VERTEX
  5
303
  8
OUTER_PROFILES
 10
-3195.826753936242
 20
2138.730803144399
 30
0.0
 42
0.4142135623730951
  0
VERTEX
  5
304
  8
OUTER_PROFILES
 10
-3192.81824670368
 20
2135.73933457
 30
0.0
 42
0.4142135623730951
  0
VERTEX
  5
305
  8
OUTER_PROFILES
 10
-3189.82677812928
 20
2138.747841802562
 30
0.0
 42
0.4142135623730951
  0
SEQEND
  5
86F
  8
OUTER_PROFILES
  0
POLYLINE
  5
D1
  8
OUTER_PROFILES
 66
     1
 10
0.0
 20
0.0
 30
0.0
 70
     1
  0
VERTEX
  5
306
  8
OUTER_PROFILES
 10
-3314.363373307329
 20
2259.190192637394
 30
0.0
 42
0.4142135623730951
  0
VERTEX
  5
307
  8
OUTER_PROFILES
 10
-3317.354841881729
 20
2256.181685404832
 30
0.0
 42
0.4142135623730951
  0
VERTEX
  5
308
  8
OUTER_PROFILES
 10
-3314.346334649167
 20
2253.190216830433
 30
0.0
 42
0.4142135623730951
  0
VERTEX
  5
309
  8
OUTER_PROFILES
 10
-3311.354866074767
 20
2256.198724062995
 30
0.0
 42
0.4142135623730951
  0
SEQEND
  5
870
  8
OUTER_PROFILES
  0
POLYLINE
  5
D2
  8
OUTER_PROFILES
 66
     1
 10
0.0
 20
0.0
 30
0.0
 70
     1
  0
VERTEX
  5
30A
  8
OUTER_PROFILES
 10
-3235.929195646336
 20
2140.751536925219
 30
0.0
 42
0.4142135623730951
  0
VERTEX
  5
30B
  8
OUTER_PROFILES
 10
-3238.920664220735
 20
2137.743029692657
 30
0.0
 42
0.4142135623730951
  0
VERTEX
  5
30C
  8
OUTER_PROFILES
 10
-3235.912156988174
 20
2134.751561118258
 30
0.0
 42
0.4142135623730951
  0
VERTEX
  5
30D
  8
OUTER_PROFILES
 10
-3232.920688413773
 20
2137.760068350819
 30
0.0
 42
0.4142135623730951
  0
SEQEND
  5
871
  8
OUTER_PROFILES
  0
POLYLINE
  5
D3
  8
OUTER_PROFILES
 66
     1
 10
0.0
 20
0.0
 30
0.0
 70
     1
  0
VERTEX
  5
30E
  8
OUTER_PROFILES
 10
-3236.916969098078
 20
2183.845447209713
 30
0.0
 42
0.4142135623730951
  0
VERTEX
  5
30F
  8
OUTER_PROFILES
 10
-3239.908437672478
 20
2180.836939977151
 30
0.0
 42
0.4142135623730951
  0
VERTEX
  5
310
  8
OUTER_PROFILES
 10
-3236.899930439916
 20
2177.845471402752
 30
0.0
 42
0.4142135623730951
  0
VERTEX
  5
311
  8
OUTER_PROFILES
 10
-3233.908461865516
 20
2180.853978635314
 30
0.0
 42
0.4142135623730951
  0
SEQEND
  5
872
  8
OUTER_PROFILES
  0
POLYLINE
  5
D4
  8
OUTER_PROFILES
 66
     1
 10
0.0
 20
0.0
 30
0.0
 70
     1
  0
VERTEX
  5
312
  8
OUTER_PROFILES
 10
-3270.72031649072
 20
2066.816770132856
 30
0.0
 42
0.4142135623730951
  0
VERTEX
  5
313
  8
OUTER_PROFILES
 10
-3273.71178506512
 20
2063.808262900294
 30
0.0
 42
0.4142135623730951
  0
VERTEX
  5
314
  8
OUTER_PROFILES
 10
-3270.703277832558
 20
2060.816794325894
 30
0.0
 42
0.4142135623730951
  0
VERTEX
  5
315
  8
OUTER_PROFILES
 10
-3267.711809258158
 20
2063.825301558456
 30
0.0
 42
0.4142135623730951
  0
SEQEND
  5
873
  8
OUTER_PROFILES
  0
POLYLINE
  5
D5
  8
OUTER_PROFILES
 66
     1
 10
0.0
 20
0.0
 30
0.0
 70
     1
  0
VERTEX
  5
316
  8
OUTER_PROFILES
 10
-3293.18440365858
 20
2237.270301108982
 30
0.0
 42
0.4142135623730951
  0
VERTEX
  5
317
  8
OUTER_PROFILES
 10
-3296.17587223298
 20
2234.261793876419
 30
0.0
 42
0.4142135623730951
  0
VERTEX
  5
318
  8
OUTER_PROFILES
 10
-3293.167365000418
 20
2231.27032530202
 30
0.0
 42
0.4142135623730951
  0
VERTEX
  5
319
  8
OUTER_PROFILES
 10
-3290.175896426018
 20
2234.278832534581
 30
0.0
 42
0.4142135623730951
  0
SEQEND
  5
874
  8
OUTER_PROFILES
  0
POLYLINE
  5
D6
  8
OUTER_PROFILES
 66
     1
 10
0.0
 20
0.0
 30
0.0
 70
     1
  0
VERTEX
  5
31A
  8
OUTER_PROFILES
 10
-3292.760141070339
 20
2087.87090351563
 30
0.0
 42
0.4142135623730951
  0
VERTEX
  5
31B
  8
OUTER_PROFILES
 10
-3295.751609644738
 20
2084.862396283068
 30
0.0
 42
0.4142135623730951
  0
VERTEX
  5
31C
  8
OUTER_PROFILES
 10
-3292.743102412176
 20
2081.870927708668
 30
0.0
 42
0.4142135623730951
  0
VERTEX
  5
31D
  8
OUTER_PROFILES
 10
-3289.751633837776
 20
2084.879434941231
 30
0.0
 42
0.4142135623730951
  0
SEQEND
  5
875
  8
OUTER_PROFILES
  0
POLYLINE
  5
D7
  8
OUTER_PROFILES
 66
     1
 10
0.0
 20
0.0
 30
0.0
 70
     1
  0
VERTEX
  5
31E
  8
OUTER_PROFILES
 10
-3313.814274453113
 20
2065.831078936012
 30
0.0
 42
0.4142135623730951
  0
VERTEX
  5
31F
  8
OUTER_PROFILES
 10
-3316.805743027513
 20
2062.82257170345
 30
0.0
 42
0.4142135623730951
  0
VERTEX
  5
320
  8
OUTER_PROFILES
 10
-3313.79723579495
 20
2059.83110312905
 30
0.0
 42
0.4142135623730951
  0
VERTEX
  5
321
  8
OUTER_PROFILES
 10
-3310.805767220551
 20
2062.839610361612
 30
0.0
 42
0.4142135623730951
  0
SEQEND
  5
876
  8
OUTER_PROFILES
  0
POLYLINE
  5
D8
  8
OUTER_PROFILES
 66
     1
 10
0.0
 20
0.0
 30
0.0
 70
     1
  0
VERTEX
  5
322
  8
OUTER_PROFILES
 10
-3271.706007687565
 20
2109.910728095248
 30
0.0
 42
0.4142135623730951
  0
VERTEX
  5
323
  8
OUTER_PROFILES
 10
-3274.697476261964
 20
2106.902220862687
 30
0.0
 42
0.4142135623730951
  0
VERTEX
  5
324
  8
OUTER_PROFILES
 10
-3271.688969029402
 20
2103.910752288287
 30
0.0
 42
0.4142135623730951
  0
VERTEX
  5
325
  8
OUTER_PROFILES
 10
-3268.697500455002
 20
2106.919259520849
 30
0.0
 42
0.4142135623730951
  0
SEQEND
  5
877
  8
OUTER_PROFILES
  0
POLYLINE
  5
D9
  8
OUTER_PROFILES
 66
     1
 10
0.0
 20
0.0
 30
0.0
 70
     1
  0
VERTEX
  5
326
  8
OUTER_PROFILES
 10
-3314.799965649957
 20
2108.925036898404
 30
0.0
 42
0.4142135623730951
  0
VERTEX
  5
327
  8
OUTER_PROFILES
 10
-3317.791434224358
 20
2105.916529665842
 30
0.0
 42
0.4142135623730951
  0
VERTEX
  5
328
  8
OUTER_PROFILES
 10
-3314.782926991795
 20
2102.925061091442
 30
0.0
 42
0.4142135623730951
  0
VERTEX
  5
329
  8
OUTER_PROFILES
 10
-3311.791458417395
 20
2105.933568324005
 30
0.0
 42
0.4142135623730951
  0
SEQEND
  5
878
  8
OUTER_PROFILES
  0
POLYLINE
  5
DA
  8
OUTER_PROFILES
 66
     1
 10
0.0
 20
0.0
 30
0.0
 70
     1
  0
VERTEX
  5
32A
  8
OUTER_PROFILES
 10
-3131.827111676064
 20
2120.98104501361
 30
0.0
  0
VERTEX
  5
32B
  8
OUTER_PROFILES
 10
-3133.455732853839
 20
2121.915173398177
 30
0.0
  0
VERTEX
  5
32C
  8
OUTER_PROFILES
 10
-3133.663648275584
 20
2195.130299171954
 30
0.0
  0
VERTEX
  5
32D
  8
OUTER_PROFILES
 10
-3132.040358775882
 20
2196.073662292373
 30
0.0
  0
VERTEX
  5
32E
  8
OUTER_PROFILES
 10
-3126.381626134126
 20
2196.089731892288
 30
0.0
 42
0.4142135623733338
  0
VERTEX
  5
32F
  8
OUTER_PROFILES
 10
-3125.633759010097
 20
2196.841865592293
 30
0.0
 42
0.4154699725099018
  0
VERTEX
  5
330
  8
OUTER_PROFILES
 10
-3126.389101591333
 20
2197.58971671186
 30
0.0
  0
VERTEX
  5
331
  8
OUTER_PROFILES
 10
-3132.044618440488
 20
2197.573656243894
 30
0.0
  0
VERTEX
  5
332
  8
OUTER_PROFILES
 10
-3133.673239617614
 20
2198.507784628016
 30
0.0
  0
VERTEX
  5
333
  8
OUTER_PROFILES
 10
-3135.382838619157
 20
2203.132118923773
 30
0.0
  0
VERTEX
  5
334
  8
OUTER_PROFILES
 10
-3137.075803032813
 20
2201.898766343271
 30
0.0
  0
VERTEX
  5
335
  8
OUTER_PROFILES
 10
-3178.617366200261
 20
2243.205059179078
 30
0.0
 42
-0.2000741888089895
  0
VERTEX
  5
336
  8
OUTER_PROFILES
 10
-3179.526499250949
 20
2245.368779357937
 30
0.0
  0
VERTEX
  5
337
  8
OUTER_PROFILES
 10
-3179.582613606237
 20
2265.128831525503
 30
0.0
 42
-0.4155240124839345
  0
VERTEX
  5
338
  8
OUTER_PROFILES
 10
-3176.541356456137
 20
2268.201120208532
 30
0.0
  0
VERTEX
  5
339
  8
OUTER_PROFILES
 10
-3137.256693929524
 20
2268.31268031433
 30
0.0
  0
VERTEX
  5
33A
  8
OUTER_PROFILES
 10
-3135.559644855746
 20
2265.392487779451
 30
0.0
  0
VERTEX
  5
33B
  8
OUTER_PROFILES
 10
-3133.87920847353
 20
2268.32227165636
 30
0.0
  0
VERTEX
  5
33C
  8
OUTER_PROFILES
 10
-3091.215309948334
 20
2268.443428075358
 30
0.0
 42
-0.4155240254685145
  0
VERTEX
  5
33D
  8
OUTER_PROFILES
 10
-3088.143021128747
 20
2265.402170925644
 30
0.0
  0
VERTEX
  5
33E
  8
OUTER_PROFILES
 10
-3088.020511999127
 20
2222.261930253779
 30
0.0
 42
0.2226926200584512
  0
VERTEX
  5
33F
  8
OUTER_PROFILES
 10
-3086.92437276737
 20
2219.916995791729
 30
0.0
  0
VERTEX
  5
340
  8
OUTER_PROFILES
 10
-3061.517077138968
 20
2198.720403345412
 30
0.0
  0
VERTEX
  5
341
  8
OUTER_PROFILES
 10
-3062.018306315412
 20
2197.772516111569
 30
0.0
  0
VERTEX
  5
342
  8
OUTER_PROFILES
 10
-3066.667606286464
 20
2197.759313086275
 30
0.0
 42
0.4142135623733338
  0
VERTEX
  5
343
  8
OUTER_PROFILES
 10
-3067.415473408765
 20
2197.007178778165
 30
0.0
 42
0.4155238393973699
  0
VERTEX
  5
344
  8
OUTER_PROFILES
 10
-3066.659993032695
 20
2196.259328658017
 30
0.0
  0
VERTEX
  5
345
  8
OUTER_PROFILES
 10
-3060.226423469688
 20
2196.277598630433
 30
0.0
  0
VERTEX
  5
346
  8
OUTER_PROFILES
 10
-3057.463933631082
 20
2195.33897966617
 30
0.0
  0
VERTEX
  5
347
  8
OUTER_PROFILES
 10
-3057.256062001492
 20
2122.139274821234
 30
0.0
  0
VERTEX
  5
348
  8
OUTER_PROFILES
 10
-3060.013176370944
 20
2121.184981352125
 30
0.0
  0
VERTEX
  5
349
  8
OUTER_PROFILES
 10
-3066.450099522534
 20
2121.166701856304
 30
0.0
 42
0.4142135623733338
  0
VERTEX
  5
34A
  8
OUTER_PROFILES
 10
-3067.197966644836
 20
2120.414567548194
 30
0.0
 42
0.4155238393973699
  0
VERTEX
  5
34B
  8
OUTER_PROFILES
 10
-3066.442486268765
 20
2119.666717428045
 30
0.0
  0
VERTEX
  5
34C
  8
OUTER_PROFILES
 10
-3061.796539886942
 20
2119.679910930018
 30
0.0
  0
VERTEX
  5
34D
  8
OUTER_PROFILES
 10
-3061.289935241012
 20
2118.734885730405
 30
0.0
  0
VERTEX
  5
34E
  8
OUTER_PROFILES
 10
-3086.584385031212
 20
2097.387623728983
 30
0.0
 42
0.2207963935385392
  0
VERTEX
  5
34F
  8
OUTER_PROFILES
 10
-3087.659270898894
 20
2095.054855539979
 30
0.0
  0
VERTEX
  5
350
  8
OUTER_PROFILES
 10
-3087.536756704868
 20
2051.912831493267
 30
0.0
 42
-0.4151578826712485
  0
VERTEX
  5
351
  8
OUTER_PROFILES
 10
-3090.578039331733
 20
2048.844352319921
 30
0.0
  0
VERTEX
  5
352
  8
OUTER_PROFILES
 10
-3133.253665968812
 20
2048.723162595575
 30
0.0
  0
VERTEX
  5
353
  8
OUTER_PROFILES
 10
-3134.952642658714
 20
2051.643349656433
 30
0.0
  0
VERTEX
  5
354
  8
OUTER_PROFILES
 10
-3136.633079040927
 20
2048.713565779524
 30
0.0
  0
VERTEX
  5
355
  8
OUTER_PROFILES
 10
-3175.904573541609
 20
2048.602043068126
 30
0.0
 42
-0.4154757388226791
  0
VERTEX
  5
356
  8
OUTER_PROFILES
 10
-3178.97636000694
 20
2051.64330385002
 30
0.0
  0
VERTEX
  5
357
  8
OUTER_PROFILES
 10
-3179.032475038866
 20
2071.403594288258
 30
0.0
 42
-0.2000508162959088
  0
VERTEX
  5
358
  8
OUTER_PROFILES
 10
-3178.145345981974
 20
2073.576155477327
 30
0.0
  0
VERTEX
  5
359
  8
OUTER_PROFILES
 10
-3136.829390866529
 20
2115.127435958341
 30
0.0
  0
VERTEX
  5
35A
  8
OUTER_PROFILES
 10
-3135.12944889529
 20
2113.903718511676
 30
0.0
  0
VERTEX
  5
35B
  8
OUTER_PROFILES
 10
-3133.446136037789
 20
2118.535760326067
 30
0.0
  0
VERTEX
  5
35C
  8
OUTER_PROFILES
 10
-3131.821370921387
 20
2119.481055268426
 30
0.0
  0
VERTEX
  5
35D
  8
OUTER_PROFILES
 10
-3126.273836281395
 20
2119.49680908957
 30
0.0
 42
0.4142135623733338
  0
VERTEX
  5
35E
  8
OUTER_PROFILES
 10
-3125.525969157366
 20
2120.248942789574
 30
0.0
 42
0.4154699725099018
  0
VERTEX
  5
35F
  8
OUTER_PROFILES
 10
-3126.281311738602
 20
2120.996793909141
 30
0.0
  0
SEQEND
  5
879
  8
OUTER_PROFILES
  0
POLYLINE
  5
DB
  8
OUTER_PROFILES
 66
     1
 10
0.0
 20
0.0
 30
0.0
 70
     1
  0
VERTEX
  5
360
  8
OUTER_PROFILES
 10
-3109.063359645539
 20
2121.045689239624
 30
0.0
  0
VERTEX
  5
361
  8
OUTER_PROFILES
 10
-3117.559971782839
 20
2121.021560664043
 30
0.0
 42
0.4142135623733338
  0
VERTEX
  5
362
  8
OUTER_PROFILES
 10
-3118.307838906868
 20
2120.269426964038
 30
0.0
 42
0.4154699725099018
  0
VERTEX
  5
363
  8
OUTER_PROFILES
 10
-3117.552496325633
 20
2119.521575844471
 30
0.0
  0
VERTEX
  5
364
  8
OUTER_PROFILES
 10
-3109.055746391769
 20
2119.545704811365
 30
0.0
 42
0.4142135623733338
  0
VERTEX
  5
365
  8
OUTER_PROFILES
 10
-3108.307879269468
 20
2120.297839119475
 30
0.0
 42
0.4155238393973699
  0
SEQEND
  5
87A
  8
OUTER_PROFILES
  0
POLYLINE
  5
DC
  8
OUTER_PROFILES
 66
     1
 10
0.0
 20
0.0
 30
0.0
 70
     1
  0
VERTEX
  5
366
  8
OUTER_PROFILES
 10
-3092.043858637262
 20
2121.094021011135
 30
0.0
  0
VERTEX
  5
367
  8
OUTER_PROFILES
 10
-3100.540470774563
 20
2121.069892435553
 30
0.0
 42
0.4142135623733338
  0
VERTEX
  5
368
  8
OUTER_PROFILES
 10
-3101.288337898592
 20
2120.317758735549
 30
0.0
 42
0.4154699725099018
  0
VERTEX
  5
369
  8
OUTER_PROFILES
 10
-3100.532995317356
 20
2119.569907615982
 30
0.0
  0
VERTEX
  5
36A
  8
OUTER_PROFILES
 10
-3092.036245383493
 20
2119.594036582876
 30
0.0
 42
0.4142135623733338
  0
VERTEX
  5
36B
  8
OUTER_PROFILES
 10
-3091.288378261192
 20
2120.346170890986
 30
0.0
 42
0.4155238393973699
  0
SEQEND
  5
87B
  8
OUTER_PROFILES
  0
POLYLINE
  5
DD
  8
OUTER_PROFILES
 66
     1
 10
0.0
 20
0.0
 30
0.0
 70
     1
  0
VERTEX
  5
36C
  8
OUTER_PROFILES
 10
-3075.171577274859
 20
2121.14193471009
 30
0.0
  0
VERTEX
  5
36D
  8
OUTER_PROFILES
 10
-3083.66818941216
 20
2121.117806134509
 30
0.0
 42
0.4142135623733338
  0
VERTEX
  5
36E
  8
OUTER_PROFILES
 10
-3084.416056536189
 20
2120.365672434504
 30
0.0
 42
0.4154699725099018
  0
VERTEX
  5
36F
  8
OUTER_PROFILES
 10
-3083.660713954953
 20
2119.617821314937
 30
0.0
  0
VERTEX
  5
370
  8
OUTER_PROFILES
 10
-3075.16396402109
 20
2119.641950281831
 30
0.0
 42
0.4142135623733338
  0
VERTEX
  5
371
  8
OUTER_PROFILES
 10
-3074.416096898789
 20
2120.394084589941
 30
0.0
 42
0.4155238393973699
  0
SEQEND
  5
87C
  8
OUTER_PROFILES
  0
POLYLINE
  5
DE
  8
OUTER_PROFILES
 66
     1
 10
0.0
 20
0.0
 30
0.0
 70
     1
  0
VERTEX
  5
372
  8
OUTER_PROFILES
 10
-3092.261365401115
 20
2197.686632241107
 30
0.0
  0
VERTEX
  5
373
  8
OUTER_PROFILES
 10
-3100.757977538416
 20
2197.662503665525
 30
0.0
 42
0.4142135623733338
  0
VERTEX
  5
374
  8
OUTER_PROFILES
 10
-3101.505844662445
 20
2196.91036996552
 30
0.0
 42
0.4154699725099018
  0
VERTEX
  5
375
  8
OUTER_PROFILES
 10
-3100.750502081209
 20
2196.162518845953
 30
0.0
  0
VERTEX
  5
376
  8
OUTER_PROFILES
 10
-3092.253752147346
 20
2196.186647812848
 30
0.0
 42
0.4142135623733338
  0
VERTEX
  5
377
  8
OUTER_PROFILES
 10
-3091.505885025044
 20
2196.938782120958
 30
0.0
 42
0.4155238393973699
  0
SEQEND
  5
87D
  8
OUTER_PROFILES
  0
POLYLINE
  5
DF
  8
OUTER_PROFILES
 66
     1
 10
0.0
 20
0.0
 30
0.0
 70
     1
  0
VERTEX
  5
378
  8
OUTER_PROFILES
 10
-3075.389084038636
 20
2197.734545940062
 30
0.0
  0
VERTEX
  5
379
  8
OUTER_PROFILES
 10
-3083.885696175937
 20
2197.71041736448
 30
0.0
 42
0.4142135623733338
  0
VERTEX
  5
37A
  8
OUTER_PROFILES
 10
-3084.633563299965
 20
2196.958283664475
 30
0.0
 42
0.4154699725099018
  0
VERTEX
  5
37B
  8
OUTER_PROFILES
 10
-3083.87822071873
 20
2196.210432544909
 30
0.0
  0
VERTEX
  5
37C
  8
OUTER_PROFILES
 10
-3075.381470784866
 20
2196.234561511803
 30
0.0
 42
0.4142135623733338
  0
VERTEX
  5
37D
  8
OUTER_PROFILES
 10
-3074.633603662564
 20
2196.986695819913
 30
0.0
 42
0.4155238393973699
  0
SEQEND
  5
87E
  8
OUTER_PROFILES
  0
POLYLINE
  5
E0
  8
OUTER_PROFILES
 66
     1
 10
0.0
 20
0.0
 30
0.0
 70
     1
  0
VERTEX
  5
37E
  8
OUTER_PROFILES
 10
-3109.280866409315
 20
2197.638300469596
 30
0.0
  0
VERTEX
  5
37F
  8
OUTER_PROFILES
 10
-3117.777478546615
 20
2197.614171894014
 30
0.0
 42
0.4142135623733338
  0
VERTEX
  5
380
  8
OUTER_PROFILES
 10
-3118.525345670644
 20
2196.86203819401
 30
0.0
 42
0.4154699725099018
  0
VERTEX
  5
381
  8
OUTER_PROFILES
 10
-3117.770003089409
 20
2196.114187074443
 30
0.0
  0
VERTEX
  5
382
  8
OUTER_PROFILES
 10
-3109.273253155545
 20
2196.138316041337
 30
0.0
 42
0.4142135623733338
  0
VERTEX
  5
383
  8
OUTER_PROFILES
 10
-3108.525386033244
 20
2196.890450349447
 30
0.0
 42
0.4155238393973699
  0
SEQEND
  5
87F
  8
OUTER_PROFILES
  0
POLYLINE
  5
E1
  8
OUTER_PROFILES
 66
     1
 10
0.0
 20
0.0
 30
0.0
 70
     1
  0
VERTEX
  5
384
  8
OUTER_PROFILES
 10
-3012.811709439284
 20
1914.361671017823
 30
0.0
  0
VERTEX
  5
385
  8
OUTER_PROFILES
 10
-3012.819307073302
 20
1914.372860953933
 30
0.0
  0
VERTEX
  5
386
  8
OUTER_PROFILES
 10
-2970.69513726521
 20
1914.37561122505
 30
0.0
 42
-0.468991294771589
  0
VERTEX
  5
387
  8
OUTER_PROFILES
 10
-2967.745185577446
 20
1910.828856614454
 30
0.0
  0
VERTEX
  5
388
  8
OUTER_PROFILES
 10
-2975.463206494829
 20
1868.466788362136
 30
0.0
 42
0.2702336494228116
  0
VERTEX
  5
389
  8
OUTER_PROFILES
 10
-2974.433622546021
 20
1865.625466733245
 30
0.0
  0
VERTEX
  5
38A
  8
OUTER_PROFILES
 10
-2949.339223899606
 20
1844.568766084422
 30
0.0
  0
VERTEX
  5
38B
  8
OUTER_PROFILES
 10
-2950.242461560659
 20
1842.872306051484
 30
0.0
  0
VERTEX
  5
38C
  8
OUTER_PROFILES
 10
-2945.295699221712
 20
1841.175846018545
 30
0.0
  0
VERTEX
  5
38D
  8
OUTER_PROFILES
 10
-2945.295699221712
 20
1767.975846018545
 30
0.0
  0
VERTEX
  5
38E
  8
OUTER_PROFILES
 10
-2950.242461560659
 20
1766.279385985607
 30
0.0
  0
VERTEX
  5
38F
  8
OUTER_PROFILES
 10
-2948.509702484188
 20
1765.278977066399
 30
0.0
  0
VERTEX
  5
390
  8
OUTER_PROFILES
 10
-2974.440167871153
 20
1743.520733123942
 30
0.0
 42
0.268525111258053
  0
VERTEX
  5
391
  8
OUTER_PROFILES
 10
-2975.465101944425
 20
1740.695307270126
 30
0.0
  0
VERTEX
  5
392
  8
OUTER_PROFILES
 10
-2967.743495702547
 20
1698.313560169745
 30
0.0
 42
-0.4688057359917324
  0
VERTEX
  5
393
  8
OUTER_PROFILES
 10
-2970.702463857196
 20
1694.775846018546
 30
0.0
  0
VERTEX
  5
394
  8
OUTER_PROFILES
 10
-3012.818953239321
 20
1694.775846018546
 30
0.0
  0
VERTEX
  5
395
  8
OUTER_PROFILES
 10
-3012.843944967486
 20
1694.772883629516
 30
0.0
  0
VERTEX
  5
396
  8
OUTER_PROFILES
 10
-3014.850957979201
 20
1697.455713294933
 30
0.0
  0
VERTEX
  5
397
  8
OUTER_PROFILES
 10
-3016.169786537309
 20
1694.378655726834
 30
0.0
  0
VERTEX
  5
398
  8
OUTER_PROFILES
 10
-3055.241960709979
 20
1689.747244111007
 30
0.0
 42
-0.4142139551311372
  0
VERTEX
  5
399
  8
OUTER_PROFILES
 10
-3058.574237122994
 20
1692.373259732537
 30
0.0
  0
VERTEX
  5
39A
  8
OUTER_PROFILES
 10
-3060.967670111894
 20
1712.565079931372
 30
0.0
 42
-0.2000599556167072
  0
VERTEX
  5
39B
  8
OUTER_PROFILES
 10
-3060.336580833419
 20
1714.785466768796
 30
0.0
  0
VERTEX
  5
39C
  8
OUTER_PROFILES
 10
-3024.06346936454
 20
1760.814210652634
 30
0.0
  0
VERTEX
  5
39D
  8
OUTER_PROFILES
 10
-3022.23487306473
 20
1759.799657905322
 30
0.0
  0
VERTEX
  5
39E
  8
OUTER_PROFILES
 10
-3019.999542357799
 20
1764.590636448227
 30
0.0
  0
VERTEX
  5
39F
  8
OUTER_PROFILES
 10
-3017.0745423578
 20
1766.279385985607
 30
0.0
  0
VERTEX
  5
3A0
  8
OUTER_PROFILES
 10
-3019.999542357799
 20
1767.968135522987
 30
0.0
  0
VERTEX
  5
3A1
  8
OUTER_PROFILES
 10
-3019.997620789756
 20
1767.975846018545
 30
0.0
  0
VERTEX
  5
3A2
  8
OUTER_PROFILES
 10
-3019.995699221713
 20
1767.975846018545
 30
0.0
  0
VERTEX
  5
3A3
  8
OUTER_PROFILES
 10
-3019.995931892537
 20
1841.179701266325
 30
0.0
  0
VERTEX
  5
3A4
  8
OUTER_PROFILES
 10
-3017.071164563362
 20
1842.872306051484
 30
0.0
  0
VERTEX
  5
3A5
  8
OUTER_PROFILES
 10
-3019.996842997049
 20
1844.564910836643
 30
0.0
  0
VERTEX
  5
3A6
  8
OUTER_PROFILES
 10
-3019.996164563362
 20
1844.564910836643
 30
0.0
  0
VERTEX
  5
3A7
  8
OUTER_PROFILES
 10
-3022.245938724232
 20
1849.343097478678
 30
0.0
  0
VERTEX
  5
3A8
  8
OUTER_PROFILES
 10
-3024.063469364522
 20
1848.337481384433
 30
0.0
  0
VERTEX
  5
3A9
  8
OUTER_PROFILES
 10
-3060.344821559491
 20
1894.376682332892
 30
0.0
 42
-0.1977744218184894
  0
VERTEX
  5
3AA
  8
OUTER_PROFILES
 10
-3060.969208393553
 20
1896.573634634937
 30
0.0
  0
VERTEX
  5
3AB
  8
OUTER_PROFILES
 10
-3058.574234788149
 20
1916.778452002113
 30
0.0
 42
-0.4132628940835419
  0
VERTEX
  5
3AC
  8
OUTER_PROFILES
 10
-3055.251633599375
 20
1919.405594499914
 30
0.0
  0
VERTEX
  5
3AD
  8
OUTER_PROFILES
 10
-3016.148494034164
 20
1914.770512408086
 30
0.0
  0
VERTEX
  5
3AE
  8
OUTER_PROFILES
 10
-3014.813693414376
 20
1911.685563804214
 30
0.0
  0
SEQEND
  5
880
  8
OUTER_PROFILES
  0
POLYLINE
  5
E2
  8
OUTER_PROFILES
 66
     1
 10
0.0
 20
0.0
 30
0.0
 70
     1
  0
VERTEX
  5
3AF
  8
OUTER_PROFILES
 10
-3477.4603537066
 20
1894.634218468624
 30
0.0
 42
0.4142135623730951
  0
VERTEX
  5
3B0
  8
OUTER_PROFILES
 10
-3480.468860939162
 20
1897.625687043024
 30
0.0
 42
0.4142135623730951
  0
VERTEX
  5
3B1
  8
OUTER_PROFILES
 10
-3483.460329513562
 20
1894.617179810461
 30
0.0
 42
0.4142135623730951
  0
VERTEX
  5
3B2
  8
OUTER_PROFILES
 10
-3480.451822281
 20
1891.625711236062
 30
0.0
 42
0.4142135623730951
  0
SEQEND
  5
881
  8
OUTER_PROFILES
  0
POLYLINE
  5
E3
  8
OUTER_PROFILES
 66
     1
 10
0.0
 20
0.0
 30
0.0
 70
     1
  0
VERTEX
  5
3B3
  8
OUTER_PROFILES
 10
-3499.505209525496
 20
1917.100755440867
 30
0.0
 42
0.4142135623730951
  0
VERTEX
  5
3B4
  8
OUTER_PROFILES
 10
-3502.513716758058
 20
1920.092224015267
 30
0.0
 42
0.4142135623730951
  0
VERTEX
  5
3B5
  8
OUTER_PROFILES
 10
-3505.505185332458
 20
1917.083716782705
 30
0.0
 42
0.4142135623730951
  0
VERTEX
  5
3B6
  8
OUTER_PROFILES
 10
-3502.496678099896
 20
1914.092248208305
 30
0.0
 42
0.4142135623730951
  0
SEQEND
  5
882
  8
OUTER_PROFILES
  0
POLYLINE
  5
E4
  8
OUTER_PROFILES
 66
     1
 10
0.0
 20
0.0
 30
0.0
 70
     1
  0
VERTEX
  5
3B7
  8
OUTER_PROFILES
 10
-3521.881681687778
 20
1667.756053477764
 30
0.0
 42
0.4142135623730951
  0
VERTEX
  5
3B8
  8
OUTER_PROFILES
 10
-3524.881681687778
 20
1670.756053477764
 30
0.0
 42
0.4142135623730951
  0
VERTEX
  5
3B9
  8
OUTER_PROFILES
 10
-3527.881681687778
 20
1667.756053477764
 30
0.0
 42
0.4142135623730951
  0
VERTEX
  5
3BA
  8
OUTER_PROFILES
 10
-3524.881681687778
 20
1664.756053477764
 30
0.0
 42
0.4142135623730951
  0
SEQEND
  5
883
  8
OUTER_PROFILES
  0
POLYLINE
  5
E5
  8
OUTER_PROFILES
 66
     1
 10
0.0
 20
0.0
 30
0.0
 70
     1
  0
VERTEX
  5
3BB
  8
OUTER_PROFILES
 10
-3442.291462503856
 20
1894.734090657186
 30
0.0
 42
0.4142135623730951
  0
VERTEX
  5
3BC
  8
OUTER_PROFILES
 10
-3445.299969736418
 20
1897.725559231586
 30
0.0
 42
0.4142135623730951
  0
VERTEX
  5
3BD
  8
OUTER_PROFILES
 10
-3448.291438310817
 20
1894.717051999023
 30
0.0
 42
0.4142135623730951
  0
VERTEX
  5
3BE
  8
OUTER_PROFILES
 10
-3445.282931078255
 20
1891.725583424624
 30
0.0
 42
0.4142135623730951
  0
SEQEND
  5
884
  8
OUTER_PROFILES
  0
POLYLINE
  5
E6
  8
OUTER_PROFILES
 66
     1
 10
0.0
 20
0.0
 30
0.0
 70
     1
  0
VERTEX
  5
3BF
  8
OUTER_PROFILES
 10
-3477.038672553253
 20
1939.145611259764
 30
0.0
 42
0.4142135623730951
  0
VERTEX
  5
3C0
  8
OUTER_PROFILES
 10
-3480.047179785814
 20
1942.137079834164
 30
0.0
 42
0.4142135623730951
  0
VERTEX
  5
3C1
  8
OUTER_PROFILES
 10
-3483.038648360214
 20
1939.128572601602
 30
0.0
 42
0.4142135623730951
  0
VERTEX
  5
3C2
  8
OUTER_PROFILES
 10
-3480.030141127652
 20
1936.137104027202
 30
0.0
 42
0.4142135623730951
  0
SEQEND
  5
885
  8
OUTER_PROFILES
  0
POLYLINE
  5
E7
  8
OUTER_PROFILES
 66
     1
 10
0.0
 20
0.0
 30
0.0
 70
     1
  0
VERTEX
  5
3C3
  8
OUTER_PROFILES
 10
-3521.550065344392
 20
1939.567292413111
 30
0.0
 42
0.4142135623730951
  0
VERTEX
  5
3C4
  8
OUTER_PROFILES
 10
-3524.558572576955
 20
1942.558760987511
 30
0.0
 42
0.4142135623730951
  0
VERTEX
  5
3C5
  8
OUTER_PROFILES
 10
-3527.550041151354
 20
1939.550253754948
 30
0.0
 42
0.4142135623730951
  0
VERTEX
  5
3C6
  8
OUTER_PROFILES
 10
-3524.541533918792
 20
1936.558785180549
 30
0.0
 42
0.4142135623730951
  0
SEQEND
  5
886
  8
OUTER_PROFILES
  0
POLYLINE
  5
E8
  8
OUTER_PROFILES
 66
     1
 10
0.0
 20
0.0
 30
0.0
 70
     1
  0
VERTEX
  5
3C7
  8
OUTER_PROFILES
 10
-3477.919747708522
 20
1709.987202654687
 30
0.0
 42
0.4142135623730951
  0
VERTEX
  5
3C8
  8
OUTER_PROFILES
 10
-3480.919747708522
 20
1712.987202654687
 30
0.0
 42
0.4142135623730951
  0
VERTEX
  5
3C9
  8
OUTER_PROFILES
 10
-3483.919747708522
 20
1709.987202654687
 30
0.0
 42
0.4142135623730951
  0
VERTEX
  5
3CA
  8
OUTER_PROFILES
 10
-3480.919747708522
 20
1706.987202654687
 30
0.0
 42
0.4142135623730951
  0
SEQEND
  5
887
  8
OUTER_PROFILES
  0
POLYLINE
  5
E9
  8
OUTER_PROFILES
 66
     1
 10
0.0
 20
0.0
 30
0.0
 70
     1
  0
VERTEX
  5
3CB
  8
OUTER_PROFILES
 10
-3521.016289286612
 20
1710.852595055853
 30
0.0
 42
0.4142135623730951
  0
VERTEX
  5
3CC
  8
OUTER_PROFILES
 10
-3524.016289286612
 20
1713.852595055853
 30
0.0
 42
0.4142135623730951
  0
VERTEX
  5
3CD
  8
OUTER_PROFILES
 10
-3527.016289286612
 20
1710.852595055853
 30
0.0
 42
0.4142135623730951
  0
VERTEX
  5
3CE
  8
OUTER_PROFILES
 10
-3524.016289286612
 20
1707.852595055853
 30
0.0
 42
0.4142135623730951
  0
SEQEND
  5
888
  8
OUTER_PROFILES
  0
POLYLINE
  5
EA
  8
OUTER_PROFILES
 66
     1
 10
0.0
 20
0.0
 30
0.0
 70
     1
  0
VERTEX
  5
3CF
  8
OUTER_PROFILES
 10
-3442.41786099462
 20
1939.243927018432
 30
0.0
 42
0.4142135623730951
  0
VERTEX
  5
3D0
  8
OUTER_PROFILES
 10
-3445.426368227182
 20
1942.235395592832
 30
0.0
 42
0.4142135623730951
  0
VERTEX
  5
3D1
  8
OUTER_PROFILES
 10
-3448.417836801581
 20
1939.226888360269
 30
0.0
 42
0.4142135623730951
  0
VERTEX
  5
3D2
  8
OUTER_PROFILES
 10
-3445.409329569019
 20
1936.23541978587
 30
0.0
 42
0.4142135623730951
  0
SEQEND
  5
889
  8
OUTER_PROFILES
  0
POLYLINE
  5
EB
  8
OUTER_PROFILES
 66
     1
 10
0.0
 20
0.0
 30
0.0
 70
     1
  0
VERTEX
  5
3D3
  8
OUTER_PROFILES
 10
-3499.290380443835
 20
1841.451060474758
 30
0.0
 42
0.4142135623730951
  0
VERTEX
  5
3D4
  8
OUTER_PROFILES
 10
-3502.298887676397
 20
1844.442529049158
 30
0.0
 42
0.4142135623730951
  0
VERTEX
  5
3D5
  8
OUTER_PROFILES
 10
-3505.290356250797
 20
1841.434021816595
 30
0.0
 42
0.4142135623730951
  0
VERTEX
  5
3D6
  8
OUTER_PROFILES
 10
-3502.281849018234
 20
1838.442553242196
 30
0.0
 42
0.4142135623730951
  0
SEQEND
  5
88A
  8
OUTER_PROFILES
  0
POLYLINE
  5
EC
  8
OUTER_PROFILES
 66
     1
 10
0.0
 20
0.0
 30
0.0
 70
     1
  0
VERTEX
  5
3D7
  8
OUTER_PROFILES
 10
-3521.331222311953
 20
1862.504128891134
 30
0.0
 42
0.4142135623730951
  0
VERTEX
  5
3D8
  8
OUTER_PROFILES
 10
-3524.339729544515
 20
1865.495597465534
 30
0.0
 42
0.4142135623730951
  0
VERTEX
  5
3D9
  8
OUTER_PROFILES
 10
-3527.331198118915
 20
1862.487090232971
 30
0.0
 42
0.4142135623730951
  0
VERTEX
  5
3DA
  8
OUTER_PROFILES
 10
-3524.322690886353
 20
1859.495621658572
 30
0.0
 42
0.4142135623730951
  0
SEQEND
  5
88B
  8
OUTER_PROFILES
  0
POLYLINE
  5
ED
  8
OUTER_PROFILES
 66
     1
 10
0.0
 20
0.0
 30
0.0
 70
     1
  0
VERTEX
  5
3DB
  8
OUTER_PROFILES
 10
-3442.354661749237
 20
1916.989008837809
 30
0.0
 42
0.4142135623730951
  0
VERTEX
  5
3DC
  8
OUTER_PROFILES
 10
-3445.363168981799
 20
1919.980477412209
 30
0.0
 42
0.4142135623730951
  0
VERTEX
  5
3DD
  8
OUTER_PROFILES
 10
-3448.354637556199
 20
1916.971970179646
 30
0.0
 42
0.4142135623730951
  0
VERTEX
  5
3DE
  8
OUTER_PROFILES
 10
-3445.346130323637
 20
1913.980501605247
 30
0.0
 42
0.4142135623730951
  0
SEQEND
  5
88C
  8
OUTER_PROFILES
  0
POLYLINE
  5
EE
  8
OUTER_PROFILES
 66
     1
 10
0.0
 20
0.0
 30
0.0
 70
     1
  0
VERTEX
  5
3DF
  8
OUTER_PROFILES
 10
-3478.785140109688
 20
1666.890661076598
 30
0.0
 42
0.4142135623730951
  0
VERTEX
  5
3E0
  8
OUTER_PROFILES
 10
-3481.785140109688
 20
1669.890661076598
 30
0.0
 42
0.4142135623730951
  0
VERTEX
  5
3E1
  8
OUTER_PROFILES
 10
-3484.785140109688
 20
1666.890661076598
 30
0.0
 42
0.4142135623730951
  0
VERTEX
  5
3E2
  8
OUTER_PROFILES
 10
-3481.785140109688
 20
1663.890661076598
 30
0.0
 42
0.4142135623730951
  0
SEQEND
  5
88D
  8
OUTER_PROFILES
  0
POLYLINE
  5
EF
  8
OUTER_PROFILES
 66
     1
 10
0.0
 20
0.0
 30
0.0
 70
     1
  0
VERTEX
  5
3E3
  8
OUTER_PROFILES
 10
-3499.90071469815
 20
1688.871628066225
 30
0.0
 42
0.4142135623730951
  0
VERTEX
  5
3E4
  8
OUTER_PROFILES
 10
-3502.90071469815
 20
1691.871628066225
 30
0.0
 42
0.4142135623730951
  0
VERTEX
  5
3E5
  8
OUTER_PROFILES
 10
-3505.90071469815
 20
1688.871628066225
 30
0.0
 42
0.4142135623730951
  0
VERTEX
  5
3E6
  8
OUTER_PROFILES
 10
-3502.90071469815
 20
1685.871628066225
 30
0.0
 42
0.4142135623730951
  0
SEQEND
  5
88E
  8
OUTER_PROFILES
  0
POLYLINE
  5
F0
  8
OUTER_PROFILES
 66
     1
 10
0.0
 20
0.0
 30
0.0
 70
     1
  0
VERTEX
  5
3E7
  8
OUTER_PROFILES
 10
-3521.971746497739
 20
1895.055899621971
 30
0.0
 42
0.4142135623730951
  0
VERTEX
  5
3E8
  8
OUTER_PROFILES
 10
-3524.980253730301
 20
1898.047368196371
 30
0.0
 42
0.4142135623730951
  0
VERTEX
  5
3E9
  8
OUTER_PROFILES
 10
-3527.971722304701
 20
1895.038860963809
 30
0.0
 42
0.4142135623730951
  0
VERTEX
  5
3EA
  8
OUTER_PROFILES
 10
-3524.963215072139
 20
1892.047392389409
 30
0.0
 42
0.4142135623730951
  0
SEQEND
  5
88F
  8
OUTER_PROFILES
  0
POLYLINE
  5
F1
  8
OUTER_PROFILES
 66
     1
 10
0.0
 20
0.0
 30
0.0
 70
     1
  0
VERTEX
  5
3EB
  8
OUTER_PROFILES
 10
-3499.900714698148
 20
1766.414548132102
 30
0.0
 42
0.4142135623730951
  0
VERTEX
  5
3EC
  8
OUTER_PROFILES
 10
-3502.900714698148
 20
1769.414548132102
 30
0.0
 42
0.4142135623730951
  0
VERTEX
  5
3ED
  8
OUTER_PROFILES
 10
-3505.900714698148
 20
1766.414548132102
 30
0.0
 42
0.4142135623730951
  0
VERTEX
  5
3EE
  8
OUTER_PROFILES
 10
-3502.900714698148
 20
1763.414548132102
 30
0.0
 42
0.4142135623730951
  0
SEQEND
  5
890
  8
OUTER_PROFILES
  0
POLYLINE
  5
F2
  8
OUTER_PROFILES
 66
     1
 10
0.0
 20
0.0
 30
0.0
 70
     1
  0
VERTEX
  5
3EF
  8
OUTER_PROFILES
 10
-3478.237312027459
 20
1863.491902342876
 30
0.0
 42
0.4142135623730951
  0
VERTEX
  5
3F0
  8
OUTER_PROFILES
 10
-3481.245819260021
 20
1866.483370917276
 30
0.0
 42
0.4142135623730951
  0
VERTEX
  5
3F1
  8
OUTER_PROFILES
 10
-3484.23728783442
 20
1863.474863684713
 30
0.0
 42
0.4142135623730951
  0
VERTEX
  5
3F2
  8
OUTER_PROFILES
 10
-3481.228780601858
 20
1860.483395110314
 30
0.0
 42
0.4142135623730951
  0
SEQEND
  5
891
  8
OUTER_PROFILES
  0
POLYLINE
  5
F3
  8
OUTER_PROFILES
 66
     1
 10
0.0
 20
0.0
 30
0.0
 70
     1
  0
VERTEX
  5
3F3
  8
OUTER_PROFILES
 10
-3520.343448860211
 20
1819.410218606639
 30
0.0
 42
0.4142135623730951
  0
VERTEX
  5
3F4
  8
OUTER_PROFILES
 10
-3523.351956092773
 20
1822.401687181039
 30
0.0
 42
0.4142135623730951
  0
VERTEX
  5
3F5
  8
OUTER_PROFILES
 10
-3526.343424667173
 20
1819.393179948477
 30
0.0
 42
0.4142135623730951
  0
VERTEX
  5
3F6
  8
OUTER_PROFILES
 10
-3523.334917434611
 20
1816.401711374077
 30
0.0
 42
0.4142135623730951
  0
SEQEND
  5
892
  8
OUTER_PROFILES
  0
POLYLINE
  5
F4
  8
OUTER_PROFILES
 66
     1
 10
0.0
 20
0.0
 30
0.0
 70
     1
  0
VERTEX
  5
3F7
  8
OUTER_PROFILES
 10
-3477.249538575717
 20
1820.397992058381
 30
0.0
 42
0.4142135623730951
  0
VERTEX
  5
3F8
  8
OUTER_PROFILES
 10
-3480.258045808279
 20
1823.389460632781
 30
0.0
 42
0.4142135623730951
  0
VERTEX
  5
3F9
  8
OUTER_PROFILES
 10
-3483.249514382679
 20
1820.380953400219
 30
0.0
 42
0.4142135623730951
  0
VERTEX
  5
3FA
  8
OUTER_PROFILES
 10
-3480.241007150116
 20
1817.389484825819
 30
0.0
 42
0.4142135623730951
  0
SEQEND
  5
893
  8
OUTER_PROFILES
  0
POLYLINE
  5
F5
  8
OUTER_PROFILES
 66
     1
 10
0.0
 20
0.0
 30
0.0
 70
     1
  0
VERTEX
  5
3FB
  8
OUTER_PROFILES
 10
-3521.881681687778
 20
1743.8854992884
 30
0.0
 42
0.4142135623730951
  0
VERTEX
  5
3FC
  8
OUTER_PROFILES
 10
-3524.881681687778
 20
1746.8854992884
 30
0.0
 42
0.4142135623730951
  0
VERTEX
  5
3FD
  8
OUTER_PROFILES
 10
-3527.881681687778
 20
1743.8854992884
 30
0.0
 42
0.4142135623730951
  0
VERTEX
  5
3FE
  8
OUTER_PROFILES
 10
-3524.881681687778
 20
1740.8854992884
 30
0.0
 42
0.4142135623730951
  0
SEQEND
  5
894
  8
OUTER_PROFILES
  0
POLYLINE
  5
F6
  8
OUTER_PROFILES
 66
     1
 10
0.0
 20
0.0
 30
0.0
 70
     1
  0
VERTEX
  5
3FF
  8
OUTER_PROFILES
 10
-3477.371665854446
 20
1744.433581142472
 30
0.0
 42
0.4142135623730951
  0
VERTEX
  5
400
  8
OUTER_PROFILES
 10
-3480.371665854446
 20
1747.433581142472
 30
0.0
 42
0.4142135623730951
  0
VERTEX
  5
401
  8
OUTER_PROFILES
 10
-3483.371665854446
 20
1744.433581142472
 30
0.0
 42
0.4142135623730951
  0
VERTEX
  5
402
  8
OUTER_PROFILES
 10
-3480.371665854446
 20
1741.433581142472
 30
0.0
 42
0.4142135623730951
  0
SEQEND
  5
895
  8
OUTER_PROFILES
  0
POLYLINE
  5
F7
  8
OUTER_PROFILES
 66
     1
 10
0.0
 20
0.0
 30
0.0
 70
     1
  0
VERTEX
  5
403
  8
OUTER_PROFILES
 10
-3442.200574392075
 20
1862.728843140565
 30
0.0
 42
0.4142135623730951
  0
VERTEX
  5
404
  8
OUTER_PROFILES
 10
-3445.209081624637
 20
1865.720311714965
 30
0.0
 42
0.4142135623730951
  0
VERTEX
  5
405
  8
OUTER_PROFILES
 10
-3448.200550199037
 20
1862.711804482403
 30
0.0
 42
0.4142135623730951
  0
VERTEX
  5
406
  8
OUTER_PROFILES
 10
-3445.192042966475
 20
1859.720335908003
 30
0.0
 42
0.4142135623730951
  0
SEQEND
  5
896
  8
OUTER_PROFILES
  0
POLYLINE
  5
F8
  8
OUTER_PROFILES
 66
     1
 10
0.0
 20
0.0
 30
0.0
 70
     1
  0
VERTEX
  5
407
  8
OUTER_PROFILES
 10
-3442.750714698148
 20
1766.688589059139
 30
0.0
 42
0.4142135623730951
  0
VERTEX
  5
408
  8
OUTER_PROFILES
 10
-3445.750714698148
 20
1769.688589059139
 30
0.0
 42
0.4142135623730951
  0
VERTEX
  5
409
  8
OUTER_PROFILES
 10
-3448.750714698148
 20
1766.688589059139
 30
0.0
 42
0.4142135623730951
  0
VERTEX
  5
40A
  8
OUTER_PROFILES
 10
-3445.750714698148
 20
1763.688589059139
 30
0.0
 42
0.4142135623730951
  0
SEQEND
  5
897
  8
OUTER_PROFILES
  0
POLYLINE
  5
F9
  8
OUTER_PROFILES
 66
     1
 10
0.0
 20
0.0
 30
0.0
 70
     1
  0
VERTEX
  5
40B
  8
OUTER_PROFILES
 10
-3442.750714698148
 20
1709.987202654687
 30
0.0
 42
0.4142135623730951
  0
VERTEX
  5
40C
  8
OUTER_PROFILES
 10
-3445.750714698148
 20
1712.987202654687
 30
0.0
 42
0.4142135623730951
  0
VERTEX
  5
40D
  8
OUTER_PROFILES
 10
-3448.750714698148
 20
1709.987202654687
 30
0.0
 42
0.4142135623730951
  0
VERTEX
  5
40E
  8
OUTER_PROFILES
 10
-3445.750714698148
 20
1706.987202654687
 30
0.0
 42
0.4142135623730951
  0
SEQEND
  5
898
  8
OUTER_PROFILES
  0
POLYLINE
  5
FA
  8
OUTER_PROFILES
 66
     1
 10
0.0
 20
0.0
 30
0.0
 70
     1
  0
VERTEX
  5
40F
  8
OUTER_PROFILES
 10
-3522.42976354185
 20
1788.395515121732
 30
0.0
 42
0.4142135623730951
  0
VERTEX
  5
410
  8
OUTER_PROFILES
 10
-3525.42976354185
 20
1791.395515121732
 30
0.0
 42
0.4142135623730951
  0
VERTEX
  5
411
  8
OUTER_PROFILES
 10
-3528.42976354185
 20
1788.395515121732
 30
0.0
 42
0.4142135623730951
  0
VERTEX
  5
412
  8
OUTER_PROFILES
 10
-3525.42976354185
 20
1785.395515121732
 30
0.0
 42
0.4142135623730951
  0
SEQEND
  5
899
  8
OUTER_PROFILES
  0
POLYLINE
  5
FB
  8
OUTER_PROFILES
 66
     1
 10
0.0
 20
0.0
 30
0.0
 70
     1
  0
VERTEX
  5
413
  8
OUTER_PROFILES
 10
-3442.750714698148
 20
1667.756053477764
 30
0.0
 42
0.4142135623730951
  0
VERTEX
  5
414
  8
OUTER_PROFILES
 10
-3445.750714698148
 20
1670.756053477764
 30
0.0
 42
0.4142135623730951
  0
VERTEX
  5
415
  8
OUTER_PROFILES
 10
-3448.750714698148
 20
1667.756053477764
 30
0.0
 42
0.4142135623730951
  0
VERTEX
  5
416
  8
OUTER_PROFILES
 10
-3445.750714698148
 20
1664.756053477764
 30
0.0
 42
0.4142135623730951
  0
SEQEND
  5
89A
  8
OUTER_PROFILES
  0
POLYLINE
  5
FC
  8
OUTER_PROFILES
 66
     1
 10
0.0
 20
0.0
 30
0.0
 70
     1
  0
VERTEX
  5
417
  8
OUTER_PROFILES
 10
-3442.080647372971
 20
1820.497864246941
 30
0.0
 42
0.4142135623730951
  0
VERTEX
  5
418
  8
OUTER_PROFILES
 10
-3445.089154605533
 20
1823.489332821341
 30
0.0
 42
0.4142135623730951
  0
VERTEX
  5
419
  8
OUTER_PROFILES
 10
-3448.080623179932
 20
1820.480825588779
 30
0.0
 42
0.4142135623730951
  0
VERTEX
  5
41A
  8
OUTER_PROFILES
 10
-3445.07211594737
 20
1817.489357014379
 30
0.0
 42
0.4142135623730951
  0
SEQEND
  5
89B
  8
OUTER_PROFILES
  0
POLYLINE
  5
FD
  8
OUTER_PROFILES
 66
     1
 10
0.0
 20
0.0
 30
0.0
 70
     1
  0
VERTEX
  5
41B
  8
OUTER_PROFILES
 10
-3477.919747708518
 20
1788.943596975804
 30
0.0
 42
0.4142135623730951
  0
VERTEX
  5
41C
  8
OUTER_PROFILES
 10
-3480.919747708518
 20
1791.943596975804
 30
0.0
 42
0.4142135623730951
  0
VERTEX
  5
41D
  8
OUTER_PROFILES
 10
-3483.919747708518
 20
1788.943596975804
 30
0.0
 42
0.4142135623730951
  0
VERTEX
  5
41E
  8
OUTER_PROFILES
 10
-3480.919747708518
 20
1785.943596975804
 30
0.0
 42
0.4142135623730951
  0
SEQEND
  5
89C
  8
OUTER_PROFILES
  0
POLYLINE
  5
FE
  8
OUTER_PROFILES
 66
     1
 10
0.0
 20
0.0
 30
0.0
 70
     1
  0
VERTEX
  5
41F
  8
OUTER_PROFILES
 10
-3442.750714698148
 20
1688.871628066225
 30
0.0
 42
0.4142135623730951
  0
VERTEX
  5
420
  8
OUTER_PROFILES
 10
-3445.750714698148
 20
1691.871628066225
 30
0.0
 42
0.4142135623730951
  0
VERTEX
  5
421
  8
OUTER_PROFILES
 10
-3448.750714698148
 20
1688.871628066225
 30
0.0
 42
0.4142135623730951
  0
VERTEX
  5
422
  8
OUTER_PROFILES
 10
-3445.750714698148
 20
1685.871628066225
 30
0.0
 42
0.4142135623730951
  0
SEQEND
  5
89D
  8
OUTER_PROFILES
  0
POLYLINE
  5
FF
  8
OUTER_PROFILES
 66
     1
 10
0.0
 20
0.0
 30
0.0
 70
     1
  0
VERTEX
  5
423
  8
OUTER_PROFILES
 10
-3442.140610882523
 20
1841.613353693753
 30
0.0
 42
0.4142135623730951
  0
VERTEX
  5
424
  8
OUTER_PROFILES
 10
-3445.149118115085
 20
1844.604822268153
 30
0.0
 42
0.4142135623730951
  0
VERTEX
  5
425
  8
OUTER_PROFILES
 10
-3448.140586689485
 20
1841.596315035591
 30
0.0
 42
0.4142135623730951
  0
VERTEX
  5
426
  8
OUTER_PROFILES
 10
-3445.132079456922
 20
1838.604846461191
 30
0.0
 42
0.4142135623730951
  0
SEQEND
  5
89E
  8
OUTER_PROFILES
  0
POLYLINE
  5
100
  8
OUTER_PROFILES
 66
     1
 10
0.0
 20
0.0
 30
0.0
 70
     1
  0
VERTEX
  5
427
  8
OUTER_PROFILES
 10
-3442.750714698148
 20
1788.943596975804
 30
0.0
 42
0.4142135623730951
  0
VERTEX
  5
428
  8
OUTER_PROFILES
 10
-3445.750714698148
 20
1791.943596975804
 30
0.0
 42
0.4142135623730951
  0
VERTEX
  5
429
  8
OUTER_PROFILES
 10
-3448.750714698148
 20
1788.943596975804
 30
0.0
 42
0.4142135623730951
  0
VERTEX
  5
42A
  8
OUTER_PROFILES
 10
-3445.750714698148
 20
1785.943596975804
 30
0.0
 42
0.4142135623730951
  0
SEQEND
  5
89F
  8
OUTER_PROFILES
  0
POLYLINE
  5
101
  8
OUTER_PROFILES
 66
     1
 10
0.0
 20
0.0
 30
0.0
 70
     1
  0
VERTEX
  5
42B
  8
OUTER_PROFILES
 10
-3442.750714698148
 20
1744.433581142473
 30
0.0
 42
0.4142135623730951
  0
VERTEX
  5
42C
  8
OUTER_PROFILES
 10
-3445.750714698148
 20
1747.433581142473
 30
0.0
 42
0.4142135623730951
  0
VERTEX
  5
42D
  8
OUTER_PROFILES
 10
-3448.750714698148
 20
1744.433581142473
 30
0.0
 42
0.4142135623730951
  0
VERTEX
  5
42E
  8
OUTER_PROFILES
 10
-3445.750714698148
 20
1741.433581142473
 30
0.0
 42
0.4142135623730951
  0
SEQEND
  5
8A0
  8
OUTER_PROFILES
  0
POLYLINE
  5
102
  8
OUTER_PROFILES
 66
     1
 10
0.0
 20
0.0
 30
0.0
 70
     1
  0
VERTEX
  5
42F
  8
OUTER_PROFILES
 10
-3141.250856339024
 20
1898.331333125594
 30
0.0
 42
0.4142135623730951
  0
VERTEX
  5
430
  8
OUTER_PROFILES
 10
-3144.242324913424
 20
1895.322825893031
 30
0.0
 42
0.4142135623730951
  0
VERTEX
  5
431
  8
OUTER_PROFILES
 10
-3141.233817680862
 20
1892.331357318632
 30
0.0
 42
0.4142135623730951
  0
VERTEX
  5
432
  8
OUTER_PROFILES
 10
-3138.242349106462
 20
1895.339864551194
 30
0.0
 42
0.4142135623730951
  0
SEQEND
  5
8A1
  8
OUTER_PROFILES
  0
POLYLINE
  5
103
  8
OUTER_PROFILES
 66
     1
 10
0.0
 20
0.0
 30
0.0
 70
     1
  0
VERTEX
  5
433
  8
OUTER_PROFILES
 10
-3164.110764163549
 20
1898.266415837995
 30
0.0
 42
0.4142135623730951
  0
VERTEX
  5
434
  8
OUTER_PROFILES
 10
-3167.102232737949
 20
1895.257908605433
 30
0.0
 42
0.4142135623730951
  0
VERTEX
  5
435
  8
OUTER_PROFILES
 10
-3164.093725505387
 20
1892.266440031033
 30
0.0
 42
0.4142135623730951
  0
VERTEX
  5
436
  8
OUTER_PROFILES
 10
-3161.102256930987
 20
1895.274947263595
 30
0.0
 42
0.4142135623730951
  0
SEQEND
  5
8A2
  8
OUTER_PROFILES
  0
POLYLINE
  5
104
  8
OUTER_PROFILES
 66
     1
 10
0.0
 20
0.0
 30
0.0
 70
     1
  0
VERTEX
  5
437
  8
OUTER_PROFILES
 10
-3095.422845210643
 20
1860.361321326583
 30
0.0
 42
0.4142135623730951
  0
VERTEX
  5
438
  8
OUTER_PROFILES
 10
-3098.414313785043
 20
1857.352814094021
 30
0.0
 42
0.4142135623730951
  0
VERTEX
  5
439
  8
OUTER_PROFILES
 10
-3095.405806552481
 20
1854.361345519621
 30
0.0
 42
0.4142135623730951
  0
VERTEX
  5
43A
  8
OUTER_PROFILES
 10
-3092.414337978081
 20
1857.369852752183
 30
0.0
 42
0.4142135623730951
  0
SEQEND
  5
8A3
  8
OUTER_PROFILES
  0
POLYLINE
  5
105
  8
OUTER_PROFILES
 66
     1
 10
0.0
 20
0.0
 30
0.0
 70
     1
  0
VERTEX
  5
43B
  8
OUTER_PROFILES
 10
-3141.196758599358
 20
1879.28140993849
 30
0.0
 42
0.4142135623730951
  0
VERTEX
  5
43C
  8
OUTER_PROFILES
 10
-3144.188227173759
 20
1876.272902705927
 30
0.0
 42
0.4142135623730951
  0
VERTEX
  5
43D
  8
OUTER_PROFILES
 10
-3141.179719941196
 20
1873.281434131528
 30
0.0
 42
0.4142135623730951
  0
VERTEX
  5
43E
  8
OUTER_PROFILES
 10
-3138.188251366797
 20
1876.28994136409
 30
0.0
 42
0.4142135623730951
  0
SEQEND
  5
8A4
  8
OUTER_PROFILES
  0
POLYLINE
  5
106
  8
OUTER_PROFILES
 66
     1
 10
0.0
 20
0.0
 30
0.0
 70
     1
  0
VERTEX
  5
43F
  8
OUTER_PROFILES
 10
-3118.282753035168
 20
1860.296404038984
 30
0.0
 42
0.4142135623730951
  0
VERTEX
  5
440
  8
OUTER_PROFILES
 10
-3121.274221609568
 20
1857.287896806422
 30
0.0
 42
0.4142135623730951
  0
VERTEX
  5
441
  8
OUTER_PROFILES
 10
-3118.265714377006
 20
1854.296428232022
 30
0.0
 42
0.4142135623730951
  0
VERTEX
  5
442
  8
OUTER_PROFILES
 10
-3115.274245802606
 20
1857.304935464585
 30
0.0
 42
0.4142135623730951
  0
SEQEND
  5
8A5
  8
OUTER_PROFILES
  0
POLYLINE
  5
107
  8
OUTER_PROFILES
 66
     1
 10
0.0
 20
0.0
 30
0.0
 70
     1
  0
VERTEX
  5
443
  8
OUTER_PROFILES
 10
-3118.390948514499
 20
1898.396250413192
 30
0.0
 42
0.4142135623730951
  0
VERTEX
  5
444
  8
OUTER_PROFILES
 10
-3121.382417088899
 20
1895.38774318063
 30
0.0
 42
0.4142135623730951
  0
VERTEX
  5
445
  8
OUTER_PROFILES
 10
-3118.373909856337
 20
1892.39627460623
 30
0.0
 42
0.4142135623730951
  0
VERTEX
  5
446
  8
OUTER_PROFILES
 10
-3115.382441281937
 20
1895.404781838792
 30
0.0
 42
0.4142135623730951
  0
SEQEND
  5
8A6
  8
OUTER_PROFILES
  0
POLYLINE
  5
108
  8
OUTER_PROFILES
 66
     1
 10
0.0
 20
0.0
 30
0.0
 70
     1
  0
VERTEX
  5
447
  8
OUTER_PROFILES
 10
-3095.981107017001
 20
1713.427839255203
 30
0.0
 42
0.4142135623730951
  0
VERTEX
  5
448
  8
OUTER_PROFILES
 10
-3098.981107017001
 20
1710.427839255203
 30
0.0
 42
0.4142135623730951
  0
VERTEX
  5
449
  8
OUTER_PROFILES
 10
-3095.981107017001
 20
1707.427839255203
 30
0.0
 42
0.4142135623730951
  0
VERTEX
  5
44A
  8
OUTER_PROFILES
 10
-3092.981107017001
 20
1710.427839255203
 30
0.0
 42
0.4142135623730951
  0
SEQEND
  5
8A7
  8
OUTER_PROFILES
  0
POLYLINE
  5
109
  8
OUTER_PROFILES
 66
     1
 10
0.0
 20
0.0
 30
0.0
 70
     1
  0
VERTEX
  5
44B
  8
OUTER_PROFILES
 10
-3095.981107017001
 20
1732.477839255203
 30
0.0
 42
0.4142135623730951
  0
VERTEX
  5
44C
  8
OUTER_PROFILES
 10
-3098.981107017001
 20
1729.477839255203
 30
0.0
 42
0.4142135623730951
  0
VERTEX
  5
44D
  8
OUTER_PROFILES
 10
-3095.981107017001
 20
1726.477839255203
 30
0.0
 42
0.4142135623730951
  0
VERTEX
  5
44E
  8
OUTER_PROFILES
 10
-3092.981107017001
 20
1729.477839255203
 30
0.0
 42
0.4142135623730951
  0
SEQEND
  5
8A8
  8
OUTER_PROFILES
  0
POLYLINE
  5
10A
  8
OUTER_PROFILES
 66
     1
 10
0.0
 20
0.0
 30
0.0
 70
     1
  0
VERTEX
  5
44F
  8
OUTER_PROFILES
 10
-3095.981107017001
 20
1751.527839255204
 30
0.0
 42
0.4142135623730951
  0
VERTEX
  5
450
  8
OUTER_PROFILES
 10
-3098.981107017001
 20
1748.527839255204
 30
0.0
 42
0.4142135623730951
  0
VERTEX
  5
451
  8
OUTER_PROFILES
 10
-3095.981107017001
 20
1745.527839255204
 30
0.0
 42
0.4142135623730951
  0
VERTEX
  5
452
  8
OUTER_PROFILES
 10
-3092.981107017001
 20
1748.527839255204
 30
0.0
 42
0.4142135623730951
  0
SEQEND
  5
8A9
  8
OUTER_PROFILES
  0
POLYLINE
  5
10B
  8
OUTER_PROFILES
 66
     1
 10
0.0
 20
0.0
 30
0.0
 70
     1
  0
VERTEX
  5
453
  8
OUTER_PROFILES
 10
-3141.701107017002
 20
1732.477839255203
 30
0.0
 42
0.4142135623730951
  0
VERTEX
  5
454
  8
OUTER_PROFILES
 10
-3144.701107017002
 20
1729.477839255203
 30
0.0
 42
0.4142135623730951
  0
VERTEX
  5
455
  8
OUTER_PROFILES
 10
-3141.701107017002
 20
1726.477839255203
 30
0.0
 42
0.4142135623730951
  0
VERTEX
  5
456
  8
OUTER_PROFILES
 10
-3138.701107017002
 20
1729.477839255203
 30
0.0
 42
0.4142135623730951
  0
SEQEND
  5
8AA
  8
OUTER_PROFILES
  0
POLYLINE
  5
10C
  8
OUTER_PROFILES
 66
     1
 10
0.0
 20
0.0
 30
0.0
 70
     1
  0
VERTEX
  5
457
  8
OUTER_PROFILES
 10
-3095.476942950309
 20
1879.411244513686
 30
0.0
 42
0.4142135623730951
  0
VERTEX
  5
458
  8
OUTER_PROFILES
 10
-3098.468411524709
 20
1876.402737281124
 30
0.0
 42
0.4142135623730951
  0
VERTEX
  5
459
  8
OUTER_PROFILES
 10
-3095.459904292146
 20
1873.411268706725
 30
0.0
 42
0.4142135623730951
  0
VERTEX
  5
45A
  8
OUTER_PROFILES
 10
-3092.468435717747
 20
1876.419775939286
 30
0.0
 42
0.4142135623730951
  0
SEQEND
  5
8AB
  8
OUTER_PROFILES
  0
POLYLINE
  5
10D
  8
OUTER_PROFILES
 66
     1
 10
0.0
 20
0.0
 30
0.0
 70
     1
  0
VERTEX
  5
45B
  8
OUTER_PROFILES
 10
-3118.336850774834
 20
1879.346327226088
 30
0.0
 42
0.4142135623730951
  0
VERTEX
  5
45C
  8
OUTER_PROFILES
 10
-3121.328319349233
 20
1876.337819993526
 30
0.0
 42
0.4142135623730951
  0
VERTEX
  5
45D
  8
OUTER_PROFILES
 10
-3118.319812116672
 20
1873.346351419126
 30
0.0
 42
0.4142135623730951
  0
VERTEX
  5
45E
  8
OUTER_PROFILES
 10
-3115.328343542272
 20
1876.354858651688
 30
0.0
 42
0.4142135623730951
  0
SEQEND
  5
8AC
  8
OUTER_PROFILES
  0
POLYLINE
  5
10E
  8
OUTER_PROFILES
 66
     1
 10
0.0
 20
0.0
 30
0.0
 70
     1
  0
VERTEX
  5
45F
  8
OUTER_PROFILES
 10
-3118.841107017001
 20
1732.477839255203
 30
0.0
 42
0.4142135623730951
  0
VERTEX
  5
460
  8
OUTER_PROFILES
 10
-3121.841107017001
 20
1729.477839255203
 30
0.0
 42
0.4142135623730951
  0
VERTEX
  5
461
  8
OUTER_PROFILES
 10
-3118.841107017001
 20
1726.477839255203
 30
0.0
 42
0.4142135623730951
  0
VERTEX
  5
462
  8
OUTER_PROFILES
 10
-3115.841107017001
 20
1729.477839255203
 30
0.0
 42
0.4142135623730951
  0
SEQEND
  5
8AD
  8
OUTER_PROFILES
  0
POLYLINE
  5
10F
  8
OUTER_PROFILES
 66
     1
 10
0.0
 20
0.0
 30
0.0
 70
     1
  0
VERTEX
  5
463
  8
OUTER_PROFILES
 10
-3141.701107017002
 20
1713.427839255204
 30
0.0
 42
0.4142135623730951
  0
VERTEX
  5
464
  8
OUTER_PROFILES
 10
-3144.701107017002
 20
1710.427839255204
 30
0.0
 42
0.4142135623730951
  0
VERTEX
  5
465
  8
OUTER_PROFILES
 10
-3141.701107017002
 20
1707.427839255204
 30
0.0
 42
0.4142135623730951
  0
VERTEX
  5
466
  8
OUTER_PROFILES
 10
-3138.701107017002
 20
1710.427839255204
 30
0.0
 42
0.4142135623730951
  0
SEQEND
  5
8AE
  8
OUTER_PROFILES
  0
POLYLINE
  5
110
  8
OUTER_PROFILES
 66
     1
 10
0.0
 20
0.0
 30
0.0
 70
     1
  0
VERTEX
  5
467
  8
OUTER_PROFILES
 10
-3095.531040689974
 20
1898.461167700791
 30
0.0
 42
0.4142135623730951
  0
VERTEX
  5
468
  8
OUTER_PROFILES
 10
-3098.522509264374
 20
1895.452660468228
 30
0.0
 42
0.4142135623730951
  0
VERTEX
  5
469
  8
OUTER_PROFILES
 10
-3095.514002031812
 20
1892.461191893829
 30
0.0
 42
0.4142135623730951
  0
VERTEX
  5
46A
  8
OUTER_PROFILES
 10
-3092.522533457412
 20
1895.469699126391
 30
0.0
 42
0.4142135623730951
  0
SEQEND
  5
8AF
  8
OUTER_PROFILES
  0
POLYLINE
  5
111
  8
OUTER_PROFILES
 66
     1
 10
0.0
 20
0.0
 30
0.0
 70
     1
  0
VERTEX
  5
46B
  8
OUTER_PROFILES
 10
-3164.561107017002
 20
1713.427839255204
 30
0.0
 42
0.4142135623730951
  0
VERTEX
  5
46C
  8
OUTER_PROFILES
 10
-3167.561107017002
 20
1710.427839255204
 30
0.0
 42
0.4142135623730951
  0
VERTEX
  5
46D
  8
OUTER_PROFILES
 10
-3164.561107017002
 20
1707.427839255204
 30
0.0
 42
0.4142135623730951
  0
VERTEX
  5
46E
  8
OUTER_PROFILES
 10
-3161.561107017002
 20
1710.427839255204
 30
0.0
 42
0.4142135623730951
  0
SEQEND
  5
8B0
  8
OUTER_PROFILES
  0
POLYLINE
  5
112
  8
OUTER_PROFILES
 66
     1
 10
0.0
 20
0.0
 30
0.0
 70
     1
  0
VERTEX
  5
46F
  8
OUTER_PROFILES
 10
-3118.841107017001
 20
1713.427839255203
 30
0.0
 42
0.4142135623730951
  0
VERTEX
  5
470
  8
OUTER_PROFILES
 10
-3121.841107017001
 20
1710.427839255203
 30
0.0
 42
0.4142135623730951
  0
VERTEX
  5
471
  8
OUTER_PROFILES
 10
-3118.841107017001
 20
1707.427839255203
 30
0.0
 42
0.4142135623730951
  0
VERTEX
  5
472
  8
OUTER_PROFILES
 10
-3115.841107017001
 20
1710.427839255203
 30
0.0
 42
0.4142135623730951
  0
SEQEND
  5
8B1
  8
OUTER_PROFILES
  0
POLYLINE
  5
113
  8
OUTER_PROFILES
 66
     1
 10
0.0
 20
0.0
 30
0.0
 70
     1
  0
VERTEX
  5
473
  8
OUTER_PROFILES
 10
-3118.841107017001
 20
1751.527839255204
 30
0.0
 42
0.4142135623730951
  0
VERTEX
  5
474
  8
OUTER_PROFILES
 10
-3121.841107017001
 20
1748.527839255204
 30
0.0
 42
0.4142135623730951
  0
VERTEX
  5
475
  8
OUTER_PROFILES
 10
-3118.841107017001
 20
1745.527839255204
 30
0.0
 42
0.4142135623730951
  0
VERTEX
  5
476
  8
OUTER_PROFILES
 10
-3115.841107017001
 20
1748.527839255204
 30
0.0
 42
0.4142135623730951
  0
SEQEND
  5
8B2
  8
OUTER_PROFILES
  0
POLYLINE
  5
114
  8
OUTER_PROFILES
 66
     1
 10
0.0
 20
0.0
 30
0.0
 70
     1
  0
VERTEX
  5
477
  8
OUTER_PROFILES
 10
-2937.374558462068
 20
1891.879841716414
 30
0.0
 42
0.4142135623730951
  0
VERTEX
  5
478
  8
OUTER_PROFILES
 10
-2934.374558462068
 20
1888.879841716414
 30
0.0
 42
0.4142135623730951
  0
VERTEX
  5
479
  8
OUTER_PROFILES
 10
-2931.374558462068
 20
1891.879841716414
 30
0.0
 42
0.4142135623730951
  0
VERTEX
  5
47A
  8
OUTER_PROFILES
 10
-2934.374558462068
 20
1894.879841716414
 30
0.0
 42
0.4142135623730951
  0
SEQEND
  5
8B3
  8
OUTER_PROFILES
  0
POLYLINE
  5
115
  8
OUTER_PROFILES
 66
     1
 10
0.0
 20
0.0
 30
0.0
 70
     1
  0
VERTEX
  5
47B
  8
OUTER_PROFILES
 10
-2914.673482835214
 20
1894.570708748399
 30
0.0
 42
0.4142135623730951
  0
VERTEX
  5
47C
  8
OUTER_PROFILES
 10
-2911.673482835214
 20
1891.570708748399
 30
0.0
 42
0.4142135623730951
  0
VERTEX
  5
47D
  8
OUTER_PROFILES
 10
-2908.673482835214
 20
1894.570708748399
 30
0.0
 42
0.4142135623730951
  0
VERTEX
  5
47E
  8
OUTER_PROFILES
 10
-2911.673482835214
 20
1897.570708748399
 30
0.0
 42
0.4142135623730951
  0
SEQEND
  5
8B4
  8
OUTER_PROFILES
  0
POLYLINE
  5
116
  8
OUTER_PROFILES
 66
     1
 10
0.0
 20
0.0
 30
0.0
 70
     1
  0
VERTEX
  5
47F
  8
OUTER_PROFILES
 10
-2912.432452110112
 20
1875.664606229047
 30
0.0
 42
0.4142135623730951
  0
VERTEX
  5
480
  8
OUTER_PROFILES
 10
-2909.432452110112
 20
1872.664606229047
 30
0.0
 42
0.4142135623730951
  0
VERTEX
  5
481
  8
OUTER_PROFILES
 10
-2906.432452110112
 20
1875.664606229047
 30
0.0
 42
0.4142135623730951
  0
VERTEX
  5
482
  8
OUTER_PROFILES
 10
-2909.432452110112
 20
1878.664606229047
 30
0.0
 42
0.4142135623730951
  0
SEQEND
  5
8B5
  8
OUTER_PROFILES
  0
POLYLINE
  5
117
  8
OUTER_PROFILES
 66
     1
 10
0.0
 20
0.0
 30
0.0
 70
     1
  0
VERTEX
  5
483
  8
OUTER_PROFILES
 10
-2889.634857440304
 20
1876.866142264391
 30
0.0
 42
0.4142135623730951
  0
VERTEX
  5
484
  8
OUTER_PROFILES
 10
-2886.634857440304
 20
1873.866142264391
 30
0.0
 42
0.4142135623730951
  0
VERTEX
  5
485
  8
OUTER_PROFILES
 10
-2883.634857440304
 20
1876.866142264391
 30
0.0
 42
0.4142135623730951
  0
VERTEX
  5
486
  8
OUTER_PROFILES
 10
-2886.634857440304
 20
1879.866142264391
 30
0.0
 42
0.4142135623730951
  0
SEQEND
  5
8B6
  8
OUTER_PROFILES
  0
POLYLINE
  5
118
  8
OUTER_PROFILES
 66
     1
 10
0.0
 20
0.0
 30
0.0
 70
     1
  0
VERTEX
  5
487
  8
OUTER_PROFILES
 10
-2864.51676985882
 20
1857.816142264391
 30
0.0
 42
0.4142135623730951
  0
VERTEX
  5
488
  8
OUTER_PROFILES
 10
-2861.51676985882
 20
1854.816142264391
 30
0.0
 42
0.4142135623730951
  0
VERTEX
  5
489
  8
OUTER_PROFILES
 10
-2858.51676985882
 20
1857.816142264391
 30
0.0
 42
0.4142135623730951
  0
VERTEX
  5
48A
  8
OUTER_PROFILES
 10
-2861.51676985882
 20
1860.816142264391
 30
0.0
 42
0.4142135623730951
  0
SEQEND
  5
8B7
  8
OUTER_PROFILES
  0
POLYLINE
  5
119
  8
OUTER_PROFILES
 66
     1
 10
0.0
 20
0.0
 30
0.0
 70
     1
  0
VERTEX
  5
48B
  8
OUTER_PROFILES
 10
-2866.774857440304
 20
1876.866142264391
 30
0.0
 42
0.4142135623730951
  0
VERTEX
  5
48C
  8
OUTER_PROFILES
 10
-2863.774857440304
 20
1873.866142264391
 30
0.0
 42
0.4142135623730951
  0
VERTEX
  5
48D
  8
OUTER_PROFILES
 10
-2860.774857440304
 20
1876.866142264391
 30
0.0
 42
0.4142135623730951
  0
VERTEX
  5
48E
  8
OUTER_PROFILES
 10
-2863.774857440304
 20
1879.866142264391
 30
0.0
 42
0.4142135623730951
  0
SEQEND
  5
8B8
  8
OUTER_PROFILES
  0
POLYLINE
  5
11A
  8
OUTER_PROFILES
 66
     1
 10
0.0
 20
0.0
 30
0.0
 70
     1
  0
VERTEX
  5
48F
  8
OUTER_PROFILES
 10
-2869.032945021786
 20
1895.916142264391
 30
0.0
 42
0.4142135623730951
  0
VERTEX
  5
490
  8
OUTER_PROFILES
 10
-2866.032945021786
 20
1892.916142264391
 30
0.0
 42
0.4142135623730951
  0
VERTEX
  5
491
  8
OUTER_PROFILES
 10
-2863.032945021786
 20
1895.916142264391
 30
0.0
 42
0.4142135623730951
  0
VERTEX
  5
492
  8
OUTER_PROFILES
 10
-2866.032945021786
 20
1898.916142264391
 30
0.0
 42
0.4142135623730951
  0
SEQEND
  5
8B9
  8
OUTER_PROFILES
  0
POLYLINE
  5
11B
  8
OUTER_PROFILES
 66
     1
 10
0.0
 20
0.0
 30
0.0
 70
     1
  0
VERTEX
  5
493
  8
OUTER_PROFILES
 10
-2891.892945021787
 20
1895.916142264391
 30
0.0
 42
0.4142135623730951
  0
VERTEX
  5
494
  8
OUTER_PROFILES
 10
-2888.892945021787
 20
1892.916142264391
 30
0.0
 42
0.4142135623730951
  0
VERTEX
  5
495
  8
OUTER_PROFILES
 10
-2885.892945021787
 20
1895.916142264391
 30
0.0
 42
0.4142135623730951
  0
VERTEX
  5
496
  8
OUTER_PROFILES
 10
-2888.892945021787
 20
1898.916142264391
 30
0.0
 42
0.4142135623730951
  0
SEQEND
  5
8BA
  8
OUTER_PROFILES
  0
POLYLINE
  5
11C
  8
OUTER_PROFILES
 66
     1
 10
0.0
 20
0.0
 30
0.0
 70
     1
  0
VERTEX
  5
497
  8
OUTER_PROFILES
 10
-2887.37676985882
 20
1857.816142264391
 30
0.0
 42
0.4142135623730951
  0
VERTEX
  5
498
  8
OUTER_PROFILES
 10
-2884.37676985882
 20
1854.816142264391
 30
0.0
 42
0.4142135623730951
  0
VERTEX
  5
499
  8
OUTER_PROFILES
 10
-2881.37676985882
 20
1857.816142264391
 30
0.0
 42
0.4142135623730951
  0
VERTEX
  5
49A
  8
OUTER_PROFILES
 10
-2884.37676985882
 20
1860.816142264391
 30
0.0
 42
0.4142135623730951
  0
SEQEND
  5
8BB
  8
OUTER_PROFILES
  0
POLYLINE
  5
11D
  8
OUTER_PROFILES
 66
     1
 10
0.0
 20
0.0
 30
0.0
 70
     1
  0
VERTEX
  5
49B
  8
OUTER_PROFILES
 10
-2891.892945021787
 20
1711.416142264391
 30
0.0
 42
0.4142135623730951
  0
VERTEX
  5
49C
  8
OUTER_PROFILES
 10
-2888.892945021787
 20
1708.416142264391
 30
0.0
 42
0.4142135623730951
  0
VERTEX
  5
49D
  8
OUTER_PROFILES
 10
-2885.892945021787
 20
1711.416142264391
 30
0.0
 42
0.4142135623730951
  0
VERTEX
  5
49E
  8
OUTER_PROFILES
 10
-2888.892945021787
 20
1714.416142264391
 30
0.0
 42
0.4142135623730951
  0
SEQEND
  5
8BC
  8
OUTER_PROFILES
  0
POLYLINE
  5
11E
  8
OUTER_PROFILES
 66
     1
 10
0.0
 20
0.0
 30
0.0
 70
     1
  0
VERTEX
  5
49F
  8
OUTER_PROFILES
 10
-2889.634857440304
 20
1730.466142264391
 30
0.0
 42
0.4142135623730951
  0
VERTEX
  5
4A0
  8
OUTER_PROFILES
 10
-2886.634857440304
 20
1727.466142264391
 30
0.0
 42
0.4142135623730951
  0
VERTEX
  5
4A1
  8
OUTER_PROFILES
 10
-2883.634857440304
 20
1730.466142264391
 30
0.0
 42
0.4142135623730951
  0
VERTEX
  5
4A2
  8
OUTER_PROFILES
 10
-2886.634857440304
 20
1733.466142264391
 30
0.0
 42
0.4142135623730951
  0
SEQEND
  5
8BD
  8
OUTER_PROFILES
  0
POLYLINE
  5
11F
  8
OUTER_PROFILES
 66
     1
 10
0.0
 20
0.0
 30
0.0
 70
     1
  0
VERTEX
  5
4A3
  8
OUTER_PROFILES
 10
-2887.37676985882
 20
1749.516142264391
 30
0.0
 42
0.4142135623730951
  0
VERTEX
  5
4A4
  8
OUTER_PROFILES
 10
-2884.37676985882
 20
1746.516142264391
 30
0.0
 42
0.4142135623730951
  0
VERTEX
  5
4A5
  8
OUTER_PROFILES
 10
-2881.37676985882
 20
1749.516142264391
 30
0.0
 42
0.4142135623730951
  0
VERTEX
  5
4A6
  8
OUTER_PROFILES
 10
-2884.37676985882
 20
1752.516142264391
 30
0.0
 42
0.4142135623730951
  0
SEQEND
  5
8BE
  8
OUTER_PROFILES
  0
POLYLINE
  5
120
  8
OUTER_PROFILES
 66
     1
 10
0.0
 20
0.0
 30
0.0
 70
     1
  0
VERTEX
  5
4A7
  8
OUTER_PROFILES
 10
-2914.673482835214
 20
1712.761575780384
 30
0.0
 42
0.4142135623730951
  0
VERTEX
  5
4A8
  8
OUTER_PROFILES
 10
-2911.673482835214
 20
1709.761575780384
 30
0.0
 42
0.4142135623730951
  0
VERTEX
  5
4A9
  8
OUTER_PROFILES
 10
-2908.673482835214
 20
1712.761575780384
 30
0.0
 42
0.4142135623730951
  0
VERTEX
  5
4AA
  8
OUTER_PROFILES
 10
-2911.673482835214
 20
1715.761575780384
 30
0.0
 42
0.4142135623730951
  0
SEQEND
  5
8BF
  8
OUTER_PROFILES
  0
POLYLINE
  5
121
  8
OUTER_PROFILES
 66
     1
 10
0.0
 20
0.0
 30
0.0
 70
     1
  0
VERTEX
  5
4AB
  8
OUTER_PROFILES
 10
-2912.432452110112
 20
1731.667678299735
 30
0.0
 42
0.4142135623730951
  0
VERTEX
  5
4AC
  8
OUTER_PROFILES
 10
-2909.432452110112
 20
1728.667678299735
 30
0.0
 42
0.4142135623730951
  0
VERTEX
  5
4AD
  8
OUTER_PROFILES
 10
-2906.432452110112
 20
1731.667678299735
 30
0.0
 42
0.4142135623730951
  0
VERTEX
  5
4AE
  8
OUTER_PROFILES
 10
-2909.432452110112
 20
1734.667678299735
 30
0.0
 42
0.4142135623730951
  0
SEQEND
  5
8C0
  8
OUTER_PROFILES
  0
POLYLINE
  5
122
  8
OUTER_PROFILES
 66
     1
 10
0.0
 20
0.0
 30
0.0
 70
     1
  0
VERTEX
  5
4AF
  8
OUTER_PROFILES
 10
-2937.374558462069
 20
1715.452442812368
 30
0.0
 42
0.4142135623730951
  0
VERTEX
  5
4B0
  8
OUTER_PROFILES
 10
-2934.374558462069
 20
1712.452442812368
 30
0.0
 42
0.4142135623730951
  0
VERTEX
  5
4B1
  8
OUTER_PROFILES
 10
-2931.374558462069
 20
1715.452442812368
 30
0.0
 42
0.4142135623730951
  0
VERTEX
  5
4B2
  8
OUTER_PROFILES
 10
-2934.374558462069
 20
1718.452442812368
 30
0.0
 42
0.4142135623730951
  0
SEQEND
  5
8C1
  8
OUTER_PROFILES
  0
POLYLINE
  5
123
  8
OUTER_PROFILES
 66
     1
 10
0.0
 20
0.0
 30
0.0
 70
     1
  0
VERTEX
  5
4B3
  8
OUTER_PROFILES
 10
-2864.51676985882
 20
1749.516142264391
 30
0.0
 42
0.4142135623730951
  0
VERTEX
  5
4B4
  8
OUTER_PROFILES
 10
-2861.51676985882
 20
1746.516142264391
 30
0.0
 42
0.4142135623730951
  0
VERTEX
  5
4B5
  8
OUTER_PROFILES
 10
-2858.51676985882
 20
1749.516142264391
 30
0.0
 42
0.4142135623730951
  0
VERTEX
  5
4B6
  8
OUTER_PROFILES
 10
-2861.51676985882
 20
1752.516142264391
 30
0.0
 42
0.4142135623730951
  0
SEQEND
  5
8C2
  8
OUTER_PROFILES
  0
POLYLINE
  5
124
  8
OUTER_PROFILES
 66
     1
 10
0.0
 20
0.0
 30
0.0
 70
     1
  0
VERTEX
  5
4B7
  8
OUTER_PROFILES
 10
-2866.774857440304
 20
1730.466142264391
 30
0.0
 42
0.4142135623730951
  0
VERTEX
  5
4B8
  8
OUTER_PROFILES
 10
-2863.774857440304
 20
1727.466142264391
 30
0.0
 42
0.4142135623730951
  0
VERTEX
  5
4B9
  8
OUTER_PROFILES
 10
-2860.774857440304
 20
1730.466142264391
 30
0.0
 42
0.4142135623730951
  0
VERTEX
  5
4BA
  8
OUTER_PROFILES
 10
-2863.774857440304
 20
1733.466142264391
 30
0.0
 42
0.4142135623730951
  0
SEQEND
  5
8C3
  8
OUTER_PROFILES
  0
POLYLINE
  5
125
  8
OUTER_PROFILES
 66
     1
 10
0.0
 20
0.0
 30
0.0
 70
     1
  0
VERTEX
  5
4BB
  8
OUTER_PROFILES
 10
-2869.032945021786
 20
1711.416142264391
 30
0.0
 42
0.4142135623730951
  0
VERTEX
  5
4BC
  8
OUTER_PROFILES
 10
-2866.032945021786
 20
1708.416142264391
 30
0.0
 42
0.4142135623730951
  0
VERTEX
  5
4BD
  8
OUTER_PROFILES
 10
-2863.032945021786
 20
1711.416142264391
 30
0.0
 42
0.4142135623730951
  0
VERTEX
  5
4BE
  8
OUTER_PROFILES
 10
-2866.032945021786
 20
1714.416142264391
 30
0.0
 42
0.4142135623730951
  0
SEQEND
  5
8C4
  8
OUTER_PROFILES
  0
POLYLINE
  5
126
  8
OUTER_PROFILES
 66
     1
 10
0.0
 20
0.0
 30
0.0
 70
     1
  0
VERTEX
  5
4BF
  8
OUTER_PROFILES
 10
-3022.677625975718
 20
1899.975240149965
 30
0.0
 42
0.4142135623730951
  0
VERTEX
  5
4C0
  8
OUTER_PROFILES
 10
-3025.686133208281
 20
1902.966708724364
 30
0.0
 42
0.4142135623730951
  0
VERTEX
  5
4C1
  8
OUTER_PROFILES
 10
-3028.677601782681
 20
1899.958201491802
 30
0.0
 42
0.4142135623730951
  0
VERTEX
  5
4C2
  8
OUTER_PROFILES
 10
-3025.669094550119
 20
1896.966732917402
 30
0.0
 42
0.4142135623730951
  0
SEQEND
  5
8C5
  8
OUTER_PROFILES
  0
POLYLINE
  5
127
  8
OUTER_PROFILES
 66
     1
 10
0.0
 20
0.0
 30
0.0
 70
     1
  0
VERTEX
  5
4C3
  8
OUTER_PROFILES
 10
-3023.12368643317
 20
1709.916673842594
 30
0.0
 42
0.4142135623730951
  0
VERTEX
  5
4C4
  8
OUTER_PROFILES
 10
-3026.12368643317
 20
1712.916673842594
 30
0.0
 42
0.4142135623730951
  0
VERTEX
  5
4C5
  8
OUTER_PROFILES
 10
-3029.12368643317
 20
1709.916673842594
 30
0.0
 42
0.4142135623730951
  0
VERTEX
  5
4C6
  8
OUTER_PROFILES
 10
-3026.12368643317
 20
1706.916673842594
 30
0.0
 42
0.4142135623730951
  0
SEQEND
  5
8C6
  8
OUTER_PROFILES
  0
POLYLINE
  5
128
  8
OUTER_PROFILES
 66
     1
 10
0.0
 20
0.0
 30
0.0
 70
     1
  0
VERTEX
  5
4C7
  8
OUTER_PROFILES
 10
-3045.824762060025
 20
1707.22580681061
 30
0.0
 42
0.4142135623730951
  0
VERTEX
  5
4C8
  8
OUTER_PROFILES
 10
-3048.824762060025
 20
1710.22580681061
 30
0.0
 42
0.4142135623730951
  0
VERTEX
  5
4C9
  8
OUTER_PROFILES
 10
-3051.824762060025
 20
1707.22580681061
 30
0.0
 42
0.4142135623730951
  0
VERTEX
  5
4CA
  8
OUTER_PROFILES
 10
-3048.824762060025
 20
1704.22580681061
 30
0.0
 42
0.4142135623730951
  0
SEQEND
  5
8C7
  8
OUTER_PROFILES
  0
POLYLINE
  5
129
  8
OUTER_PROFILES
 66
     1
 10
0.0
 20
0.0
 30
0.0
 70
     1
  0
VERTEX
  5
4CB
  8
OUTER_PROFILES
 10
-3045.386251528495
 20
1902.601630353987
 30
0.0
 42
0.4142135623730951
  0
VERTEX
  5
4CC
  8
OUTER_PROFILES
 10
-3048.394758761057
 20
1905.593098928387
 30
0.0
 42
0.4142135623730951
  0
VERTEX
  5
4CD
  8
OUTER_PROFILES
 10
-3051.386227335457
 20
1902.584591695825
 30
0.0
 42
0.4142135623730951
  0
VERTEX
  5
4CE
  8
OUTER_PROFILES
 10
-3048.377720102895
 20
1899.593123121425
 30
0.0
 42
0.4142135623730951
  0
SEQEND
  5
8C8
  8
OUTER_PROFILES
  0
POLYLINE
  5
12A
  8
OUTER_PROFILES
 66
     1
 10
0.0
 20
0.0
 30
0.0
 70
     1
  0
VERTEX
  5
4CF
  8
OUTER_PROFILES
 10
-3024.881606712536
 20
1880.918904499127
 30
0.0
 42
0.4142135623730951
  0
VERTEX
  5
4D0
  8
OUTER_PROFILES
 10
-3027.890113945099
 20
1883.910373073527
 30
0.0
 42
0.4142135623730951
  0
VERTEX
  5
4D1
  8
OUTER_PROFILES
 10
-3030.881582519498
 20
1880.901865840965
 30
0.0
 42
0.4142135623730951
  0
VERTEX
  5
4D2
  8
OUTER_PROFILES
 10
-3027.873075286936
 20
1877.910397266565
 30
0.0
 42
0.4142135623730951
  0
SEQEND
  5
8C9
  8
OUTER_PROFILES
  0
POLYLINE
  5
12B
  8
OUTER_PROFILES
 66
     1
 10
0.0
 20
0.0
 30
0.0
 70
     1
  0
VERTEX
  5
4D3
  8
OUTER_PROFILES
 10
-3025.381774014653
 20
1728.966673842594
 30
0.0
 42
0.4142135623730951
  0
VERTEX
  5
4D4
  8
OUTER_PROFILES
 10
-3028.381774014653
 20
1731.966673842594
 30
0.0
 42
0.4142135623730951
  0
VERTEX
  5
4D5
  8
OUTER_PROFILES
 10
-3031.381774014653
 20
1728.966673842594
 30
0.0
 42
0.4142135623730951
  0
VERTEX
  5
4D6
  8
OUTER_PROFILES
 10
-3028.381774014653
 20
1725.966673842594
 30
0.0
 42
0.4142135623730951
  0
SEQEND
  5
8CA
  8
OUTER_PROFILES
  0
POLYLINE
  5
12C
  8
OUTER_PROFILES
 66
     1
 10
0.0
 20
0.0
 30
0.0
 70
     1
  0
VERTEX
  5
4D7
  8
OUTER_PROFILES
 10
-3007.31526022628
 20
1750.425846018545
 30
0.0
 42
0.4142135623730951
  0
VERTEX
  5
4D8
  8
OUTER_PROFILES
 10
-3010.31526022628
 20
1753.425846018545
 30
0.0
 42
0.4142135623730951
  0
VERTEX
  5
4D9
  8
OUTER_PROFILES
 10
-3013.31526022628
 20
1750.425846018545
 30
0.0
 42
0.4142135623730951
  0
VERTEX
  5
4DA
  8
OUTER_PROFILES
 10
-3010.31526022628
 20
1747.425846018545
 30
0.0
 42
0.4142135623730951
  0
SEQEND
  5
8CB
  8
OUTER_PROFILES
  0
POLYLINE
  5
12D
  8
OUTER_PROFILES
 66
     1
 10
0.0
 20
0.0
 30
0.0
 70
     1
  0
VERTEX
  5
4DB
  8
OUTER_PROFILES
 10
-3005.057172644797
 20
1731.375846018545
 30
0.0
 42
0.4142135623730951
  0
VERTEX
  5
4DC
  8
OUTER_PROFILES
 10
-3008.057172644797
 20
1734.375846018545
 30
0.0
 42
0.4142135623730951
  0
VERTEX
  5
4DD
  8
OUTER_PROFILES
 10
-3011.057172644797
 20
1731.375846018545
 30
0.0
 42
0.4142135623730951
  0
VERTEX
  5
4DE
  8
OUTER_PROFILES
 10
-3008.057172644797
 20
1728.375846018545
 30
0.0
 42
0.4142135623730951
  0
SEQEND
  5
8CC
  8
OUTER_PROFILES
  0
POLYLINE
  5
12E
  8
OUTER_PROFILES
 66
     1
 10
0.0
 20
0.0
 30
0.0
 70
     1
  0
VERTEX
  5
4DF
  8
OUTER_PROFILES
 10
-2982.197172644797
 20
1731.375846018545
 30
0.0
 42
0.4142135623730951
  0
VERTEX
  5
4E0
  8
OUTER_PROFILES
 10
-2985.197172644797
 20
1734.375846018545
 30
0.0
 42
0.4142135623730951
  0
VERTEX
  5
4E1
  8
OUTER_PROFILES
 10
-2988.197172644797
 20
1731.375846018545
 30
0.0
 42
0.4142135623730951
  0
VERTEX
  5
4E2
  8
OUTER_PROFILES
 10
-2985.197172644797
 20
1728.375846018545
 30
0.0
 42
0.4142135623730951
  0
SEQEND
  5
8CD
  8
OUTER_PROFILES
  0
POLYLINE
  5
12F
  8
OUTER_PROFILES
 66
     1
 10
0.0
 20
0.0
 30
0.0
 70
     1
  0
VERTEX
  5
4E3
  8
OUTER_PROFILES
 10
-2982.197172644797
 20
1877.775846018546
 30
0.0
 42
0.4142135623730951
  0
VERTEX
  5
4E4
  8
OUTER_PROFILES
 10
-2985.197172644797
 20
1880.775846018546
 30
0.0
 42
0.4142135623730951
  0
VERTEX
  5
4E5
  8
OUTER_PROFILES
 10
-2988.197172644797
 20
1877.775846018546
 30
0.0
 42
0.4142135623730951
  0
VERTEX
  5
4E6
  8
OUTER_PROFILES
 10
-2985.197172644797
 20
1874.775846018546
 30
0.0
 42
0.4142135623730951
  0
SEQEND
  5
8CE
  8
OUTER_PROFILES
  0
POLYLINE
  5
130
  8
OUTER_PROFILES
 66
     1
 10
0.0
 20
0.0
 30
0.0
 70
     1
  0
VERTEX
  5
4E7
  8
OUTER_PROFILES
 10
-2984.45526022628
 20
1858.725846018545
 30
0.0
 42
0.4142135623730951
  0
VERTEX
  5
4E8
  8
OUTER_PROFILES
 10
-2987.45526022628
 20
1861.725846018545
 30
0.0
 42
0.4142135623730951
  0
VERTEX
  5
4E9
  8
OUTER_PROFILES
 10
-2990.45526022628
 20
1858.725846018545
 30
0.0
 42
0.4142135623730951
  0
VERTEX
  5
4EA
  8
OUTER_PROFILES
 10
-2987.45526022628
 20
1855.725846018545
 30
0.0
 42
0.4142135623730951
  0
SEQEND
  5
8CF
  8
OUTER_PROFILES
  0
POLYLINE
  5
131
  8
OUTER_PROFILES
 66
     1
 10
0.0
 20
0.0
 30
0.0
 70
     1
  0
VERTEX
  5
4EB
  8
OUTER_PROFILES
 10
-3002.799085063314
 20
1896.825846018545
 30
0.0
 42
0.4142135623730951
  0
VERTEX
  5
4EC
  8
OUTER_PROFILES
 10
-3005.799085063314
 20
1899.825846018545
 30
0.0
 42
0.4142135623730951
  0
VERTEX
  5
4ED
  8
OUTER_PROFILES
 10
-3008.799085063314
 20
1896.825846018545
 30
0.0
 42
0.4142135623730951
  0
VERTEX
  5
4EE
  8
OUTER_PROFILES
 10
-3005.799085063314
 20
1893.825846018545
 30
0.0
 42
0.4142135623730951
  0
SEQEND
  5
8D0
  8
OUTER_PROFILES
  0
POLYLINE
  5
132
  8
OUTER_PROFILES
 66
     1
 10
0.0
 20
0.0
 30
0.0
 70
     1
  0
VERTEX
  5
4EF
  8
OUTER_PROFILES
 10
-3002.799085063314
 20
1712.325846018546
 30
0.0
 42
0.4142135623730951
  0
VERTEX
  5
4F0
  8
OUTER_PROFILES
 10
-3005.799085063314
 20
1715.325846018546
 30
0.0
 42
0.4142135623730951
  0
VERTEX
  5
4F1
  8
OUTER_PROFILES
 10
-3008.799085063314
 20
1712.325846018546
 30
0.0
 42
0.4142135623730951
  0
VERTEX
  5
4F2
  8
OUTER_PROFILES
 10
-3005.799085063314
 20
1709.325846018546
 30
0.0
 42
0.4142135623730951
  0
SEQEND
  5
8D1
  8
OUTER_PROFILES
  0
POLYLINE
  5
133
  8
OUTER_PROFILES
 66
     1
 10
0.0
 20
0.0
 30
0.0
 70
     1
  0
VERTEX
  5
4F3
  8
OUTER_PROFILES
 10
-2979.939085063314
 20
1896.825846018545
 30
0.0
 42
0.4142135623730951
  0
VERTEX
  5
4F4
  8
OUTER_PROFILES
 10
-2982.939085063314
 20
1899.825846018545
 30
0.0
 42
0.4142135623730951
  0
VERTEX
  5
4F5
  8
OUTER_PROFILES
 10
-2985.939085063314
 20
1896.825846018545
 30
0.0
 42
0.4142135623730951
  0
VERTEX
  5
4F6
  8
OUTER_PROFILES
 10
-2982.939085063314
 20
1893.825846018545
 30
0.0
 42
0.4142135623730951
  0
SEQEND
  5
8D2
  8
OUTER_PROFILES
  0
POLYLINE
  5
134
  8
OUTER_PROFILES
 66
     1
 10
0.0
 20
0.0
 30
0.0
 70
     1
  0
VERTEX
  5
4F7
  8
OUTER_PROFILES
 10
-3007.31526022628
 20
1858.725846018545
 30
0.0
 42
0.4142135623730951
  0
VERTEX
  5
4F8
  8
OUTER_PROFILES
 10
-3010.31526022628
 20
1861.725846018545
 30
0.0
 42
0.4142135623730951
  0
VERTEX
  5
4F9
  8
OUTER_PROFILES
 10
-3013.31526022628
 20
1858.725846018545
 30
0.0
 42
0.4142135623730951
  0
VERTEX
  5
4FA
  8
OUTER_PROFILES
 10
-3010.31526022628
 20
1855.725846018545
 30
0.0
 42
0.4142135623730951
  0
SEQEND
  5
8D3
  8
OUTER_PROFILES
  0
POLYLINE
  5
135
  8
OUTER_PROFILES
 66
     1
 10
0.0
 20
0.0
 30
0.0
 70
     1
  0
VERTEX
  5
4FB
  8
OUTER_PROFILES
 10
-3005.057172644797
 20
1877.775846018546
 30
0.0
 42
0.4142135623730951
  0
VERTEX
  5
4FC
  8
OUTER_PROFILES
 10
-3008.057172644797
 20
1880.775846018546
 30
0.0
 42
0.4142135623730951
  0
VERTEX
  5
4FD
  8
OUTER_PROFILES
 10
-3011.057172644797
 20
1877.775846018546
 30
0.0
 42
0.4142135623730951
  0
VERTEX
  5
4FE
  8
OUTER_PROFILES
 10
-3008.057172644797
 20
1874.775846018546
 30
0.0
 42
0.4142135623730951
  0
SEQEND
  5
8D4
  8
OUTER_PROFILES
  0
POLYLINE
  5
136
  8
OUTER_PROFILES
 66
     1
 10
0.0
 20
0.0
 30
0.0
 70
     1
  0
VERTEX
  5
4FF
  8
OUTER_PROFILES
 10
-2979.939085063314
 20
1712.325846018545
 30
0.0
 42
0.4142135623730951
  0
VERTEX
  5
500
  8
OUTER_PROFILES
 10
-2982.939085063314
 20
1715.325846018545
 30
0.0
 42
0.4142135623730951
  0
VERTEX
  5
501
  8
OUTER_PROFILES
 10
-2985.939085063314
 20
1712.325846018545
 30
0.0
 42
0.4142135623730951
  0
VERTEX
  5
502
  8
OUTER_PROFILES
 10
-2982.939085063314
 20
1709.325846018545
 30
0.0
 42
0.4142135623730951
  0
SEQEND
  5
8D5
  8
OUTER_PROFILES
  0
POLYLINE
  5
137
  8
OUTER_PROFILES
 66
     1
 10
0.0
 20
0.0
 30
0.0
 70
     1
  0
VERTEX
  5
503
  8
OUTER_PROFILES
 10
-2984.45526022628
 20
1750.425846018545
 30
0.0
 42
0.4142135623730951
  0
VERTEX
  5
504
  8
OUTER_PROFILES
 10
-2987.45526022628
 20
1753.425846018545
 30
0.0
 42
0.4142135623730951
  0
VERTEX
  5
505
  8
OUTER_PROFILES
 10
-2990.45526022628
 20
1750.425846018545
 30
0.0
 42
0.4142135623730951
  0
VERTEX
  5
506
  8
OUTER_PROFILES
 10
-2987.45526022628
 20
1747.425846018545
 30
0.0
 42
0.4142135623730951
  0
SEQEND
  5
8D6
  8
OUTER_PROFILES
  0
POLYLINE
  5
138
  8
OUTER_PROFILES
 66
     1
 10
0.0
 20
0.0
 30
0.0
 70
     1
  0
VERTEX
  5
507
  8
OUTER_PROFILES
 10
-3363.666234277646
 20
1806.949900514303
 30
0.0
 42
0.4142135623730951
  0
VERTEX
  5
508
  8
OUTER_PROFILES
 10
-3366.657702852046
 20
1803.941393281741
 30
0.0
 42
0.4142135623730951
  0
VERTEX
  5
509
  8
OUTER_PROFILES
 10
-3363.649195619484
 20
1800.949924707341
 30
0.0
 42
0.4142135623730951
  0
VERTEX
  5
50A
  8
OUTER_PROFILES
 10
-3360.657727045084
 20
1803.958431939903
 30
0.0
 42
0.4142135623730951
  0
SEQEND
  5
8D7
  8
OUTER_PROFILES
  0
POLYLINE
  5
139
  8
OUTER_PROFILES
 66
     1
 10
0.0
 20
0.0
 30
0.0
 70
     1
  0
VERTEX
  5
50B
  8
OUTER_PROFILES
 10
-3385.707076145764
 20
1828.002968930679
 30
0.0
 42
0.4142135623730951
  0
VERTEX
  5
50C
  8
OUTER_PROFILES
 10
-3388.698544720164
 20
1824.994461698117
 30
0.0
 42
0.4142135623730951
  0
VERTEX
  5
50D
  8
OUTER_PROFILES
 10
-3385.690037487602
 20
1822.002993123717
 30
0.0
 42
0.4142135623730951
  0
VERTEX
  5
50E
  8
OUTER_PROFILES
 10
-3382.698568913203
 20
1825.011500356279
 30
0.0
 42
0.4142135623730951
  0
SEQEND
  5
8D8
  8
OUTER_PROFILES
  0
POLYLINE
  5
13A
  8
OUTER_PROFILES
 66
     1
 10
0.0
 20
0.0
 30
0.0
 70
     1
  0
VERTEX
  5
50F
  8
OUTER_PROFILES
 10
-3385.490665558907
 20
1785.197418052489
 30
0.0
 42
0.4142135623730951
  0
VERTEX
  5
510
  8
OUTER_PROFILES
 10
-3388.490665558907
 20
1782.197418052489
 30
0.0
 42
0.4142135623730951
  0
VERTEX
  5
511
  8
OUTER_PROFILES
 10
-3385.490665558907
 20
1779.197418052489
 30
0.0
 42
0.4142135623730951
  0
VERTEX
  5
512
  8
OUTER_PROFILES
 10
-3382.490665558907
 20
1782.197418052489
 30
0.0
 42
0.4142135623730951
  0
SEQEND
  5
8D9
  8
OUTER_PROFILES
  0
POLYLINE
  5
13B
  8
OUTER_PROFILES
 66
     1
 10
0.0
 20
0.0
 30
0.0
 70
     1
  0
VERTEX
  5
513
  8
OUTER_PROFILES
 10
-3342.394123980818
 20
1786.062810453654
 30
0.0
 42
0.4142135623730951
  0
VERTEX
  5
514
  8
OUTER_PROFILES
 10
-3345.394123980818
 20
1783.062810453654
 30
0.0
 42
0.4142135623730951
  0
VERTEX
  5
515
  8
OUTER_PROFILES
 10
-3342.394123980818
 20
1780.062810453654
 30
0.0
 42
0.4142135623730951
  0
VERTEX
  5
516
  8
OUTER_PROFILES
 10
-3339.394123980818
 20
1783.062810453654
 30
0.0
 42
0.4142135623730951
  0
SEQEND
  5
8DA
  8
OUTER_PROFILES
  0
POLYLINE
  5
13C
  8
OUTER_PROFILES
 66
     1
 10
0.0
 20
0.0
 30
0.0
 70
     1
  0
VERTEX
  5
517
  8
OUTER_PROFILES
 10
-3342.61316586127
 20
1828.990742382421
 30
0.0
 42
0.4142135623730951
  0
VERTEX
  5
518
  8
OUTER_PROFILES
 10
-3345.60463443567
 20
1825.982235149859
 30
0.0
 42
0.4142135623730951
  0
VERTEX
  5
519
  8
OUTER_PROFILES
 10
-3342.596127203108
 20
1822.990766575459
 30
0.0
 42
0.4142135623730951
  0
VERTEX
  5
51A
  8
OUTER_PROFILES
 10
-3339.604658628708
 20
1825.999273808021
 30
0.0
 42
0.4142135623730951
  0
SEQEND
  5
8DB
  8
OUTER_PROFILES
  0
POLYLINE
  5
13D
  8
OUTER_PROFILES
 66
     1
 10
0.0
 20
0.0
 30
0.0
 70
     1
  0
VERTEX
  5
51B
  8
OUTER_PROFILES
 10
-3311.095018350717
 20
1860.682771009066
 30
0.0
 42
0.4142135623730951
  0
VERTEX
  5
51C
  8
OUTER_PROFILES
 10
-3314.086486925117
 20
1857.674263776504
 30
0.0
 42
0.4142135623730951
  0
VERTEX
  5
51D
  8
OUTER_PROFILES
 10
-3311.077979692554
 20
1854.682795202104
 30
0.0
 42
0.4142135623730951
  0
VERTEX
  5
51E
  8
OUTER_PROFILES
 10
-3308.086511118155
 20
1857.691302434666
 30
0.0
 42
0.4142135623730951
  0
SEQEND
  5
8DC
  8
OUTER_PROFILES
  0
POLYLINE
  5
13E
  8
OUTER_PROFILES
 66
     1
 10
0.0
 20
0.0
 30
0.0
 70
     1
  0
VERTEX
  5
51F
  8
OUTER_PROFILES
 10
-3267.996157173556
 20
1859.941849129401
 30
0.0
 42
0.4142135623730951
  0
VERTEX
  5
520
  8
OUTER_PROFILES
 10
-3270.987625747955
 20
1856.933341896839
 30
0.0
 42
0.4142135623730951
  0
VERTEX
  5
521
  8
OUTER_PROFILES
 10
-3267.979118515393
 20
1853.941873322439
 30
0.0
 42
0.4142135623730951
  0
VERTEX
  5
522
  8
OUTER_PROFILES
 10
-3264.987649940993
 20
1856.950380555001
 30
0.0
 42
0.4142135623730951
  0
SEQEND
  5
8DD
  8
OUTER_PROFILES
  0
POLYLINE
  5
13F
  8
OUTER_PROFILES
 66
     1
 10
0.0
 20
0.0
 30
0.0
 70
     1
  0
VERTEX
  5
523
  8
OUTER_PROFILES
 10
-3267.255235293891
 20
1903.040710306562
 30
0.0
 42
0.4142135623730951
  0
VERTEX
  5
524
  8
OUTER_PROFILES
 10
-3270.246703868291
 20
1900.032203074
 30
0.0
 42
0.4142135623730951
  0
VERTEX
  5
525
  8
OUTER_PROFILES
 10
-3267.238196635728
 20
1897.040734499601
 30
0.0
 42
0.4142135623730951
  0
VERTEX
  5
526
  8
OUTER_PROFILES
 10
-3264.246728061329
 20
1900.049241732163
 30
0.0
 42
0.4142135623730951
  0
SEQEND
  5
8DE
  8
OUTER_PROFILES
  0
POLYLINE
  5
140
  8
OUTER_PROFILES
 66
     1
 10
0.0
 20
0.0
 30
0.0
 70
     1
  0
VERTEX
  5
527
  8
OUTER_PROFILES
 10
-3210.866850393683
 20
1807.38381834217
 30
0.0
 42
0.4142135623730951
  0
VERTEX
  5
528
  8
OUTER_PROFILES
 10
-3213.858318968083
 20
1804.375311109608
 30
0.0
 42
0.4142135623730951
  0
VERTEX
  5
529
  8
OUTER_PROFILES
 10
-3210.849811735521
 20
1801.383842535208
 30
0.0
 42
0.4142135623730951
  0
VERTEX
  5
52A
  8
OUTER_PROFILES
 10
-3207.858343161121
 20
1804.39234976777
 30
0.0
 42
0.4142135623730951
  0
SEQEND
  5
8DF
  8
OUTER_PROFILES
  0
POLYLINE
  5
141
  8
OUTER_PROFILES
 66
     1
 10
0.0
 20
0.0
 30
0.0
 70
     1
  0
VERTEX
  5
52B
  8
OUTER_PROFILES
 10
-3189.813781977308
 20
1829.424660210288
 30
0.0
 42
0.4142135623730951
  0
VERTEX
  5
52C
  8
OUTER_PROFILES
 10
-3192.805250551707
 20
1826.416152977726
 30
0.0
 42
0.4142135623730951
  0
VERTEX
  5
52D
  8
OUTER_PROFILES
 10
-3189.796743319145
 20
1823.424684403327
 30
0.0
 42
0.4142135623730951
  0
VERTEX
  5
52E
  8
OUTER_PROFILES
 10
-3186.805274744745
 20
1826.433191635889
 30
0.0
 42
0.4142135623730951
  0
SEQEND
  5
8E0
  8
OUTER_PROFILES
  0
POLYLINE
  5
142
  8
OUTER_PROFILES
 66
     1
 10
0.0
 20
0.0
 30
0.0
 70
     1
  0
VERTEX
  5
52F
  8
OUTER_PROFILES
 10
-3189.594123980818
 20
1786.062810453654
 30
0.0
 42
0.4142135623730951
  0
VERTEX
  5
530
  8
OUTER_PROFILES
 10
-3192.594123980818
 20
1783.062810453654
 30
0.0
 42
0.4142135623730951
  0
VERTEX
  5
531
  8
OUTER_PROFILES
 10
-3189.594123980818
 20
1780.062810453654
 30
0.0
 42
0.4142135623730951
  0
VERTEX
  5
532
  8
OUTER_PROFILES
 10
-3186.594123980818
 20
1783.062810453654
 30
0.0
 42
0.4142135623730951
  0
SEQEND
  5
8E1
  8
OUTER_PROFILES
  0
POLYLINE
  5
143
  8
OUTER_PROFILES
 66
     1
 10
0.0
 20
0.0
 30
0.0
 70
     1
  0
VERTEX
  5
533
  8
OUTER_PROFILES
 10
-3310.354096471052
 20
1903.781632186227
 30
0.0
 42
0.4142135623730951
  0
VERTEX
  5
534
  8
OUTER_PROFILES
 10
-3313.345565045452
 20
1900.773124953665
 30
0.0
 42
0.4142135623730951
  0
VERTEX
  5
535
  8
OUTER_PROFILES
 10
-3310.33705781289
 20
1897.781656379265
 30
0.0
 42
0.4142135623730951
  0
VERTEX
  5
536
  8
OUTER_PROFILES
 10
-3307.34558923849
 20
1900.790163611827
 30
0.0
 42
0.4142135623730951
  0
SEQEND
  5
8E2
  8
OUTER_PROFILES
  0
POLYLINE
  5
144
  8
OUTER_PROFILES
 66
     1
 10
0.0
 20
0.0
 30
0.0
 70
     1
  0
VERTEX
  5
537
  8
OUTER_PROFILES
 10
-3232.690665558907
 20
1785.197418052489
 30
0.0
 42
0.4142135623730951
  0
VERTEX
  5
538
  8
OUTER_PROFILES
 10
-3235.690665558907
 20
1782.197418052489
 30
0.0
 42
0.4142135623730951
  0
VERTEX
  5
539
  8
OUTER_PROFILES
 10
-3232.690665558907
 20
1779.197418052489
 30
0.0
 42
0.4142135623730951
  0
VERTEX
  5
53A
  8
OUTER_PROFILES
 10
-3229.690665558907
 20
1782.197418052489
 30
0.0
 42
0.4142135623730951
  0
SEQEND
  5
8E3
  8
OUTER_PROFILES
  0
POLYLINE
  5
145
  8
OUTER_PROFILES
 66
     1
 10
0.0
 20
0.0
 30
0.0
 70
     1
  0
VERTEX
  5
53B
  8
OUTER_PROFILES
 10
-3232.907692261801
 20
1828.436886758546
 30
0.0
 42
0.4142135623730951
  0
VERTEX
  5
53C
  8
OUTER_PROFILES
 10
-3235.899160836201
 20
1825.428379525984
 30
0.0
 42
0.4142135623730951
  0
VERTEX
  5
53D
  8
OUTER_PROFILES
 10
-3232.890653603639
 20
1822.436910951584
 30
0.0
 42
0.4142135623730951
  0
VERTEX
  5
53E
  8
OUTER_PROFILES
 10
-3229.899185029239
 20
1825.445418184146
 30
0.0
 42
0.4142135623730951
  0
SEQEND
  5
8E4
  8
OUTER_PROFILES
  0
POLYLINE
  5
146
  8
OUTER_PROFILES
 66
     1
 10
0.0
 20
0.0
 30
0.0
 70
     1
  0
VERTEX
  5
53F
  8
OUTER_PROFILES
 10
-3267.691604322421
 20
1711.361748380422
 30
0.0
 42
0.4142135623730951
  0
VERTEX
  5
540
  8
OUTER_PROFILES
 10
-3270.691604322421
 20
1708.361748380422
 30
0.0
 42
0.4142135623730951
  0
VERTEX
  5
541
  8
OUTER_PROFILES
 10
-3267.691604322421
 20
1705.361748380422
 30
0.0
 42
0.4142135623730951
  0
VERTEX
  5
542
  8
OUTER_PROFILES
 10
-3264.691604322421
 20
1708.361748380422
 30
0.0
 42
0.4142135623730951
  0
SEQEND
  5
8E5
  8
OUTER_PROFILES
  0
POLYLINE
  5
147
  8
OUTER_PROFILES
 66
     1
 10
0.0
 20
0.0
 30
0.0
 70
     1
  0
VERTEX
  5
543
  8
OUTER_PROFILES
 10
-3289.175126822304
 20
1881.861740657814
 30
0.0
 42
0.4142135623730951
  0
VERTEX
  5
544
  8
OUTER_PROFILES
 10
-3292.166595396703
 20
1878.853233425252
 30
0.0
 42
0.4142135623730951
  0
VERTEX
  5
545
  8
OUTER_PROFILES
 10
-3289.158088164141
 20
1875.861764850853
 30
0.0
 42
0.4142135623730951
  0
VERTEX
  5
546
  8
OUTER_PROFILES
 10
-3286.166619589741
 20
1878.870272083415
 30
0.0
 42
0.4142135623730951
  0
SEQEND
  5
8E6
  8
OUTER_PROFILES
  0
POLYLINE
  5
148
  8
OUTER_PROFILES
 66
     1
 10
0.0
 20
0.0
 30
0.0
 70
     1
  0
VERTEX
  5
547
  8
OUTER_PROFILES
 10
-3289.671551003384
 20
1732.478385042116
 30
0.0
 42
0.4142135623730951
  0
VERTEX
  5
548
  8
OUTER_PROFILES
 10
-3292.671551003384
 20
1729.478385042116
 30
0.0
 42
0.4142135623730951
  0
VERTEX
  5
549
  8
OUTER_PROFILES
 10
-3289.671551003384
 20
1726.478385042116
 30
0.0
 42
0.4142135623730951
  0
VERTEX
  5
54A
  8
OUTER_PROFILES
 10
-3286.671551003384
 20
1729.478385042116
 30
0.0
 42
0.4142135623730951
  0
SEQEND
  5
8E7
  8
OUTER_PROFILES
  0
POLYLINE
  5
149
  8
OUTER_PROFILES
 66
     1
 10
0.0
 20
0.0
 30
0.0
 70
     1
  0
VERTEX
  5
54B
  8
OUTER_PROFILES
 10
-3310.788187665078
 20
1710.498438361152
 30
0.0
 42
0.4142135623730951
  0
VERTEX
  5
54C
  8
OUTER_PROFILES
 10
-3313.788187665078
 20
1707.498438361152
 30
0.0
 42
0.4142135623730951
  0
VERTEX
  5
54D
  8
OUTER_PROFILES
 10
-3310.788187665078
 20
1704.498438361152
 30
0.0
 42
0.4142135623730951
  0
VERTEX
  5
54E
  8
OUTER_PROFILES
 10
-3307.788187665078
 20
1707.498438361152
 30
0.0
 42
0.4142135623730951
  0
SEQEND
  5
8E8
  8
OUTER_PROFILES
  0
POLYLINE
  5
14A
  8
OUTER_PROFILES
 66
     1
 10
0.0
 20
0.0
 30
0.0
 70
     1
  0
VERTEX
  5
54F
  8
OUTER_PROFILES
 10
-3268.554914341691
 20
1754.45833172308
 30
0.0
 42
0.4142135623730951
  0
VERTEX
  5
550
  8
OUTER_PROFILES
 10
-3271.554914341691
 20
1751.45833172308
 30
0.0
 42
0.4142135623730951
  0
VERTEX
  5
551
  8
OUTER_PROFILES
 10
-3268.554914341691
 20
1748.45833172308
 30
0.0
 42
0.4142135623730951
  0
VERTEX
  5
552
  8
OUTER_PROFILES
 10
-3265.554914341691
 20
1751.45833172308
 30
0.0
 42
0.4142135623730951
  0
SEQEND
  5
8E9
  8
OUTER_PROFILES
  0
POLYLINE
  5
14B
  8
OUTER_PROFILES
 66
     1
 10
0.0
 20
0.0
 30
0.0
 70
     1
  0
VERTEX
  5
553
  8
OUTER_PROFILES
 10
-3311.651497684348
 20
1753.59502170381
 30
0.0
 42
0.4142135623730951
  0
VERTEX
  5
554
  8
OUTER_PROFILES
 10
-3314.651497684348
 20
1750.59502170381
 30
0.0
 42
0.4142135623730951
  0
VERTEX
  5
555
  8
OUTER_PROFILES
 10
-3311.651497684348
 20
1747.59502170381
 30
0.0
 42
0.4142135623730951
  0
VERTEX
  5
556
  8
OUTER_PROFILES
 10
-3308.651497684348
 20
1750.59502170381
 30
0.0
 42
0.4142135623730951
  0
SEQEND
  5
8EA
  8
OUTER_PROFILES
  0
POLYLINE
  5
14C
  8
OUTER_PROFILES
 66
     1
 10
0.0
 20
0.0
 30
0.0
 70
     1
  0
VERTEX
  5
557
  8
OUTER_PROFILES
 10
-3461.415505127829
 20
1956.764548132104
 30
0.0
  0
VERTEX
  5
558
  8
OUTER_PROFILES
 10
-3429.700694467875
 20
1956.764548132104
 30
0.0
 42
-0.4152896061690827
  0
VERTEX
  5
559
  8
OUTER_PROFILES
 10
-3426.700714698148
 20
1953.753530821461
 30
0.0
  0
VERTEX
  5
55A
  8
OUTER_PROFILES
 10
-3426.700714698148
 20
1885.057468197981
 30
0.0
 42
-0.4142135623730307
  0
VERTEX
  5
55B
  8
OUTER_PROFILES
 10
-3429.700714698148
 20
1882.057468197981
 30
0.0
  0
VERTEX
  5
55C
  8
OUTER_PROFILES
 10
-3461.415505127852
 20
1882.057468197981
 30
0.0
  0
VERTEX
  5
55D
  8
OUTER_PROFILES
 10
-3463.104254665209
 20
1884.98246819798
 30
0.0
  0
VERTEX
  5
55E
  8
OUTER_PROFILES
 10
-3464.796859450369
 20
1882.053612950202
 30
0.0
  0
VERTEX
  5
55F
  8
OUTER_PROFILES
 10
-3467.725714698148
 20
1880.361008165042
 30
0.0
  0
VERTEX
  5
560
  8
OUTER_PROFILES
 10
-3464.796859450369
 20
1878.668403379883
 30
0.0
  0
VERTEX
  5
561
  8
OUTER_PROFILES
 10
-3463.104254665209
 20
1875.739548132104
 30
0.0
  0
VERTEX
  5
562
  8
OUTER_PROFILES
 10
-3461.415505127834
 20
1878.664548132104
 30
0.0
  0
VERTEX
  5
563
  8
OUTER_PROFILES
 10
-3429.700698595692
 20
1878.664548132104
 30
0.0
 42
-0.4151735180310932
  0
VERTEX
  5
564
  8
OUTER_PROFILES
 10
-3426.70071469815
 20
1875.654719008104
 30
0.0
  0
VERTEX
  5
565
  8
OUTER_PROFILES
 10
-3426.70071469815
 20
1808.464248132107
 30
0.0
 42
-0.4183618220907845
  0
VERTEX
  5
566
  8
OUTER_PROFILES
 10
-3429.743140015284
 20
1805.464548132106
 30
0.0
  0
VERTEX
  5
567
  8
OUTER_PROFILES
 10
-3461.415505127933
 20
1805.464548132104
 30
0.0
  0
VERTEX
  5
568
  8
OUTER_PROFILES
 10
-3463.104254665209
 20
1808.389548132104
 30
0.0
  0
VERTEX
  5
569
  8
OUTER_PROFILES
 10
-3464.796859450369
 20
1805.460692884325
 30
0.0
  0
VERTEX
  5
56A
  8
OUTER_PROFILES
 10
-3467.725714698148
 20
1803.768088099165
 30
0.0
  0
VERTEX
  5
56B
  8
OUTER_PROFILES
 10
-3464.796859450369
 20
1802.075483314006
 30
0.0
  0
VERTEX
  5
56C
  8
OUTER_PROFILES
 10
-3463.104254665209
 20
1799.146628066227
 30
0.0
  0
VERTEX
  5
56D
  8
OUTER_PROFILES
 10
-3461.415505127902
 20
1802.071628066227
 30
0.0
  0
VERTEX
  5
56E
  8
OUTER_PROFILES
 10
-3429.700692984024
 20
1802.071628066227
 30
0.0
 42
-0.4153283720495517
  0
VERTEX
  5
56F
  8
OUTER_PROFILES
 10
-3426.700714698148
 20
1799.060214002437
 30
0.0
  0
VERTEX
  5
570
  8
OUTER_PROFILES
 10
-3426.700714698148
 20
1731.864548132104
 30
0.0
 42
-0.4142195211670373
  0
VERTEX
  5
571
  8
OUTER_PROFILES
 10
-3429.700775733304
 20
1728.864548132104
 30
0.0
  0
VERTEX
  5
572
  8
OUTER_PROFILES
 10
-3461.415505127842
 20
1728.864548132104
 30
0.0
  0
VERTEX
  5
573
  8
OUTER_PROFILES
 10
-3463.104254665209
 20
1731.789548132103
 30
0.0
  0
VERTEX
  5
574
  8
OUTER_PROFILES
 10
-3464.796859450369
 20
1728.860692884325
 30
0.0
  0
VERTEX
  5
575
  8
OUTER_PROFILES
 10
-3467.725714698148
 20
1727.168088099165
 30
0.0
  0
VERTEX
  5
576
  8
OUTER_PROFILES
 10
-3464.796859450369
 20
1725.475483314006
 30
0.0
  0
VERTEX
  5
577
  8
OUTER_PROFILES
 10
-3463.104254665209
 20
1722.546628066227
 30
0.0
  0
VERTEX
  5
578
  8
OUTER_PROFILES
 10
-3461.415505127839
 20
1725.471628066227
 30
0.0
  0
VERTEX
  5
579
  8
OUTER_PROFILES
 10
-3429.700711830882
 20
1725.471628066227
 30
0.0
 42
-0.4146186083283635
  0
VERTEX
  5
57A
  8
OUTER_PROFILES
 10
-3426.700714698148
 20
1722.467479920148
 30
0.0
  0
VERTEX
  5
57B
  8
OUTER_PROFILES
 10
-3426.700714698148
 20
1654.164548132104
 30
0.0
 42
-0.4142135623730307
  0
VERTEX
  5
57C
  8
OUTER_PROFILES
 10
-3429.700714698148
 20
1651.164548132104
 30
0.0
  0
VERTEX
  5
57D
  8
OUTER_PROFILES
 10
-3461.415505127851
 20
1651.164548132104
 30
0.0
  0
VERTEX
  5
57E
  8
OUTER_PROFILES
 10
-3463.104254665209
 20
1654.089548132104
 30
0.0
  0
VERTEX
  5
57F
  8
OUTER_PROFILES
 10
-3464.793004202605
 20
1651.164548132104
 30
0.0
  0
VERTEX
  5
580
  8
OUTER_PROFILES
 10
-3538.000714698148
 20
1651.164548132104
 30
0.0
 42
-0.4142135623730307
  0
VERTEX
  5
581
  8
OUTER_PROFILES
 10
-3541.000714698148
 20
1654.164548132104
 30
0.0
  0
VERTEX
  5
582
  8
OUTER_PROFILES
 10
-3541.000714698148
 20
1725.479338561758
 30
0.0
  0
VERTEX
  5
583
  8
OUTER_PROFILES
 10
-3538.075714698148
 20
1727.168088099165
 30
0.0
  0
VERTEX
  5
584
  8
OUTER_PROFILES
 10
-3541.000714698148
 20
1728.856837636583
 30
0.0
  0
VERTEX
  5
585
  8
OUTER_PROFILES
 10
-3541.000714698148
 20
1802.079338561713
 30
0.0
  0
VERTEX
  5
586
  8
OUTER_PROFILES
 10
-3538.075714698148
 20
1803.768088099165
 30
0.0
  0
VERTEX
  5
587
  8
OUTER_PROFILES
 10
-3541.000714698148
 20
1805.456837636536
 30
0.0
  0
VERTEX
  5
588
  8
OUTER_PROFILES
 10
-3541.000714698148
 20
1878.672258627628
 30
0.0
  0
VERTEX
  5
589
  8
OUTER_PROFILES
 10
-3538.075714698148
 20
1880.361008165042
 30
0.0
  0
VERTEX
  5
58A
  8
OUTER_PROFILES
 10
-3541.000714698148
 20
1882.049757702449
 30
0.0
  0
VERTEX
  5
58B
  8
OUTER_PROFILES
 10
-3541.000714698148
 20
1953.764552799078
 30
0.0
 42
-0.4147302998354052
  0
VERTEX
  5
58C
  8
OUTER_PROFILES
 10
-3537.995422911382
 20
1956.764548132104
 30
0.0
  0
VERTEX
  5
58D
  8
OUTER_PROFILES
 10
-3464.793004202577
 20
1956.764548132104
 30
0.0
  0
VERTEX
  5
58E
  8
OUTER_PROFILES
 10
-3463.104254665209
 20
1953.839548132104
 30
0.0
  0
SEQEND
  5
8EB
  8
OUTER_PROFILES
  0
POLYLINE
  5
14D
  8
OUTER_PROFILES
 66
     1
 10
0.0
 20
0.0
 30
0.0
  0
VERTEX
  5
58F
  8
OUTER_PROFILES
 10
-3326.275090970446
 20
1840.786095537634
 30
0.0
  0
VERTEX
  5
590
  8
OUTER_PROFILES
 10
-3323.350090970446
 20
1842.474845075014
 30
0.0
  0
VERTEX
  5
591
  8
OUTER_PROFILES
 10
-3326.275090970446
 20
1844.163594612335
 30
0.0
  0
VERTEX
  5
592
  8
OUTER_PROFILES
 10
-3326.275090970446
 20
1913.978407414208
 30
0.0
 42
-0.4153451631747047
  0
VERTEX
  5
593
  8
OUTER_PROFILES
 10
-3323.263505057218
 20
1916.978385042116
 30
0.0
  0
VERTEX
  5
594
  8
OUTER_PROFILES
 10
-3256.067990162319
 20
1916.978385042116
 30
0.0
 42
-0.415306601981792
  0
VERTEX
  5
595
  8
OUTER_PROFILES
 10
-3253.068011036323
 20
1913.967193783928
 30
0.0
  0
VERTEX
  5
596
  8
OUTER_PROFILES
 10
-3253.068011036323
 20
1844.16058265318
 30
0.0
  0
VERTEX
  5
597
  8
OUTER_PROFILES
 10
-3253.063590970446
 20
1844.16058265318
 30
0.0
  0
VERTEX
  5
598
  8
OUTER_PROFILES
 10
-3253.063590970446
 20
1844.163134579496
 30
0.0
  0
VERTEX
  5
599
  8
OUTER_PROFILES
 10
-3255.988590970445
 20
1842.474385042116
 30
0.0
  0
VERTEX
  5
59A
  8
OUTER_PROFILES
 10
-3253.063590970446
 20
1840.785635504736
 30
0.0
  0
VERTEX
  5
59B
  8
OUTER_PROFILES
 10
-3253.063590970446
 20
1840.788187431598
 30
0.0
  0
VERTEX
  5
59C
  8
OUTER_PROFILES
 10
-3253.068011036323
 20
1840.788187431598
 30
0.0
  0
VERTEX
  5
59D
  8
OUTER_PROFILES
 10
-3253.068011036323
 20
1840.778385042116
 30
0.0
  0
VERTEX
  5
59E
  8
OUTER_PROFILES
 10
-3253.059696170047
 20
1840.778635042116
 30
0.0
  0
VERTEX
  5
59F
  8
OUTER_PROFILES
 10
-3251.371090970446
 20
1837.853885042116
 30
0.0
  0
VERTEX
  5
5A0
  8
OUTER_PROFILES
 10
-3249.682485770498
 20
1840.778635042116
 30
0.0
  0
VERTEX
  5
5A1
  8
OUTER_PROFILES
 10
-3176.47506097043
 20
1840.778394883582
 30
0.0
 42
-0.4152867466038104
  0
VERTEX
  5
5A2
  8
OUTER_PROFILES
 10
-3173.475090970446
 20
1837.767396997156
 30
0.0
  0
VERTEX
  5
5A3
  8
OUTER_PROFILES
 10
-3173.475090970446
 20
1770.578357774973
 30
0.0
 42
-0.4154628939121291
  0
VERTEX
  5
5A4
  8
OUTER_PROFILES
 10
-3176.487881731723
 20
1767.578385042116
 30
0.0
  0
VERTEX
  5
5A5
  8
OUTER_PROFILES
 10
-3249.682801466009
 20
1767.578385042116
 30
0.0
  0
VERTEX
  5
5A6
  8
OUTER_PROFILES
 10
-3251.371551003384
 20
1770.503385042116
 30
0.0
  0
VERTEX
  5
5A7
  8
OUTER_PROFILES
 10
-3253.064155788543
 20
1767.574529794337
 30
0.0
  0
VERTEX
  5
5A8
  8
OUTER_PROFILES
 10
-3255.993011036323
 20
1765.881925009177
 30
0.0
  0
VERTEX
  5
5A9
  8
OUTER_PROFILES
 10
-3253.068011036323
 20
1764.193175471902
 30
0.0
  0
VERTEX
  5
5AA
  8
OUTER_PROFILES
 10
-3253.068011036323
 20
1694.378362670025
 30
0.0
 42
-0.4153451787367714
  0
VERTEX
  5
5AB
  8
OUTER_PROFILES
 10
-3256.079597110318
 20
1691.378385042116
 30
0.0
  0
VERTEX
  5
5AC
  8
OUTER_PROFILES
 10
-3323.275103441546
 20
1691.378385042116
 30
0.0
 42
-0.4150583454947918
  0
VERTEX
  5
5AD
  8
OUTER_PROFILES
 10
-3326.275090970446
 20
1694.387035254884
 30
0.0
  0
VERTEX
  5
5AE
  8
OUTER_PROFILES
 10
-3326.275090970446
 20
1764.19317547168
 30
0.0
  0
VERTEX
  5
5AF
  8
OUTER_PROFILES
 10
-3323.350090970446
 20
1765.881925009177
 30
0.0
  0
VERTEX
  5
5B0
  8
OUTER_PROFILES
 10
-3326.278946218225
 20
1767.574529794337
 30
0.0
  0
VERTEX
  5
5B1
  8
OUTER_PROFILES
 10
-3327.971551003384
 20
1770.503385042116
 30
0.0
  0
VERTEX
  5
5B2
  8
OUTER_PROFILES
 10
-3329.660300540735
 20
1767.578385042116
 30
0.0
  0
VERTEX
  5
5B3
  8
OUTER_PROFILES
 10
-3399.475091762615
 20
1767.578385042116
 30
0.0
 42
-0.4144264381036139
  0
VERTEX
  5
5B4
  8
OUTER_PROFILES
 10
-3402.475090970446
 20
1770.580565287612
 30
0.0
  0
VERTEX
  5
5B5
  8
OUTER_PROFILES
 10
-3402.475090970446
 20
1837.778413797246
 30
0.0
 42
-0.4154965370959443
  0
VERTEX
  5
5B6
  8
OUTER_PROFILES
 10
-3399.461955926875
 20
1840.778385042116
 30
0.0
  0
VERTEX
  5
5B7
  8
OUTER_PROFILES
 10
-3329.660300540764
 20
1840.778385042116
 30
0.0
  0
VERTEX
  5
5B8
  8
OUTER_PROFILES
 10
-3327.971551003384
 20
1837.853385042116
 30
0.0
  0
VERTEX
  5
5B9
  8
OUTER_PROFILES
 10
-3326.282801466004
 20
1840.778385042116
 30
0.0
  0
SEQEND
  5
8EC
  8
OUTER_PROFILES
  0
POLYLINE
  5
14E
  8
OUTER_PROFILES
 66
     1
 10
0.0
 20
0.0
 30
0.0
 70
     1
  0
VERTEX
  5
5BA
  8
OUTER_PROFILES
 10
-3128.645145121813
 20
1765.131379221797
 30
0.0
  0
VERTEX
  5
5BB
  8
OUTER_PROFILES
 10
-3130.271107017002
 20
1766.070128759718
 30
0.0
  0
VERTEX
  5
5BC
  8
OUTER_PROFILES
 10
-3130.271107017001
 20
1839.285549750739
 30
0.0
  0
VERTEX
  5
5BD
  8
OUTER_PROFILES
 10
-3128.645145122395
 20
1840.224299288207
 30
0.0
  0
VERTEX
  5
5BE
  8
OUTER_PROFILES
 10
-3122.986389663557
 20
1840.224299288142
 30
0.0
 42
0.4142135623733338
  0
VERTEX
  5
5BF
  8
OUTER_PROFILES
 10
-3122.236389663557
 20
1840.974306180034
 30
0.0
 42
0.4154699725099018
  0
VERTEX
  5
5C0
  8
OUTER_PROFILES
 10
-3122.98960546919
 20
1841.724299288142
 30
0.0
  0
VERTEX
  5
5C1
  8
OUTER_PROFILES
 10
-3128.64514512246
 20
1841.724299287989
 30
0.0
  0
VERTEX
  5
5C2
  8
OUTER_PROFILES
 10
-3130.271107017001
 20
1842.663048825462
 30
0.0
  0
VERTEX
  5
5C3
  8
OUTER_PROFILES
 10
-3131.96756704993
 20
1847.292219353934
 30
0.0
  0
VERTEX
  5
5C4
  8
OUTER_PROFILES
 10
-3133.664027082762
 20
1846.063679386843
 30
0.0
  0
VERTEX
  5
5C5
  8
OUTER_PROFILES
 10
-3175.08812211351
 20
1887.487774417588
 30
0.0
 42
-0.2000741888089895
  0
VERTEX
  5
5C6
  8
OUTER_PROFILES
 10
-3175.991107017001
 20
1889.654067606499
 30
0.0
  0
VERTEX
  5
5C7
  8
OUTER_PROFILES
 10
-3175.991107017001
 20
1909.414199450334
 30
0.0
 42
-0.4155240124839345
  0
VERTEX
  5
5C8
  8
OUTER_PROFILES
 10
-3172.941137517002
 20
1912.477839255203
 30
0.0
  0
VERTEX
  5
5C9
  8
OUTER_PROFILES
 10
-3133.656316587194
 20
1912.477839255203
 30
0.0
  0
VERTEX
  5
5CA
  8
OUTER_PROFILES
 10
-3131.96756704994
 20
1909.552839255204
 30
0.0
  0
VERTEX
  5
5CB
  8
OUTER_PROFILES
 10
-3130.278817512539
 20
1912.477839255203
 30
0.0
  0
VERTEX
  5
5CC
  8
OUTER_PROFILES
 10
-3087.614746958429
 20
1912.477839255203
 30
0.0
 42
-0.4155240254685145
  0
VERTEX
  5
5CD
  8
OUTER_PROFILES
 10
-3084.551107017001
 20
1909.427869755204
 30
0.0
  0
VERTEX
  5
5CE
  8
OUTER_PROFILES
 10
-3084.551107017001
 20
1866.287455133722
 30
0.0
 42
0.2226926200584512
  0
VERTEX
  5
5CF
  8
OUTER_PROFILES
 10
-3083.46163129452
 20
1863.939417336576
 30
0.0
  0
VERTEX
  5
5D0
  8
OUTER_PROFILES
 10
-3058.11463169488
 20
1842.67075932108
 30
0.0
  0
VERTEX
  5
5D1
  8
OUTER_PROFILES
 10
-3058.61855063804
 20
1841.724299288049
 30
0.0
  0
VERTEX
  5
5D2
  8
OUTER_PROFILES
 10
-3063.267869355948
 20
1841.724299288142
 30
0.0
 42
0.4142135623733338
  0
VERTEX
  5
5D3
  8
OUTER_PROFILES
 10
-3064.017869355948
 20
1840.974291788142
 30
0.0
 42
0.4155238393973699
  0
VERTEX
  5
5D4
  8
OUTER_PROFILES
 10
-3063.264515753197
 20
1840.224299288142
 30
0.0
  0
VERTEX
  5
5D5
  8
OUTER_PROFILES
 10
-3056.83092024882
 20
1840.224299288132
 30
0.0
  0
VERTEX
  5
5D6
  8
OUTER_PROFILES
 10
-3054.071107016998
 20
1839.277839255204
 30
0.0
  0
VERTEX
  5
5D7
  8
OUTER_PROFILES
 10
-3054.071107016988
 20
1766.077839255203
 30
0.0
  0
VERTEX
  5
5D8
  8
OUTER_PROFILES
 10
-3056.830920249313
 20
1765.13137922218
 30
0.0
  0
VERTEX
  5
5D9
  8
OUTER_PROFILES
 10
-3063.267869355795
 20
1765.131379222265
 30
0.0
 42
0.4142135623733338
  0
VERTEX
  5
5DA
  8
OUTER_PROFILES
 10
-3064.017869355795
 20
1764.381371722265
 30
0.0
 42
0.4155238393973699
  0
VERTEX
  5
5DB
  8
OUTER_PROFILES
 10
-3063.264515753044
 20
1763.631379222265
 30
0.0
  0
VERTEX
  5
5DC
  8
OUTER_PROFILES
 10
-3058.618550637886
 20
1763.631379222332
 30
0.0
  0
VERTEX
  5
5DD
  8
OUTER_PROFILES
 10
-3058.114631694895
 20
1762.684919189326
 30
0.0
  0
VERTEX
  5
5DE
  8
OUTER_PROFILES
 10
-3083.469600943487
 20
1741.409573844321
 30
0.0
 42
0.2207963935385392
  0
VERTEX
  5
5DF
  8
OUTER_PROFILES
 10
-3084.551107017001
 20
1739.07986749692
 30
0.0
  0
VERTEX
  5
5E0
  8
OUTER_PROFILES
 10
-3084.551107017001
 20
1695.937669493401
 30
0.0
 42
-0.4151578826712485
  0
VERTEX
  5
5E1
  8
OUTER_PROFILES
 10
-3087.601091175507
 20
1692.877839255203
 30
0.0
  0
VERTEX
  5
5E2
  8
OUTER_PROFILES
 10
-3130.27688988879
 20
1692.877839255203
 30
0.0
  0
VERTEX
  5
5E3
  8
OUTER_PROFILES
 10
-3131.96756704994
 20
1695.802839255203
 30
0.0
  0
VERTEX
  5
5E4
  8
OUTER_PROFILES
 10
-3133.656316587338
 20
1692.877839255203
 30
0.0
  0
VERTEX
  5
5E5
  8
OUTER_PROFILES
 10
-3172.927969438119
 20
1692.877839255203
 30
0.0
 42
-0.4154757388226791
  0
VERTEX
  5
5E6
  8
OUTER_PROFILES
 10
-3175.991107017001
 20
1695.927810960796
 30
0.0
  0
VERTEX
  5
5E7
  8
OUTER_PROFILES
 10
-3175.991107017001
 20
1715.688181076266
 30
0.0
 42
-0.2000508162959088
  0
VERTEX
  5
5E8
  8
OUTER_PROFILES
 10
-3175.097811949261
 20
1717.858214257067
 30
0.0
  0
VERTEX
  5
5E9
  8
OUTER_PROFILES
 10
-3133.664027082842
 20
1759.291999123486
 30
0.0
  0
VERTEX
  5
5EA
  8
OUTER_PROFILES
 10
-3131.967567049939
 20
1758.063459156038
 30
0.0
  0
VERTEX
  5
5EB
  8
OUTER_PROFILES
 10
-3130.271107017002
 20
1762.690702061174
 30
0.0
  0
VERTEX
  5
5EC
  8
OUTER_PROFILES
 10
-3128.643664025703
 20
1763.631379222372
 30
0.0
  0
VERTEX
  5
5ED
  8
OUTER_PROFILES
 10
-3123.096107017002
 20
1763.631379222265
 30
0.0
 42
0.4142135623733338
  0
VERTEX
  5
5EE
  8
OUTER_PROFILES
 10
-3122.346107017002
 20
1764.381386114157
 30
0.0
 42
0.4154699725099018
  0
VERTEX
  5
5EF
  8
OUTER_PROFILES
 10
-3123.099322822635
 20
1765.131379222265
 30
0.0
  0
SEQEND
  5
8ED
  8
OUTER_PROFILES
  0
POLYLINE
  5
14F
  8
OUTER_PROFILES
 66
     1
 10
0.0
 20
0.0
 30
0.0
 70
     1
  0
VERTEX
  5
5F0
  8
OUTER_PROFILES
 10
-3105.88130130353
 20
1765.131379222265
 30
0.0
  0
VERTEX
  5
5F1
  8
OUTER_PROFILES
 10
-3114.377947700779
 20
1765.131379222265
 30
0.0
 42
0.4142135623733338
  0
VERTEX
  5
5F2
  8
OUTER_PROFILES
 10
-3115.127947700779
 20
1764.381372330372
 30
0.0
 42
0.4154699725099018
  0
VERTEX
  5
5F3
  8
OUTER_PROFILES
 10
-3114.374731895146
 20
1763.631379222265
 30
0.0
  0
VERTEX
  5
5F4
  8
OUTER_PROFILES
 10
-3105.877947700779
 20
1763.631379222265
 30
0.0
 42
0.4142135623733338
  0
VERTEX
  5
5F5
  8
OUTER_PROFILES
 10
-3105.127947700779
 20
1764.381386722264
 30
0.0
 42
0.4155238393973699
  0
SEQEND
  5
8EE
  8
OUTER_PROFILES
  0
POLYLINE
  5
150
  8
OUTER_PROFILES
 66
     1
 10
0.0
 20
0.0
 30
0.0
 70
     1
  0
VERTEX
  5
5F6
  8
OUTER_PROFILES
 10
-3088.861731669404
 20
1765.131379222265
 30
0.0
  0
VERTEX
  5
5F7
  8
OUTER_PROFILES
 10
-3097.358378066654
 20
1765.131379222265
 30
0.0
 42
0.4142135623733338
  0
VERTEX
  5
5F8
  8
OUTER_PROFILES
 10
-3098.108378066654
 20
1764.381372330372
 30
0.0
 42
0.4154699725099018
  0
VERTEX
  5
5F9
  8
OUTER_PROFILES
 10
-3097.355162261021
 20
1763.631379222265
 30
0.0
  0
VERTEX
  5
5FA
  8
OUTER_PROFILES
 10
-3088.858378066654
 20
1763.631379222265
 30
0.0
 42
0.4142135623733338
  0
VERTEX
  5
5FB
  8
OUTER_PROFILES
 10
-3088.108378066654
 20
1764.381386722264
 30
0.0
 42
0.4155238393973699
  0
SEQEND
  5
8EF
  8
OUTER_PROFILES
  0
POLYLINE
  5
151
  8
OUTER_PROFILES
 66
     1
 10
0.0
 20
0.0
 30
0.0
 70
     1
  0
VERTEX
  5
5FC
  8
OUTER_PROFILES
 10
-3071.989382274769
 20
1765.131379222265
 30
0.0
  0
VERTEX
  5
5FD
  8
OUTER_PROFILES
 10
-3080.486028672018
 20
1765.131379222265
 30
0.0
 42
0.4142135623733338
  0
VERTEX
  5
5FE
  8
OUTER_PROFILES
 10
-3081.236028672018
 20
1764.381372330372
 30
0.0
 42
0.4154699725099018
  0
VERTEX
  5
5FF
  8
OUTER_PROFILES
 10
-3080.482812866385
 20
1763.631379222265
 30
0.0
  0
VERTEX
  5
600
  8
OUTER_PROFILES
 10
-3071.986028672018
 20
1763.631379222265
 30
0.0
 42
0.4142135623733338
  0
VERTEX
  5
601
  8
OUTER_PROFILES
 10
-3071.236028672018
 20
1764.381386722264
 30
0.0
 42
0.4155238393973699
  0
SEQEND
  5
8F0
  8
OUTER_PROFILES
  0
POLYLINE
  5
152
  8
OUTER_PROFILES
 66
     1
 10
0.0
 20
0.0
 30
0.0
 70
     1
  0
VERTEX
  5
602
  8
OUTER_PROFILES
 10
-3088.252088564838
 20
1842.278071789939
 30
0.0
  0
VERTEX
  5
603
  8
OUTER_PROFILES
 10
-3096.748700702139
 20
1842.253943214358
 30
0.0
 42
0.4142135623733338
  0
VERTEX
  5
604
  8
OUTER_PROFILES
 10
-3097.496567826168
 20
1841.501809514353
 30
0.0
 42
0.4154699725099018
  0
VERTEX
  5
605
  8
OUTER_PROFILES
 10
-3096.741225244932
 20
1840.753958394786
 30
0.0
  0
VERTEX
  5
606
  8
OUTER_PROFILES
 10
-3088.244475311069
 20
1840.778087361681
 30
0.0
 42
0.4142135623733338
  0
VERTEX
  5
607
  8
OUTER_PROFILES
 10
-3087.496608188768
 20
1841.530221669791
 30
0.0
 42
0.4155238393973699
  0
SEQEND
  5
8F1
  8
OUTER_PROFILES
  0
POLYLINE
  5
153
  8
OUTER_PROFILES
 66
     1
 10
0.0
 20
0.0
 30
0.0
 70
     1
  0
VERTEX
  5
608
  8
OUTER_PROFILES
 10
-3071.379807202359
 20
1842.325985488895
 30
0.0
  0
VERTEX
  5
609
  8
OUTER_PROFILES
 10
-3079.87641933966
 20
1842.301856913313
 30
0.0
 42
0.4142135623733338
  0
VERTEX
  5
60A
  8
OUTER_PROFILES
 10
-3080.624286463688
 20
1841.549723213308
 30
0.0
 42
0.4154699725099018
  0
VERTEX
  5
60B
  8
OUTER_PROFILES
 10
-3079.868943882453
 20
1840.801872093742
 30
0.0
  0
VERTEX
  5
60C
  8
OUTER_PROFILES
 10
-3071.372193948589
 20
1840.826001060636
 30
0.0
 42
0.4142135623733338
  0
VERTEX
  5
60D
  8
OUTER_PROFILES
 10
-3070.624326826288
 20
1841.578135368746
 30
0.0
 42
0.4155238393973699
  0
SEQEND
  5
8F2
  8
OUTER_PROFILES
  0
POLYLINE
  5
154
  8
OUTER_PROFILES
 66
     1
 10
0.0
 20
0.0
 30
0.0
 70
     1
  0
VERTEX
  5
60E
  8
OUTER_PROFILES
 10
-3105.271589573038
 20
1842.229740018429
 30
0.0
  0
VERTEX
  5
60F
  8
OUTER_PROFILES
 10
-3113.768201710338
 20
1842.205611442847
 30
0.0
 42
0.4142135623733338
  0
VERTEX
  5
610
  8
OUTER_PROFILES
 10
-3114.516068834367
 20
1841.453477742842
 30
0.0
 42
0.4154699725099018
  0
VERTEX
  5
611
  8
OUTER_PROFILES
 10
-3113.760726253131
 20
1840.705626623276
 30
0.0
  0
VERTEX
  5
612
  8
OUTER_PROFILES
 10
-3105.263976319268
 20
1840.72975559017
 30
0.0
 42
0.4142135623733338
  0
VERTEX
  5
613
  8
OUTER_PROFILES
 10
-3104.516109196967
 20
1841.48188989828
 30
0.0
 42
0.4155238393973699
  0
SEQEND
  5
8F3
  8
OUTER_PROFILES
  0
POLYLINE
  5
155
  8
OUTER_PROFILES
 66
     1
 10
0.0
 20
0.0
 30
0.0
 70
     1
  0
VERTEX
  5
614
  8
OUTER_PROFILES
 10
-2902.404201984291
 20
1693.86610529366
 30
0.0
  0
VERTEX
  5
615
  8
OUTER_PROFILES
 10
-2903.72422124325
 20
1696.945173049861
 30
0.0
  0
VERTEX
  5
616
  8
OUTER_PROFILES
 10
-2905.732414052602
 20
1694.260766316398
 30
0.0
  0
VERTEX
  5
617
  8
OUTER_PROFILES
 10
-2944.826267693595
 20
1698.894747703251
 30
0.0
 42
-0.4155240272515821
  0
VERTEX
  5
618
  8
OUTER_PROFILES
 10
-2947.450670280065
 20
1702.240343194307
 30
0.0
  0
VERTEX
  5
619
  8
OUTER_PROFILES
 10
-2945.058820543909
 20
1722.418806530901
 30
0.0
 42
-0.1985879988947349
  0
VERTEX
  5
61A
  8
OUTER_PROFILES
 10
-2943.939486970799
 20
1724.419629766013
 30
0.0
  0
VERTEX
  5
61B
  8
OUTER_PROFILES
 10
-2897.897378786683
 20
1760.703273018131
 30
0.0
  0
VERTEX
  5
61C
  8
OUTER_PROFILES
 10
-2896.359666701308
 20
1759.263826934847
 30
0.0
  0
VERTEX
  5
61D
  8
OUTER_PROFILES
 10
-2894.128663486678
 20
1763.673222198515
 30
0.0
  0
VERTEX
  5
61E
  8
OUTER_PROFILES
 10
-2891.002573967893
 20
1765.369682231452
 30
0.0
  0
VERTEX
  5
61F
  8
OUTER_PROFILES
 10
-2893.726484449165
 20
1767.066142264393
 30
0.0
  0
VERTEX
  5
620
  8
OUTER_PROFILES
 10
-2893.726484449108
 20
1840.266142264391
 30
0.0
  0
VERTEX
  5
621
  8
OUTER_PROFILES
 10
-2891.002573967893
 20
1841.96260229733
 30
0.0
  0
VERTEX
  5
622
  8
OUTER_PROFILES
 10
-2894.128663486678
 20
1843.659062330267
 30
0.0
  0
VERTEX
  5
623
  8
OUTER_PROFILES
 10
-2896.365976194375
 20
1848.076891667441
 30
0.0
  0
VERTEX
  5
624
  8
OUTER_PROFILES
 10
-2897.897378786704
 20
1846.62901151066
 30
0.0
  0
VERTEX
  5
625
  8
OUTER_PROFILES
 10
-2943.936579735147
 20
1882.910363705617
 30
0.0
 42
-0.2000508087969222
  0
VERTEX
  5
626
  8
OUTER_PROFILES
 10
-2945.060370853967
 20
1884.926556944356
 30
0.0
  0
VERTEX
  5
627
  8
OUTER_PROFILES
 10
-2947.452252296786
 20
1905.105287769218
 30
0.0
 42
-0.4153737228508788
  0
VERTEX
  5
628
  8
OUTER_PROFILES
 10
-2944.814442280278
 20
1908.43893854831
 30
0.0
  0
VERTEX
  5
629
  8
OUTER_PROFILES
 10
-2905.702888954206
 20
1913.075017963453
 30
0.0
  0
VERTEX
  5
62A
  8
OUTER_PROFILES
 10
-2903.724221243248
 20
1910.430078243662
 30
0.0
  0
VERTEX
  5
62B
  8
OUTER_PROFILES
 10
-2902.424018668884
 20
1913.463678135252
 30
0.0
  0
VERTEX
  5
62C
  8
OUTER_PROFILES
 10
-2902.403230431499
 20
1913.466142264391
 30
0.0
  0
VERTEX
  5
62D
  8
OUTER_PROFILES
 10
-2859.186027410924
 20
1913.466142264391
 30
0.0
 42
-0.3615703468706307
  0
VERTEX
  5
62E
  8
OUTER_PROFILES
 10
-2856.236129653206
 20
1911.012130557447
 30
0.0
  0
VERTEX
  5
62F
  8
OUTER_PROFILES
 10
-2848.200468258901
 20
1866.9066221529
 30
0.0
 42
0.1741450798270991
  0
VERTEX
  5
630
  8
OUTER_PROFILES
 10
-2847.183809305713
 20
1865.151592613273
 30
0.0
  0
VERTEX
  5
631
  8
OUTER_PROFILES
 10
-2821.570009126855
 20
1843.659062330145
 30
0.0
  0
VERTEX
  5
632
  8
OUTER_PROFILES
 10
-2822.473246788054
 20
1841.962602297327
 30
0.0
  0
VERTEX
  5
633
  8
OUTER_PROFILES
 10
-2817.526484449108
 20
1840.266142264391
 30
0.0
  0
VERTEX
  5
634
  8
OUTER_PROFILES
 10
-2817.526484449108
 20
1767.066142264392
 30
0.0
  0
VERTEX
  5
635
  8
OUTER_PROFILES
 10
-2822.473246788054
 20
1765.369682231452
 30
0.0
  0
VERTEX
  5
636
  8
OUTER_PROFILES
 10
-2821.57000912692
 20
1763.673222198582
 30
0.0
  0
VERTEX
  5
637
  8
OUTER_PROFILES
 10
-2847.17744474788
 20
1742.186032413639
 30
0.0
 42
0.1758394171909905
  0
VERTEX
  5
638
  8
OUTER_PROFILES
 10
-2848.202514472234
 20
1740.414431280529
 30
0.0
  0
VERTEX
  5
639
  8
OUTER_PROFILES
 10
-2856.234629092184
 20
1696.32839013306
 30
0.0
 42
-0.3635950337171036
  0
VERTEX
  5
63A
  8
OUTER_PROFILES
 10
-2859.199114915746
 20
1693.866142264391
 30
0.0
  0
VERTEX
  5
63B
  8
OUTER_PROFILES
 10
-2902.403230431499
 20
1693.866142264391
 30
0.0
  0
SEQEND
  5
8F4
  8
OUTER_PROFILES
  0
POLYLINE
  5
156
  8
OUTER_PROFILES
 66
     1
 10
0.0
 20
0.0
 30
0.0
 70
     1
  0
VERTEX
  5
63C
  8
OUTER_PROFILES
 10
-2895.384588807965
 20
2198.131115129073
 30
0.0
  0
VERTEX
  5
63D
  8
OUTER_PROFILES
 10
-2897.128643328609
 20
2199.077575162209
 30
0.0
  0
VERTEX
  5
63E
  8
OUTER_PROFILES
 10
-2899.365956036305
 20
2203.495404499382
 30
0.0
  0
VERTEX
  5
63F
  8
OUTER_PROFILES
 10
-2900.897358628635
 20
2202.047524342602
 30
0.0
  0
VERTEX
  5
640
  8
OUTER_PROFILES
 10
-2946.936559577078
 20
2238.328876537558
 30
0.0
 42
-0.2000508087969222
  0
VERTEX
  5
641
  8
OUTER_PROFILES
 10
-2948.060350695897
 20
2240.345069776297
 30
0.0
  0
VERTEX
  5
642
  8
OUTER_PROFILES
 10
-2950.452232138717
 20
2260.52380060116
 30
0.0
 42
-0.4153737228508788
  0
VERTEX
  5
643
  8
OUTER_PROFILES
 10
-2947.814422122209
 20
2263.857451380251
 30
0.0
  0
VERTEX
  5
644
  8
OUTER_PROFILES
 10
-2908.702868796136
 20
2268.493530795395
 30
0.0
  0
VERTEX
  5
645
  8
OUTER_PROFILES
 10
-2906.724201085179
 20
2265.848591075604
 30
0.0
  0
VERTEX
  5
646
  8
OUTER_PROFILES
 10
-2905.423998510814
 20
2268.882190967193
 30
0.0
  0
VERTEX
  5
647
  8
OUTER_PROFILES
 10
-2905.40321027343
 20
2268.884655096333
 30
0.0
  0
VERTEX
  5
648
  8
OUTER_PROFILES
 10
-2862.186007252854
 20
2268.884655096333
 30
0.0
 42
-0.3615703468706307
  0
VERTEX
  5
649
  8
OUTER_PROFILES
 10
-2859.236109495137
 20
2266.430643389388
 30
0.0
  0
VERTEX
  5
64A
  8
OUTER_PROFILES
 10
-2851.200448100832
 20
2222.325134984841
 30
0.0
 42
0.1741450798270991
  0
VERTEX
  5
64B
  8
OUTER_PROFILES
 10
-2850.183789147643
 20
2220.570105445215
 30
0.0
  0
VERTEX
  5
64C
  8
OUTER_PROFILES
 10
-2824.569988968786
 20
2199.077575162087
 30
0.0
  0
VERTEX
  5
64D
  8
OUTER_PROFILES
 10
-2825.073907911581
 20
2198.131115129315
 30
0.0
  0
VERTEX
  5
64E
  8
OUTER_PROFILES
 10
-2829.878502624452
 20
2198.131115129269
 30
0.0
 42
0.4142135623733338
  0
VERTEX
  5
64F
  8
OUTER_PROFILES
 10
-2830.628502624452
 20
2197.381108237377
 30
0.0
 42
0.4154699725099018
  0
VERTEX
  5
650
  8
OUTER_PROFILES
 10
-2829.875286818819
 20
2196.631115129269
 30
0.0
  0
VERTEX
  5
651
  8
OUTER_PROFILES
 10
-2823.28627752276
 20
2196.631115129244
 30
0.0
  0
VERTEX
  5
652
  8
OUTER_PROFILES
 10
-2820.526464291038
 20
2195.684655096332
 30
0.0
  0
VERTEX
  5
653
  8
OUTER_PROFILES
 10
-2820.526464291038
 20
2122.484655096333
 30
0.0
  0
VERTEX
  5
654
  8
OUTER_PROFILES
 10
-2823.286277523028
 20
2121.538195063358
 30
0.0
  0
VERTEX
  5
655
  8
OUTER_PROFILES
 10
-2829.878502624452
 20
2121.538195063394
 30
0.0
 42
0.4142135623733338
  0
VERTEX
  5
656
  8
OUTER_PROFILES
 10
-2830.628502624452
 20
2120.788188171502
 30
0.0
 42
0.4154699725099018
  0
VERTEX
  5
657
  8
OUTER_PROFILES
 10
-2829.875286818819
 20
2120.038195063394
 30
0.0
  0
VERTEX
  5
658
  8
OUTER_PROFILES
 10
-2825.073907911897
 20
2120.038195063441
 30
0.0
  0
VERTEX
  5
659
  8
OUTER_PROFILES
 10
-2824.569988968851
 20
2119.091735030524
 30
0.0
  0
VERTEX
  5
65A
  8
OUTER_PROFILES
 10
-2850.17742458981
 20
2097.60454524558
 30
0.0
 42
0.1758394171909905
  0
VERTEX
  5
65B
  8
OUTER_PROFILES
 10
-2851.202494314164
 20
2095.832944112471
 30
0.0
  0
VERTEX
  5
65C
  8
OUTER_PROFILES
 10
-2859.234608934114
 20
2051.746902965001
 30
0.0
 42
-0.3635950337171036
  0
VERTEX
  5
65D
  8
OUTER_PROFILES
 10
-2862.199094757676
 20
2049.284655096332
 30
0.0
  0
VERTEX
  5
65E
  8
OUTER_PROFILES
 10
-2905.40321027343
 20
2049.284655096332
 30
0.0
  0
VERTEX
  5
65F
  8
OUTER_PROFILES
 10
-2905.404181826221
 20
2049.284618125602
 30
0.0
  0
VERTEX
  5
660
  8
OUTER_PROFILES
 10
-2906.724201085181
 20
2052.363685881802
 30
0.0
  0
VERTEX
  5
661
  8
OUTER_PROFILES
 10
-2908.732393894532
 20
2049.679279148339
 30
0.0
  0
VERTEX
  5
662
  8
OUTER_PROFILES
 10
-2947.826247535525
 20
2054.313260535193
 30
0.0
 42
-0.4155240272515821
  0
VERTEX
  5
663
  8
OUTER_PROFILES
 10
-2950.450650121995
 20
2057.658856026248
 30
0.0
  0
VERTEX
  5
664
  8
OUTER_PROFILES
 10
-2948.058800385839
 20
2077.837319362842
 30
0.0
 42
-0.1985879988947349
  0
VERTEX
  5
665
  8
OUTER_PROFILES
 10
-2946.939466812729
 20
2079.838142597955
 30
0.0
  0
VERTEX
  5
666
  8
OUTER_PROFILES
 10
-2900.897358628613
 20
2116.121785850072
 30
0.0
  0
VERTEX
  5
667
  8
OUTER_PROFILES
 10
-2899.359646543238
 20
2114.682339766789
 30
0.0
  0
VERTEX
  5
668
  8
OUTER_PROFILES
 10
-2897.128643328609
 20
2119.091735030456
 30
0.0
  0
VERTEX
  5
669
  8
OUTER_PROFILES
 10
-2895.384588808911
 20
2120.038195063312
 30
0.0
  0
VERTEX
  5
66A
  8
OUTER_PROFILES
 10
-2889.597277815357
 20
2120.038195063394
 30
0.0
 42
0.4142135623733338
  0
VERTEX
  5
66B
  8
OUTER_PROFILES
 10
-2888.847277815357
 20
2120.788202563393
 30
0.0
 42
0.4155238393973699
  0
VERTEX
  5
66C
  8
OUTER_PROFILES
 10
-2889.600631418108
 20
2121.538195063394
 30
0.0
  0
VERTEX
  5
66D
  8
OUTER_PROFILES
 10
-2895.206786636926
 20
2121.53819506341
 30
0.0
  0
VERTEX
  5
66E
  8
OUTER_PROFILES
 10
-2896.726464291095
 20
2122.484655096334
 30
0.0
  0
VERTEX
  5
66F
  8
OUTER_PROFILES
 10
-2896.726464291038
 20
2195.684655096332
 30
0.0
  0
VERTEX
  5
670
  8
OUTER_PROFILES
 10
-2895.206786636447
 20
2196.631115129305
 30
0.0
  0
VERTEX
  5
671
  8
OUTER_PROFILES
 10
-2889.597277815357
 20
2196.631115129269
 30
0.0
 42
0.4142135623733338
  0
VERTEX
  5
672
  8
OUTER_PROFILES
 10
-2888.847277815357
 20
2197.381122629269
 30
0.0
 42
0.4155238393973699
  0
VERTEX
  5
673
  8
OUTER_PROFILES
 10
-2889.600631418108
 20
2198.131115129269
 30
0.0
  0
SEQEND
  5
8F5
  8
OUTER_PROFILES
  0
POLYLINE
  5
157
  8
OUTER_PROFILES
 66
     1
 10
0.0
 20
0.0
 30
0.0
 70
     1
  0
VERTEX
  5
674
  8
OUTER_PROFILES
 10
-3021.36752430703
 20
2199.040818883425
 30
0.0
  0
VERTEX
  5
675
  8
OUTER_PROFILES
 10
-3016.519534102144
 20
2199.040818883425
 30
0.0
 42
-0.4155238393973699
  0
VERTEX
  5
676
  8
OUTER_PROFILES
 10
-3015.766180499394
 20
2198.290818883425
 30
0.0
 42
-0.4142135623733338
  0
VERTEX
  5
677
  8
OUTER_PROFILES
 10
-3016.516180499394
 20
2197.540818883425
 30
0.0
  0
VERTEX
  5
678
  8
OUTER_PROFILES
 10
-3021.3671205929
 20
2197.540818883467
 30
0.0
  0
VERTEX
  5
679
  8
OUTER_PROFILES
 10
-3022.995911734467
 20
2196.598214098266
 30
0.0
  0
VERTEX
  5
67A
  8
OUTER_PROFILES
 10
-3022.995679063643
 20
2123.394358850487
 30
0.0
  0
VERTEX
  5
67B
  8
OUTER_PROFILES
 10
-3022.997600631686
 20
2123.394358850487
 30
0.0
  0
VERTEX
  5
67C
  8
OUTER_PROFILES
 10
-3022.999522199729
 20
2123.386648354928
 30
0.0
  0
VERTEX
  5
67D
  8
OUTER_PROFILES
 10
-3021.373560305033
 20
2122.447898817456
 30
0.0
  0
VERTEX
  5
67E
  8
OUTER_PROFILES
 10
-3016.521222999363
 20
2122.447898817548
 30
0.0
 42
-0.4155238393973699
  0
VERTEX
  5
67F
  8
OUTER_PROFILES
 10
-3015.767869396612
 20
2121.697898817548
 30
0.0
 42
-0.4142135623733338
  0
VERTEX
  5
680
  8
OUTER_PROFILES
 10
-3016.517869396612
 20
2120.947898817548
 30
0.0
  0
VERTEX
  5
681
  8
OUTER_PROFILES
 10
-3021.373560305515
 20
2120.947898817521
 30
0.0
  0
VERTEX
  5
682
  8
OUTER_PROFILES
 10
-3022.999522199729
 20
2120.009149280168
 30
0.0
  0
VERTEX
  5
683
  8
OUTER_PROFILES
 10
-3025.234852906661
 20
2115.218170737264
 30
0.0
  0
VERTEX
  5
684
  8
OUTER_PROFILES
 10
-3027.063449206456
 20
2116.232723484595
 30
0.0
  0
VERTEX
  5
685
  8
OUTER_PROFILES
 10
-3063.33656067535
 20
2070.203979600738
 30
0.0
 42
0.2000599556167072
  0
VERTEX
  5
686
  8
OUTER_PROFILES
 10
-3063.967649953824
 20
2067.983592763313
 30
0.0
  0
VERTEX
  5
687
  8
OUTER_PROFILES
 10
-3061.574216964925
 20
2047.791772564478
 30
0.0
 42
0.4142139551311372
  0
VERTEX
  5
688
  8
OUTER_PROFILES
 10
-3058.241940551909
 20
2045.165756942949
 30
0.0
  0
VERTEX
  5
689
  8
OUTER_PROFILES
 10
-3019.16976637924
 20
2049.797168558776
 30
0.0
  0
VERTEX
  5
68A
  8
OUTER_PROFILES
 10
-3017.850937821131
 20
2052.874226126874
 30
0.0
  0
VERTEX
  5
68B
  8
OUTER_PROFILES
 10
-3015.843924809767
 20
2050.191396461416
 30
0.0
  0
VERTEX
  5
68C
  8
OUTER_PROFILES
 10
-3015.818933081252
 20
2050.194358850487
 30
0.0
  0
VERTEX
  5
68D
  8
OUTER_PROFILES
 10
-2973.702443699126
 20
2050.194358850487
 30
0.0
 42
0.4688057359917324
  0
VERTEX
  5
68E
  8
OUTER_PROFILES
 10
-2970.743475544477
 20
2053.732073001687
 30
0.0
  0
VERTEX
  5
68F
  8
OUTER_PROFILES
 10
-2978.465081786355
 20
2096.113820102068
 30
0.0
 42
-0.268525111258053
  0
VERTEX
  5
690
  8
OUTER_PROFILES
 10
-2977.440147713084
 20
2098.939245955884
 30
0.0
  0
VERTEX
  5
691
  8
OUTER_PROFILES
 10
-2951.509682326119
 20
2120.69748989834
 30
0.0
  0
VERTEX
  5
692
  8
OUTER_PROFILES
 10
-2951.943403297139
 20
2120.947898817615
 30
0.0
  0
VERTEX
  5
693
  8
OUTER_PROFILES
 10
-2956.795878400074
 20
2120.947898817548
 30
0.0
 42
-0.4154699725099018
  0
VERTEX
  5
694
  8
OUTER_PROFILES
 10
-2957.549094205707
 20
2121.697898817548
 30
0.0
 42
-0.4142135623733338
  0
VERTEX
  5
695
  8
OUTER_PROFILES
 10
-2956.799094205707
 20
2122.447898817548
 30
0.0
  0
VERTEX
  5
696
  8
OUTER_PROFILES
 10
-2951.055492296027
 20
2122.447898817408
 30
0.0
  0
VERTEX
  5
697
  8
OUTER_PROFILES
 10
-2948.295679063643
 20
2123.394358850487
 30
0.0
  0
VERTEX
  5
698
  8
OUTER_PROFILES
 10
-2948.295679063643
 20
2196.594358850487
 30
0.0
  0
VERTEX
  5
699
  8
OUTER_PROFILES
 10
-2951.055492295467
 20
2197.540818883416
 30
0.0
  0
VERTEX
  5
69A
  8
OUTER_PROFILES
 10
-2956.794189502856
 20
2197.540818883425
 30
0.0
 42
-0.4154699725099018
  0
VERTEX
  5
69B
  8
OUTER_PROFILES
 10
-2957.547405308489
 20
2198.290818883425
 30
0.0
 42
-0.4142135623733338
  0
VERTEX
  5
69C
  8
OUTER_PROFILES
 10
-2956.797405308489
 20
2199.040818883425
 30
0.0
  0
VERTEX
  5
69D
  8
OUTER_PROFILES
 10
-2952.84312268439
 20
2199.040818883379
 30
0.0
  0
VERTEX
  5
69E
  8
OUTER_PROFILES
 10
-2952.339203741394
 20
2199.987278916244
 30
0.0
  0
VERTEX
  5
69F
  8
OUTER_PROFILES
 10
-2977.433602387951
 20
2221.043979565186
 30
0.0
 42
-0.2702336494228116
  0
VERTEX
  5
6A0
  8
OUTER_PROFILES
 10
-2978.463186336759
 20
2223.885301194077
 30
0.0
  0
VERTEX
  5
6A1
  8
OUTER_PROFILES
 10
-2970.745165419376
 20
2266.247369446395
 30
0.0
 42
0.468991294771589
  0
VERTEX
  5
6A2
  8
OUTER_PROFILES
 10
-2973.695117107141
 20
2269.794124056992
 30
0.0
  0
VERTEX
  5
6A3
  8
OUTER_PROFILES
 10
-3015.819286915232
 20
2269.791373785874
 30
0.0
  0
VERTEX
  5
6A4
  8
OUTER_PROFILES
 10
-3015.811689281215
 20
2269.780183849765
 30
0.0
  0
VERTEX
  5
6A5
  8
OUTER_PROFILES
 10
-3017.813673256307
 20
2267.104076636156
 30
0.0
  0
VERTEX
  5
6A6
  8
OUTER_PROFILES
 10
-3019.148473876094
 20
2270.189025240028
 30
0.0
  0
VERTEX
  5
6A7
  8
OUTER_PROFILES
 10
-3058.251613441305
 20
2274.824107331855
 30
0.0
 42
0.4132628940835419
  0
VERTEX
  5
6A8
  8
OUTER_PROFILES
 10
-3061.574214630079
 20
2272.196964834054
 30
0.0
  0
VERTEX
  5
6A9
  8
OUTER_PROFILES
 10
-3063.969188235483
 20
2251.992147466879
 30
0.0
 42
0.1977744218184894
  0
VERTEX
  5
6AA
  8
OUTER_PROFILES
 10
-3063.344801401421
 20
2249.795195164833
 30
0.0
  0
VERTEX
  5
6AB
  8
OUTER_PROFILES
 10
-3027.063449206452
 20
2203.755994216375
 30
0.0
  0
VERTEX
  5
6AC
  8
OUTER_PROFILES
 10
-3025.245918566162
 20
2204.76161031062
 30
0.0
  0
VERTEX
  5
6AD
  8
OUTER_PROFILES
 10
-3022.996144405292
 20
2199.983423668584
 30
0.0
  0
VERTEX
  5
6AE
  8
OUTER_PROFILES
 10
-3022.996822838979
 20
2199.983423668584
 30
0.0
  0
SEQEND
  5
8F6
  8
OUTER_PROFILES
  0
POLYLINE
  5
158
  8
OUTER_PROFILES
 66
     1
 10
0.0
 20
0.0
 30
0.0
 70
     1
  0
VERTEX
  5
6AF
  8
OUTER_PROFILES
 10
-3255.314360662838
 20
2124.705000134331
 30
0.0
  0
VERTEX
  5
6B0
  8
OUTER_PROFILES
 10
-3255.328871631366
 20
2129.81487787688
 30
0.0
 42
-0.4155238393973699
  0
VERTEX
  5
6B1
  8
OUTER_PROFILES
 10
-3254.581014011248
 20
2130.570358274249
 30
0.0
 42
-0.4142135623733338
  0
VERTEX
  5
6B2
  8
OUTER_PROFILES
 10
-3253.828887203108
 20
2129.822491130649
 30
0.0
  0
VERTEX
  5
6B3
  8
OUTER_PROFILES
 10
-3253.81436089828
 20
2124.707212846194
 30
0.0
  0
VERTEX
  5
6B4
  8
OUTER_PROFILES
 10
-3252.87122892477
 20
2123.084321091975
 30
0.0
  0
VERTEX
  5
6B5
  8
OUTER_PROFILES
 10
-3179.676604325064
 20
2123.292178294737
 30
0.0
 42
0.4154628939121291
  0
VERTEX
  5
6B6
  8
OUTER_PROFILES
 10
-3176.672344963529
 20
2126.300694583168
 30
0.0
  0
VERTEX
  5
6B7
  8
OUTER_PROFILES
 10
-3176.863146808789
 20
2193.489462887519
 30
0.0
 42
0.4152867466038104
  0
VERTEX
  5
6B8
  8
OUTER_PROFILES
 10
-3179.871655272995
 20
2196.491929389193
 30
0.0
  0
VERTEX
  5
6B9
  8
OUTER_PROFILES
 10
-3253.078785570057
 20
2196.284276832406
 30
0.0
  0
VERTEX
  5
6BA
  8
OUTER_PROFILES
 10
-3254.012999211319
 20
2194.655507012592
 30
0.0
  0
VERTEX
  5
6BB
  8
OUTER_PROFILES
 10
-3253.998484301335
 20
2189.544241317787
 30
0.0
 42
-0.4154699725099018
  0
VERTEX
  5
6BC
  8
OUTER_PROFILES
 10
-3254.746342312767
 20
2188.788898716979
 30
0.0
 42
-0.4142135623733338
  0
VERTEX
  5
6BD
  8
OUTER_PROFILES
 10
-3255.498469120907
 20
2189.53676586058
 30
0.0
  0
VERTEX
  5
6BE
  8
OUTER_PROFILES
 10
-3255.512995425921
 20
2194.652044146563
 30
0.0
  0
VERTEX
  5
6BF
  8
OUTER_PROFILES
 10
-3256.455982352109
 20
2196.27468631015
 30
0.0
  0
VERTEX
  5
6C0
  8
OUTER_PROFILES
 10
-3256.464296474913
 20
2196.274412698797
 30
0.0
  0
VERTEX
  5
6C1
  8
OUTER_PROFILES
 10
-3256.464324311507
 20
2196.284215048754
 30
0.0
  0
VERTEX
  5
6C2
  8
OUTER_PROFILES
 10
-3256.459904263453
 20
2196.284227600752
 30
0.0
  0
VERTEX
  5
6C3
  8
OUTER_PROFILES
 10
-3256.459897016551
 20
2196.281675684181
 30
0.0
  0
VERTEX
  5
6C4
  8
OUTER_PROFILES
 10
-3258.088917245393
 20
2197.216032952412
 30
0.0
  0
VERTEX
  5
6C5
  8
OUTER_PROFILES
 10
-3263.205682917872
 20
2197.201502423575
 30
0.0
 42
-0.4154699725099018
  0
VERTEX
  5
6C6
  8
OUTER_PROFILES
 10
-3263.961025518679
 20
2197.949360435007
 30
0.0
 42
-0.4142135623733338
  0
VERTEX
  5
6C7
  8
OUTER_PROFILES
 10
-3263.213158375079
 20
2198.701487243147
 30
0.0
  0
VERTEX
  5
6C8
  8
OUTER_PROFILES
 10
-3258.092380112755
 20
2198.716029166806
 30
0.0
  0
VERTEX
  5
6C9
  8
OUTER_PROFILES
 10
-3256.469488358581
 20
2199.65916114028
 30
0.0
  0
VERTEX
  5
6CA
  8
OUTER_PROFILES
 10
-3256.469481111681
 20
2199.656609224253
 30
0.0
  0
VERTEX
  5
6CB
  8
OUTER_PROFILES
 10
-3256.473901159735
 20
2199.656596672255
 30
0.0
  0
VERTEX
  5
6CC
  8
OUTER_PROFILES
 10
-3256.672136323823
 20
2269.462926330669
 30
0.0
 42
0.415306601981792
  0
VERTEX
  5
6CD
  8
OUTER_PROFILES
 10
-3259.680654463136
 20
2272.46558617741
 30
0.0
  0
VERTEX
  5
6CE
  8
OUTER_PROFILES
 10
-3326.875898414093
 20
2272.274765942687
 30
0.0
 42
0.4153451631747047
  0
VERTEX
  5
6CF
  8
OUTER_PROFILES
 10
-3329.878952918536
 20
2269.266248180724
 30
0.0
  0
VERTEX
  5
6D0
  8
OUTER_PROFILES
 10
-3329.680694463537
 20
2199.451716884255
 30
0.0
  0
VERTEX
  5
6D1
  8
OUTER_PROFILES
 10
-3328.051674235424
 20
2198.51735961613
 30
0.0
  0
VERTEX
  5
6D2
  8
OUTER_PROFILES
 10
-3322.935046358778
 20
2198.531889753607
 30
0.0
 42
-0.4155238393973699
  0
VERTEX
  5
6D3
  8
OUTER_PROFILES
 10
-3322.179565961409
 20
2197.784032133489
 30
0.0
 42
-0.4142135623733338
  0
VERTEX
  5
6D4
  8
OUTER_PROFILES
 10
-3322.927433105009
 20
2197.031905325348
 30
0.0
  0
VERTEX
  5
6D5
  8
OUTER_PROFILES
 10
-3328.048211367602
 20
2197.017363401725
 30
0.0
  0
VERTEX
  5
6D6
  8
OUTER_PROFILES
 10
-3329.6749474057
 20
2196.07036524796
 30
0.0
  0
VERTEX
  5
6D7
  8
OUTER_PROFILES
 10
-3330.612916522669
 20
2194.436627351072
 30
0.0
  0
VERTEX
  5
6D8
  8
OUTER_PROFILES
 10
-3330.59840474248
 20
2189.326463796394
 30
0.0
 42
-0.4154699725099018
  0
VERTEX
  5
6D9
  8
OUTER_PROFILES
 10
-3331.346262753911
 20
2188.571121195587
 30
0.0
 42
-0.4142135623733338
  0
VERTEX
  5
6DA
  8
OUTER_PROFILES
 10
-3332.098389562052
 20
2189.318988339187
 30
0.0
  0
VERTEX
  5
6DB
  8
OUTER_PROFILES
 10
-3332.112914025106
 20
2194.4336182253
 30
0.0
  0
VERTEX
  5
6DC
  8
OUTER_PROFILES
 10
-3333.056277145992
 20
2196.056907725675
 30
0.0
  0
VERTEX
  5
6DD
  8
OUTER_PROFILES
 10
-3402.857651079751
 20
2195.858686634793
 30
0.0
 42
0.4154965370959443
  0
VERTEX
  5
6DE
  8
OUTER_PROFILES
 10
-3405.862254726417
 20
2192.850170856659
 30
0.0
  0
VERTEX
  5
6DF
  8
OUTER_PROFILES
 10
-3405.67142786475
 20
2125.652593300376
 30
0.0
 42
0.4144264381036139
  0
VERTEX
  5
6E0
  8
OUTER_PROFILES
 10
-3402.662915232944
 20
2122.658944487022
 30
0.0
  0
VERTEX
  5
6E1
  8
OUTER_PROFILES
 10
-3332.848405516382
 20
2122.857202880739
 30
0.0
  0
VERTEX
  5
6E2
  8
OUTER_PROFILES
 10
-3331.914277132536
 20
2124.485824057089
 30
0.0
  0
VERTEX
  5
6E3
  8
OUTER_PROFILES
 10
-3331.928792072511
 20
2129.597100355487
 30
0.0
 42
-0.4155238393973699
  0
VERTEX
  5
6E4
  8
OUTER_PROFILES
 10
-3331.180934452393
 20
2130.352580752857
 30
0.0
 42
-0.4142135623733338
  0
VERTEX
  5
6E5
  8
OUTER_PROFILES
 10
-3330.428807644253
 20
2129.604713609257
 30
0.0
  0
VERTEX
  5
6E6
  8
OUTER_PROFILES
 10
-3330.414286731928
 20
2124.491334261698
 30
0.0
  0
VERTEX
  5
6E7
  8
OUTER_PROFILES
 10
-3329.467053880036
 20
2122.862949938576
 30
0.0
  0
VERTEX
  5
6E8
  8
OUTER_PROFILES
 10
-3327.833315982976
 20
2121.924980821512
 30
0.0
  0
VERTEX
  5
6E9
  8
OUTER_PROFILES
 10
-3322.719750272225
 20
2121.939502263198
 30
0.0
 42
-0.4155238393973699
  0
VERTEX
  5
6EA
  8
OUTER_PROFILES
 10
-3321.964269874856
 20
2121.19164464308
 30
0.0
 42
-0.4142135623733338
  0
VERTEX
  5
6EB
  8
OUTER_PROFILES
 10
-3322.712137018456
 20
2120.439517834939
 30
0.0
  0
VERTEX
  5
6EC
  8
OUTER_PROFILES
 10
-3327.830306858065
 20
2120.42498331866
 30
0.0
  0
VERTEX
  5
6ED
  8
OUTER_PROFILES
 10
-3329.453596357731
 20
2119.481620198167
 30
0.0
  0
VERTEX
  5
6EE
  8
OUTER_PROFILES
 10
-3329.255362530933
 20
2049.675761451806
 30
0.0
 42
0.4150583454947918
  0
VERTEX
  5
6EF
  8
OUTER_PROFILES
 10
-3326.246843204751
 20
2046.675642664102
 30
0.0
  0
VERTEX
  5
6F0
  8
OUTER_PROFILES
 10
-3259.05160781743
 20
2046.866462874506
 30
0.0
 42
0.4153451787367714
  0
VERTEX
  5
6F1
  8
OUTER_PROFILES
 10
-3256.048553152221
 20
2049.874980636926
 30
0.0
  0
VERTEX
  5
6F2
  8
OUTER_PROFILES
 10
-3256.24681160722
 20
2119.689511933399
 30
0.0
  0
VERTEX
  5
6F3
  8
OUTER_PROFILES
 10
-3257.875432783806
 20
2120.623640317329
 30
0.0
  0
VERTEX
  5
6F4
  8
OUTER_PROFILES
 10
-3262.990386831319
 20
2120.609114933166
 30
0.0
 42
-0.4154699725099018
  0
VERTEX
  5
6F5
  8
OUTER_PROFILES
 10
-3263.745729432125
 20
2121.356972944598
 30
0.0
 42
-0.4142135623733338
  0
VERTEX
  5
6F6
  8
OUTER_PROFILES
 10
-3262.997862288526
 20
2122.109099752738
 30
0.0
  0
VERTEX
  5
6F7
  8
OUTER_PROFILES
 10
-3257.880942987933
 20
2122.123630717828
 30
0.0
  0
VERTEX
  5
6F8
  8
OUTER_PROFILES
 10
-3256.252558665057
 20
2123.070863569669
 30
0.0
  0
SEQEND
  5
8F7
  8
OUTER_PROFILES
  0
POLYLINE
  5
159
  8
OUTER_PROFILES
 66
     1
 10
0.0
 20
0.0
 30
0.0
 70
     1
  0
VERTEX
  5
6F9
  8
OUTER_PROFILES
 10
-3542.884419433705
 20
2235.793826076479
 30
0.0
  0
VERTEX
  5
6FA
  8
OUTER_PROFILES
 10
-3544.513040610701
 20
2236.727954460573
 30
0.0
  0
VERTEX
  5
6FB
  8
OUTER_PROFILES
 10
-3544.716694590507
 20
2308.44246039074
 30
0.0
 42
-0.4147302998354052
  0
VERTEX
  5
6FC
  8
OUTER_PROFILES
 10
-3541.719934237426
 20
2311.450977983839
 30
0.0
  0
VERTEX
  5
6FD
  8
OUTER_PROFILES
 10
-3468.517810693438
 20
2311.658856482011
 30
0.0
  0
VERTEX
  5
6FE
  8
OUTER_PROFILES
 10
-3466.820761619546
 20
2308.738663947132
 30
0.0
  0
VERTEX
  5
6FF
  8
OUTER_PROFILES
 10
-3465.140325237351
 20
2311.668447824041
 30
0.0
  0
VERTEX
  5
700
  8
OUTER_PROFILES
 10
-3433.425642457
 20
2311.758510793627
 30
0.0
 42
-0.4152896061690827
  0
VERTEX
  5
701
  8
OUTER_PROFILES
 10
-3430.417124167931
 20
2308.756024895558
 30
0.0
  0
VERTEX
  5
702
  8
OUTER_PROFILES
 10
-3430.222042713242
 20
2240.060239266488
 30
0.0
 42
-0.4142135623730307
  0
VERTEX
  5
703
  8
OUTER_PROFILES
 10
-3433.213511287641
 20
2237.051732033926
 30
0.0
  0
VERTEX
  5
704
  8
OUTER_PROFILES
 10
-3464.928173837824
 20
2236.961669121789
 30
0.0
  0
VERTEX
  5
705
  8
OUTER_PROFILES
 10
-3466.625222911704
 20
2239.881861656668
 30
0.0
  0
VERTEX
  5
706
  8
OUTER_PROFILES
 10
-3468.309503578093
 20
2236.948211599484
 30
0.0
  0
VERTEX
  5
707
  8
OUTER_PROFILES
 10
-3469.937887901003
 20
2236.0009787477
 30
0.0
  0
VERTEX
  5
708
  8
OUTER_PROFILES
 10
-3476.551261200513
 20
2235.982198170727
 30
0.0
 42
0.4142135623733338
  0
VERTEX
  5
709
  8
OUTER_PROFILES
 10
-3477.299128324542
 20
2235.230064470722
 30
0.0
 42
0.4154699725099018
  0
VERTEX
  5
70A
  8
OUTER_PROFILES
 10
-3476.543785743306
 20
2234.482213351156
 30
0.0
  0
VERTEX
  5
70B
  8
OUTER_PROFILES
 10
-3469.933628237178
 20
2234.500984795959
 30
0.0
  0
VERTEX
  5
70C
  8
OUTER_PROFILES
 10
-3468.29989033998
 20
2233.563015678916
 30
0.0
  0
VERTEX
  5
70D
  8
OUTER_PROFILES
 10
-3466.5989750858
 20
2230.638978859845
 30
0.0
  0
VERTEX
  5
70E
  8
OUTER_PROFILES
 10
-3464.918538703609
 20
2233.568762736753
 30
0.0
  0
VERTEX
  5
70F
  8
OUTER_PROFILES
 10
-3433.203860051055
 20
2233.658825694618
 30
0.0
 42
-0.4151735180310932
  0
VERTEX
  5
710
  8
OUTER_PROFILES
 10
-3430.195341008372
 20
2230.657527990124
 30
0.0
  0
VERTEX
  5
711
  8
OUTER_PROFILES
 10
-3430.004535097535
 20
2163.46732803773
 30
0.0
 42
-0.4183618220907845
  0
VERTEX
  5
712
  8
OUTER_PROFILES
 10
-3433.038429669934
 20
2160.459000325545
 30
0.0
  0
VERTEX
  5
713
  8
OUTER_PROFILES
 10
-3464.710667074128
 20
2160.369057891818
 30
0.0
  0
VERTEX
  5
714
  8
OUTER_PROFILES
 10
-3466.407716147928
 20
2163.289250426697
 30
0.0
  0
VERTEX
  5
715
  8
OUTER_PROFILES
 10
-3468.091996814316
 20
2160.355600369513
 30
0.0
  0
VERTEX
  5
716
  8
OUTER_PROFILES
 10
-3469.720381137142
 20
2159.408367517729
 30
0.0
  0
VERTEX
  5
717
  8
OUTER_PROFILES
 10
-3476.333754436737
 20
2159.389586940756
 30
0.0
 42
0.4142135623733338
  0
VERTEX
  5
718
  8
OUTER_PROFILES
 10
-3477.081621560766
 20
2158.637453240751
 30
0.0
 42
0.4154699725099018
  0
VERTEX
  5
719
  8
OUTER_PROFILES
 10
-3476.32627897953
 20
2157.889602121184
 30
0.0
  0
VERTEX
  5
71A
  8
OUTER_PROFILES
 10
-3469.716121473219
 20
2157.90837356595
 30
0.0
  0
VERTEX
  5
71B
  8
OUTER_PROFILES
 10
-3468.082383576203
 20
2156.970404448945
 30
0.0
  0
VERTEX
  5
71C
  8
OUTER_PROFILES
 10
-3466.381468322024
 20
2154.046367629874
 30
0.0
  0
VERTEX
  5
71D
  8
OUTER_PROFILES
 10
-3464.701031939901
 20
2156.976151506782
 30
0.0
  0
VERTEX
  5
71E
  8
OUTER_PROFILES
 10
-3432.986347675634
 20
2157.066214480582
 30
0.0
 42
-0.4153283720495517
  0
VERTEX
  5
71F
  8
OUTER_PROFILES
 10
-3429.977829743719
 20
2154.063331826752
 30
0.0
  0
VERTEX
  5
720
  8
OUTER_PROFILES
 10
-3429.787009080259
 20
2086.86793690097
 30
0.0
 42
-0.4142195211670373
  0
VERTEX
  5
721
  8
OUTER_PROFILES
 10
-3432.77853868957
 20
2083.859429495082
 30
0.0
  0
VERTEX
  5
722
  8
OUTER_PROFILES
 10
-3464.493140204831
 20
2083.769366756271
 30
0.0
  0
VERTEX
  5
723
  8
OUTER_PROFILES
 10
-3466.190189278722
 20
2086.68955929115
 30
0.0
  0
VERTEX
  5
724
  8
OUTER_PROFILES
 10
-3467.87446994511
 20
2083.755909233966
 30
0.0
  0
VERTEX
  5
725
  8
OUTER_PROFILES
 10
-3469.502854268247
 20
2082.808676382131
 30
0.0
  0
VERTEX
  5
726
  8
OUTER_PROFILES
 10
-3476.116227567531
 20
2082.789895805209
 30
0.0
 42
0.4142135623733338
  0
VERTEX
  5
727
  8
OUTER_PROFILES
 10
-3476.86409469156
 20
2082.037762105204
 30
0.0
 42
0.4154699725099018
  0
VERTEX
  5
728
  8
OUTER_PROFILES
 10
-3476.108752110325
 20
2081.289910985638
 30
0.0
  0
VERTEX
  5
729
  8
OUTER_PROFILES
 10
-3469.498594603402
 20
2081.308682430262
 30
0.0
  0
VERTEX
  5
72A
  8
OUTER_PROFILES
 10
-3467.864856706998
 20
2080.370713313398
 30
0.0
  0
VERTEX
  5
72B
  8
OUTER_PROFILES
 10
-3466.163941452819
 20
2077.446676494327
 30
0.0
  0
VERTEX
  5
72C
  8
OUTER_PROFILES
 10
-3464.483505070633
 20
2080.376460371235
 30
0.0
  0
VERTEX
  5
72D
  8
OUTER_PROFILES
 10
-3432.768839653209
 20
2080.466523291515
 30
0.0
 42
-0.4146186083283635
  0
VERTEX
  5
72E
  8
OUTER_PROFILES
 10
-3429.760323508094
 20
2077.47090657962
 30
0.0
  0
VERTEX
  5
72F
  8
OUTER_PROFILES
 10
-3429.566358457058
 20
2009.168250200814
 30
0.0
 42
-0.4142135623730307
  0
VERTEX
  5
730
  8
OUTER_PROFILES
 10
-3432.557827031457
 20
2006.159742968252
 30
0.0
  0
VERTEX
  5
731
  8
OUTER_PROFILES
 10
-3464.272489581638
 20
2006.069680056115
 30
0.0
  0
VERTEX
  5
732
  8
OUTER_PROFILES
 10
-3465.96953865552
 20
2008.989872590994
 30
0.0
  0
VERTEX
  5
733
  8
OUTER_PROFILES
 10
-3467.649975037731
 20
2006.060088714085
 30
0.0
  0
VERTEX
  5
734
  8
OUTER_PROFILES
 10
-3540.85739034712
 20
2005.852195188422
 30
0.0
 42
-0.4142135623730307
  0
VERTEX
  5
735
  8
OUTER_PROFILES
 10
-3543.865897579682
 20
2008.843663762822
 30
0.0
  0
VERTEX
  5
736
  8
OUTER_PROFILES
 10
-3544.06841563569
 20
2080.158166638902
 30
0.0
  0
VERTEX
  5
737
  8
OUTER_PROFILES
 10
-3542.445126136519
 20
2081.101529759196
 30
0.0
  0
VERTEX
  5
738
  8
OUTER_PROFILES
 10
-3535.830502297462
 20
2081.12031388741
 30
0.0
 42
0.4142135623733338
  0
VERTEX
  5
739
  8
OUTER_PROFILES
 10
-3535.08263517516
 20
2081.872448195521
 30
0.0
 42
0.4155238393973699
  0
VERTEX
  5
73A
  8
OUTER_PROFILES
 10
-3535.838115551231
 20
2082.620298315669
 30
0.0
  0
VERTEX
  5
73B
  8
OUTER_PROFILES
 10
-3542.44938580086
 20
2082.601523711021
 30
0.0
  0
VERTEX
  5
73C
  8
OUTER_PROFILES
 10
-3544.07800697772
 20
2083.535652095066
 30
0.0
  0
VERTEX
  5
73D
  8
OUTER_PROFILES
 10
-3544.285942504895
 20
2156.757857774404
 30
0.0
  0
VERTEX
  5
73E
  8
OUTER_PROFILES
 10
-3542.662653005079
 20
2157.701220894892
 30
0.0
  0
VERTEX
  5
73F
  8
OUTER_PROFILES
 10
-3536.048029166668
 20
2157.720005022957
 30
0.0
 42
0.4142135623733338
  0
VERTEX
  5
740
  8
OUTER_PROFILES
 10
-3535.300162044366
 20
2158.472139331067
 30
0.0
 42
0.4155238393973699
  0
VERTEX
  5
741
  8
OUTER_PROFILES
 10
-3536.055642420436
 20
2159.219989451215
 30
0.0
  0
VERTEX
  5
742
  8
OUTER_PROFILES
 10
-3542.666912670144
 20
2159.20121484648
 30
0.0
  0
VERTEX
  5
743
  8
OUTER_PROFILES
 10
-3544.295533846925
 20
2160.135343230566
 30
0.0
  0
VERTEX
  5
744
  8
OUTER_PROFILES
 10
-3544.503449268671
 20
2233.350469004413
 30
0.0
  0
VERTEX
  5
745
  8
OUTER_PROFILES
 10
-3542.880159769122
 20
2234.293832124973
 30
0.0
  0
VERTEX
  5
746
  8
OUTER_PROFILES
 10
-3536.265535930444
 20
2234.312616252928
 30
0.0
 42
0.4142135623733338
  0
VERTEX
  5
747
  8
OUTER_PROFILES
 10
-3535.517668808142
 20
2235.064750561039
 30
0.0
 42
0.4155238393973699
  0
VERTEX
  5
748
  8
OUTER_PROFILES
 10
-3536.273149184213
 20
2235.812600681187
 30
0.0
  0
SEQEND
  5
8F8
  8
OUTER_PROFILES
  0
POLYLINE
  5
15A
  8
OUTER_PROFILES
 66
     1
 10
0.0
 20
0.0
 30
0.0
 70
     1
  0
VERTEX
  5
749
  8
OUTER_PROFILES
 10
-2838.590804189739
 20
2121.538195063394
 30
0.0
  0
VERTEX
  5
74A
  8
OUTER_PROFILES
 10
-2847.087450586988
 20
2121.538195063394
 30
0.0
 42
0.4142135623733338
  0
VERTEX
  5
74B
  8
OUTER_PROFILES
 10
-2847.837450586988
 20
2120.788188171502
 30
0.0
 42
0.4154699725099018
  0
VERTEX
  5
74C
  8
OUTER_PROFILES
 10
-2847.084234781355
 20
2120.038195063394
 30
0.0
  0
VERTEX
  5
74D
  8
OUTER_PROFILES
 10
-2838.587450586988
 20
2120.038195063394
 30
0.0
 42
0.4142135623733338
  0
VERTEX
  5
74E
  8
OUTER_PROFILES
 10
-2837.837450586988
 20
2120.788202563393
 30
0.0
 42
0.4155238393973699
  0
SEQEND
  5
8F9
  8
OUTER_PROFILES
  0
POLYLINE
  5
15B
  8
OUTER_PROFILES
 66
     1
 10
0.0
 20
0.0
 30
0.0
 70
     1
  0
VERTEX
  5
74F
  8
OUTER_PROFILES
 10
-2855.463153584451
 20
2121.538195063394
 30
0.0
  0
VERTEX
  5
750
  8
OUTER_PROFILES
 10
-2863.9597999817
 20
2121.538195063394
 30
0.0
 42
0.4142135623733338
  0
VERTEX
  5
751
  8
OUTER_PROFILES
 10
-2864.7097999817
 20
2120.788188171502
 30
0.0
 42
0.4154699725099018
  0
VERTEX
  5
752
  8
OUTER_PROFILES
 10
-2863.956584176067
 20
2120.038195063394
 30
0.0
  0
VERTEX
  5
753
  8
OUTER_PROFILES
 10
-2855.4597999817
 20
2120.038195063394
 30
0.0
 42
0.4142135623733338
  0
VERTEX
  5
754
  8
OUTER_PROFILES
 10
-2854.7097999817
 20
2120.788202563393
 30
0.0
 42
0.4155238393973699
  0
SEQEND
  5
8FA
  8
OUTER_PROFILES
  0
POLYLINE
  5
15C
  8
OUTER_PROFILES
 66
     1
 10
0.0
 20
0.0
 30
0.0
 70
     1
  0
VERTEX
  5
755
  8
OUTER_PROFILES
 10
-2872.482723218499
 20
2121.538195063394
 30
0.0
  0
VERTEX
  5
756
  8
OUTER_PROFILES
 10
-2880.979369615749
 20
2121.538195063394
 30
0.0
 42
0.4142135623733338
  0
VERTEX
  5
757
  8
OUTER_PROFILES
 10
-2881.729369615749
 20
2120.788188171502
 30
0.0
 42
0.4154699725099018
  0
VERTEX
  5
758
  8
OUTER_PROFILES
 10
-2880.976153810116
 20
2120.038195063394
 30
0.0
  0
VERTEX
  5
759
  8
OUTER_PROFILES
 10
-2872.479369615749
 20
2120.038195063394
 30
0.0
 42
0.4142135623733338
  0
VERTEX
  5
75A
  8
OUTER_PROFILES
 10
-2871.729369615749
 20
2120.788202563393
 30
0.0
 42
0.4155238393973699
  0
SEQEND
  5
8FB
  8
OUTER_PROFILES
  0
POLYLINE
  5
15D
  8
OUTER_PROFILES
 66
     1
 10
0.0
 20
0.0
 30
0.0
 70
     1
  0
VERTEX
  5
75B
  8
OUTER_PROFILES
 10
-2838.590804189739
 20
2198.131115129269
 30
0.0
  0
VERTEX
  5
75C
  8
OUTER_PROFILES
 10
-2847.087450586988
 20
2198.131115129269
 30
0.0
 42
0.4142135623733338
  0
VERTEX
  5
75D
  8
OUTER_PROFILES
 10
-2847.837450586988
 20
2197.381108237377
 30
0.0
 42
0.4154699725099018
  0
VERTEX
  5
75E
  8
OUTER_PROFILES
 10
-2847.084234781355
 20
2196.631115129269
 30
0.0
  0
VERTEX
  5
75F
  8
OUTER_PROFILES
 10
-2838.587450586988
 20
2196.631115129269
 30
0.0
 42
0.4142135623733338
  0
VERTEX
  5
760
  8
OUTER_PROFILES
 10
-2837.837450586988
 20
2197.381122629269
 30
0.0
 42
0.4155238393973699
  0
SEQEND
  5
8FC
  8
OUTER_PROFILES
  0
POLYLINE
  5
15E
  8
OUTER_PROFILES
 66
     1
 10
0.0
 20
0.0
 30
0.0
 70
     1
  0
VERTEX
  5
761
  8
OUTER_PROFILES
 10
-2855.463153584451
 20
2198.131115129269
 30
0.0
  0
VERTEX
  5
762
  8
OUTER_PROFILES
 10
-2863.9597999817
 20
2198.131115129269
 30
0.0
 42
0.4142135623733338
  0
VERTEX
  5
763
  8
OUTER_PROFILES
 10
-2864.7097999817
 20
2197.381108237377
 30
0.0
 42
0.4154699725099018
  0
VERTEX
  5
764
  8
OUTER_PROFILES
 10
-2863.956584176067
 20
2196.631115129269
 30
0.0
  0
VERTEX
  5
765
  8
OUTER_PROFILES
 10
-2855.4597999817
 20
2196.631115129269
 30
0.0
 42
0.4142135623733338
  0
VERTEX
  5
766
  8
OUTER_PROFILES
 10
-2854.7097999817
 20
2197.381122629269
 30
0.0
 42
0.4155238393973699
  0
SEQEND
  5
8FD
  8
OUTER_PROFILES
  0
POLYLINE
  5
15F
  8
OUTER_PROFILES
 66
     1
 10
0.0
 20
0.0
 30
0.0
 70
     1
  0
VERTEX
  5
767
  8
OUTER_PROFILES
 10
-2872.482723218499
 20
2198.131115129269
 30
0.0
  0
VERTEX
  5
768
  8
OUTER_PROFILES
 10
-2880.979369615749
 20
2198.131115129269
 30
0.0
 42
0.4142135623733338
  0
VERTEX
  5
769
  8
OUTER_PROFILES
 10
-2881.729369615749
 20
2197.381108237377
 30
0.0
 42
0.4154699725099018
  0
VERTEX
  5
76A
  8
OUTER_PROFILES
 10
-2880.976153810116
 20
2196.631115129269
 30
0.0
  0
VERTEX
  5
76B
  8
OUTER_PROFILES
 10
-2872.479369615749
 20
2196.631115129269
 30
0.0
 42
0.4142135623733338
  0
VERTEX
  5
76C
  8
OUTER_PROFILES
 10
-2871.729369615749
 20
2197.381122629269
 30
0.0
 42
0.4155238393973699
  0
SEQEND
  5
8FE
  8
OUTER_PROFILES
  0
POLYLINE
  5
160
  8
OUTER_PROFILES
 66
     1
 10
0.0
 20
0.0
 30
0.0
 70
     1
  0
VERTEX
  5
76D
  8
OUTER_PROFILES
 10
-2965.511395770994
 20
2122.447898817548
 30
0.0
  0
VERTEX
  5
76E
  8
OUTER_PROFILES
 10
-2974.008042168243
 20
2122.447898817548
 30
0.0
 42
0.4142135623733338
  0
VERTEX
  5
76F
  8
OUTER_PROFILES
 10
-2974.758042168243
 20
2121.697891925656
 30
0.0
 42
0.4154699725099018
  0
VERTEX
  5
770
  8
OUTER_PROFILES
 10
-2974.00482636261
 20
2120.947898817548
 30
0.0
  0
VERTEX
  5
771
  8
OUTER_PROFILES
 10
-2965.508042168243
 20
2120.947898817548
 30
0.0
 42
0.4142135623733338
  0
VERTEX
  5
772
  8
OUTER_PROFILES
 10
-2964.758042168243
 20
2121.697906317548
 30
0.0
 42
0.4155238393973699
  0
SEQEND
  5
8FF
  8
OUTER_PROFILES
  0
POLYLINE
  5
161
  8
OUTER_PROFILES
 66
     1
 10
0.0
 20
0.0
 30
0.0
 70
     1
  0
VERTEX
  5
773
  8
OUTER_PROFILES
 10
-2982.383745165706
 20
2122.447898817548
 30
0.0
  0
VERTEX
  5
774
  8
OUTER_PROFILES
 10
-2990.880391562955
 20
2122.447898817548
 30
0.0
 42
0.4142135623733338
  0
VERTEX
  5
775
  8
OUTER_PROFILES
 10
-2991.630391562955
 20
2121.697891925656
 30
0.0
 42
0.4154699725099018
  0
VERTEX
  5
776
  8
OUTER_PROFILES
 10
-2990.877175757322
 20
2120.947898817548
 30
0.0
  0
VERTEX
  5
777
  8
OUTER_PROFILES
 10
-2982.380391562955
 20
2120.947898817548
 30
0.0
 42
0.4142135623733338
  0
VERTEX
  5
778
  8
OUTER_PROFILES
 10
-2981.630391562955
 20
2121.697906317548
 30
0.0
 42
0.4155238393973699
  0
SEQEND
  5
900
  8
OUTER_PROFILES
  0
POLYLINE
  5
162
  8
OUTER_PROFILES
 66
     1
 10
0.0
 20
0.0
 30
0.0
 70
     1
  0
VERTEX
  5
779
  8
OUTER_PROFILES
 10
-2999.403314799755
 20
2122.447898817548
 30
0.0
  0
VERTEX
  5
77A
  8
OUTER_PROFILES
 10
-3007.899961197004
 20
2122.447898817548
 30
0.0
 42
0.4142135623733338
  0
VERTEX
  5
77B
  8
OUTER_PROFILES
 10
-3008.649961197004
 20
2121.697891925656
 30
0.0
 42
0.4154699725099018
  0
VERTEX
  5
77C
  8
OUTER_PROFILES
 10
-3007.896745391371
 20
2120.947898817548
 30
0.0
  0
VERTEX
  5
77D
  8
OUTER_PROFILES
 10
-2999.399961197004
 20
2120.947898817548
 30
0.0
 42
0.4142135623733338
  0
VERTEX
  5
77E
  8
OUTER_PROFILES
 10
-2998.649961197004
 20
2121.697906317548
 30
0.0
 42
0.4155238393973699
  0
SEQEND
  5
901
  8
OUTER_PROFILES
  0
POLYLINE
  5
163
  8
OUTER_PROFILES
 66
     1
 10
0.0
 20
0.0
 30
0.0
 70
     1
  0
VERTEX
  5
77F
  8
OUTER_PROFILES
 10
-2965.509706873775
 20
2199.040818883425
 30
0.0
  0
VERTEX
  5
780
  8
OUTER_PROFILES
 10
-2974.006353271025
 20
2199.040818883425
 30
0.0
 42
0.4142135623733338
  0
VERTEX
  5
781
  8
OUTER_PROFILES
 10
-2974.756353271025
 20
2198.290811991533
 30
0.0
 42
0.4154699725099018
  0
VERTEX
  5
782
  8
OUTER_PROFILES
 10
-2974.003137465392
 20
2197.540818883425
 30
0.0
  0
VERTEX
  5
783
  8
OUTER_PROFILES
 10
-2965.506353271025
 20
2197.540818883425
 30
0.0
 42
0.4142135623733338
  0
VERTEX
  5
784
  8
OUTER_PROFILES
 10
-2964.756353271025
 20
2198.290826383425
 30
0.0
 42
0.4155238393973699
  0
SEQEND
  5
902
  8
OUTER_PROFILES
  0
POLYLINE
  5
164
  8
OUTER_PROFILES
 66
     1
 10
0.0
 20
0.0
 30
0.0
 70
     1
  0
VERTEX
  5
785
  8
OUTER_PROFILES
 10
-2982.382056268487
 20
2199.040818883425
 30
0.0
  0
VERTEX
  5
786
  8
OUTER_PROFILES
 10
-2990.878702665736
 20
2199.040818883425
 30
0.0
 42
0.4142135623733338
  0
VERTEX
  5
787
  8
OUTER_PROFILES
 10
-2991.628702665736
 20
2198.290811991533
 30
0.0
 42
0.4154699725099018
  0
VERTEX
  5
788
  8
OUTER_PROFILES
 10
-2990.875486860104
 20
2197.540818883425
 30
0.0
  0
VERTEX
  5
789
  8
OUTER_PROFILES
 10
-2982.378702665736
 20
2197.540818883425
 30
0.0
 42
0.4142135623733338
  0
VERTEX
  5
78A
  8
OUTER_PROFILES
 10
-2981.628702665736
 20
2198.290826383425
 30
0.0
 42
0.4155238393973699
  0
SEQEND
  5
903
  8
OUTER_PROFILES
  0
POLYLINE
  5
165
  8
OUTER_PROFILES
 66
     1
 10
0.0
 20
0.0
 30
0.0
 70
     1
  0
VERTEX
  5
78B
  8
OUTER_PROFILES
 10
-2999.401625902536
 20
2199.040818883425
 30
0.0
  0
VERTEX
  5
78C
  8
OUTER_PROFILES
 10
-3007.898272299785
 20
2199.040818883425
 30
0.0
 42
0.4142135623733338
  0
VERTEX
  5
78D
  8
OUTER_PROFILES
 10
-3008.648272299785
 20
2198.290811991533
 30
0.0
 42
0.4154699725099018
  0
VERTEX
  5
78E
  8
OUTER_PROFILES
 10
-3007.895056494152
 20
2197.540818883425
 30
0.0
  0
VERTEX
  5
78F
  8
OUTER_PROFILES
 10
-2999.398272299785
 20
2197.540818883425
 30
0.0
 42
0.4142135623733338
  0
VERTEX
  5
790
  8
OUTER_PROFILES
 10
-2998.648272299785
 20
2198.290826383425
 30
0.0
 42
0.4155238393973699
  0
SEQEND
  5
904
  8
OUTER_PROFILES
  0
POLYLINE
  5
166
  8
OUTER_PROFILES
 66
     1
 10
0.0
 20
0.0
 30
0.0
 70
     1
  0
VERTEX
  5
791
  8
OUTER_PROFILES
 10
-3255.473728132877
 20
2180.8244994248
 30
0.0
  0
VERTEX
  5
792
  8
OUTER_PROFILES
 10
-3255.449599557296
 20
2172.327887287499
 30
0.0
 42
0.4142135623733338
  0
VERTEX
  5
793
  8
OUTER_PROFILES
 10
-3254.697465857291
 20
2171.580020163471
 30
0.0
 42
0.4154699725099018
  0
VERTEX
  5
794
  8
OUTER_PROFILES
 10
-3253.949614737724
 20
2172.335362744706
 30
0.0
  0
VERTEX
  5
795
  8
OUTER_PROFILES
 10
-3253.973743704619
 20
2180.832112678569
 30
0.0
 42
0.4142135623733338
  0
VERTEX
  5
796
  8
OUTER_PROFILES
 10
-3254.725878012729
 20
2181.579979800871
 30
0.0
 42
0.4155238393973699
  0
SEQEND
  5
905
  8
OUTER_PROFILES
  0
POLYLINE
  5
167
  8
OUTER_PROFILES
 66
     1
 10
0.0
 20
0.0
 30
0.0
 70
     1
  0
VERTEX
  5
797
  8
OUTER_PROFILES
 10
-3255.425814433922
 20
2163.95221806232
 30
0.0
  0
VERTEX
  5
798
  8
OUTER_PROFILES
 10
-3255.40168585834
 20
2155.45560592502
 30
0.0
 42
0.4142135623733338
  0
VERTEX
  5
799
  8
OUTER_PROFILES
 10
-3254.649552158336
 20
2154.707738800991
 30
0.0
 42
0.4154699725099018
  0
VERTEX
  5
79A
  8
OUTER_PROFILES
 10
-3253.901701038769
 20
2155.463081382226
 30
0.0
  0
VERTEX
  5
79B
  8
OUTER_PROFILES
 10
-3253.925830005664
 20
2163.95983131609
 30
0.0
 42
0.4142135623733338
  0
VERTEX
  5
79C
  8
OUTER_PROFILES
 10
-3254.677964313773
 20
2164.707698438391
 30
0.0
 42
0.4155238393973699
  0
SEQEND
  5
906
  8
OUTER_PROFILES
  0
POLYLINE
  5
168
  8
OUTER_PROFILES
 66
     1
 10
0.0
 20
0.0
 30
0.0
 70
     1
  0
VERTEX
  5
79D
  8
OUTER_PROFILES
 10
-3255.377482662411
 20
2146.932717054121
 30
0.0
  0
VERTEX
  5
79E
  8
OUTER_PROFILES
 10
-3255.35335408683
 20
2138.43610491682
 30
0.0
 42
0.4142135623733338
  0
VERTEX
  5
79F
  8
OUTER_PROFILES
 10
-3254.601220386825
 20
2137.688237792791
 30
0.0
 42
0.4154699725099018
  0
VERTEX
  5
7A0
  8
OUTER_PROFILES
 10
-3253.853369267258
 20
2138.443580374027
 30
0.0
  0
VERTEX
  5
7A1
  8
OUTER_PROFILES
 10
-3253.877498234153
 20
2146.94033030789
 30
0.0
 42
0.4142135623733338
  0
VERTEX
  5
7A2
  8
OUTER_PROFILES
 10
-3254.629632542263
 20
2147.688197430192
 30
0.0
 42
0.4155238393973699
  0
SEQEND
  5
907
  8
OUTER_PROFILES
  0
POLYLINE
  5
169
  8
OUTER_PROFILES
 66
     1
 10
0.0
 20
0.0
 30
0.0
 70
     1
  0
VERTEX
  5
7A3
  8
OUTER_PROFILES
 10
-3485.263527636293
 20
2235.957457182697
 30
0.0
  0
VERTEX
  5
7A4
  8
OUTER_PROFILES
 10
-3493.760139773594
 20
2235.933328607116
 30
0.0
 42
0.4142135623733338
  0
VERTEX
  5
7A5
  8
OUTER_PROFILES
 10
-3494.508006897622
 20
2235.181194907111
 30
0.0
 42
0.4154699725099018
  0
VERTEX
  5
7A6
  8
OUTER_PROFILES
 10
-3493.752664316387
 20
2234.433343787545
 30
0.0
  0
VERTEX
  5
7A7
  8
OUTER_PROFILES
 10
-3485.255914382524
 20
2234.457472754439
 30
0.0
 42
0.4142135623733338
  0
VERTEX
  5
7A8
  8
OUTER_PROFILES
 10
-3484.508047260222
 20
2235.209607062549
 30
0.0
 42
0.4155238393973699
  0
SEQEND
  5
908
  8
OUTER_PROFILES
  0
POLYLINE
  5
16A
  8
OUTER_PROFILES
 66
     1
 10
0.0
 20
0.0
 30
0.0
 70
     1
  0
VERTEX
  5
7A9
  8
OUTER_PROFILES
 10
-3502.135808998773
 20
2235.909543483742
 30
0.0
  0
VERTEX
  5
7AA
  8
OUTER_PROFILES
 10
-3510.632421136073
 20
2235.885414908161
 30
0.0
 42
0.4142135623733338
  0
VERTEX
  5
7AB
  8
OUTER_PROFILES
 10
-3511.380288260102
 20
2235.133281208156
 30
0.0
 42
0.4154699725099018
  0
VERTEX
  5
7AC
  8
OUTER_PROFILES
 10
-3510.624945678867
 20
2234.385430088589
 30
0.0
  0
VERTEX
  5
7AD
  8
OUTER_PROFILES
 10
-3502.128195745003
 20
2234.409559055484
 30
0.0
 42
0.4142135623733338
  0
VERTEX
  5
7AE
  8
OUTER_PROFILES
 10
-3501.380328622702
 20
2235.161693363594
 30
0.0
 42
0.4155238393973699
  0
SEQEND
  5
909
  8
OUTER_PROFILES
  0
POLYLINE
  5
16B
  8
OUTER_PROFILES
 66
     1
 10
0.0
 20
0.0
 30
0.0
 70
     1
  0
VERTEX
  5
7AF
  8
OUTER_PROFILES
 10
-3519.155310006972
 20
2235.861211712232
 30
0.0
  0
VERTEX
  5
7B0
  8
OUTER_PROFILES
 10
-3527.651922144273
 20
2235.83708313665
 30
0.0
 42
0.4142135623733338
  0
VERTEX
  5
7B1
  8
OUTER_PROFILES
 10
-3528.399789268301
 20
2235.084949436645
 30
0.0
 42
0.4154699725099018
  0
VERTEX
  5
7B2
  8
OUTER_PROFILES
 10
-3527.644446687066
 20
2234.337098317078
 30
0.0
  0
VERTEX
  5
7B3
  8
OUTER_PROFILES
 10
-3519.147696753203
 20
2234.361227283973
 30
0.0
 42
0.4142135623733338
  0
VERTEX
  5
7B4
  8
OUTER_PROFILES
 10
-3518.399829630901
 20
2235.113361592083
 30
0.0
 42
0.4155238393973699
  0
SEQEND
  5
90A
  8
OUTER_PROFILES
  0
POLYLINE
  5
16C
  8
OUTER_PROFILES
 66
     1
 10
0.0
 20
0.0
 30
0.0
 70
     1
  0
VERTEX
  5
7B5
  8
OUTER_PROFILES
 10
-3271.710128724305
 20
2122.084358764709
 30
0.0
  0
VERTEX
  5
7B6
  8
OUTER_PROFILES
 10
-3280.206740861606
 20
2122.060230189127
 30
0.0
 42
0.4142135623733338
  0
VERTEX
  5
7B7
  8
OUTER_PROFILES
 10
-3280.954607985635
 20
2121.308096489122
 30
0.0
 42
0.4154699725099018
  0
VERTEX
  5
7B8
  8
OUTER_PROFILES
 10
-3280.199265404399
 20
2120.560245369555
 30
0.0
  0
VERTEX
  5
7B9
  8
OUTER_PROFILES
 10
-3271.702515470536
 20
2120.58437433645
 30
0.0
 42
0.4142135623733338
  0
VERTEX
  5
7BA
  8
OUTER_PROFILES
 10
-3270.954648348235
 20
2121.33650864456
 30
0.0
 42
0.4155238393973699
  0
SEQEND
  5
90B
  8
OUTER_PROFILES
  0
POLYLINE
  5
16D
  8
OUTER_PROFILES
 66
     1
 10
0.0
 20
0.0
 30
0.0
 70
     1
  0
VERTEX
  5
7BB
  8
OUTER_PROFILES
 10
-3288.582410086785
 20
2122.036445065753
 30
0.0
  0
VERTEX
  5
7BC
  8
OUTER_PROFILES
 10
-3297.079022224086
 20
2122.012316490172
 30
0.0
 42
0.4142135623733338
  0
VERTEX
  5
7BD
  8
OUTER_PROFILES
 10
-3297.826889348114
 20
2121.260182790167
 30
0.0
 42
0.4154699725099018
  0
VERTEX
  5
7BE
  8
OUTER_PROFILES
 10
-3297.071546766879
 20
2120.5123316706
 30
0.0
  0
VERTEX
  5
7BF
  8
OUTER_PROFILES
 10
-3288.574796833016
 20
2120.536460637495
 30
0.0
 42
0.4142135623733338
  0
VERTEX
  5
7C0
  8
OUTER_PROFILES
 10
-3287.826929710714
 20
2121.288594945604
 30
0.0
 42
0.4155238393973699
  0
SEQEND
  5
90C
  8
OUTER_PROFILES
  0
POLYLINE
  5
16E
  8
OUTER_PROFILES
 66
     1
 10
0.0
 20
0.0
 30
0.0
 70
     1
  0
VERTEX
  5
7C1
  8
OUTER_PROFILES
 10
-3305.601911094984
 20
2121.988113294242
 30
0.0
  0
VERTEX
  5
7C2
  8
OUTER_PROFILES
 10
-3314.098523232285
 20
2121.963984718661
 30
0.0
 42
0.4142135623733338
  0
VERTEX
  5
7C3
  8
OUTER_PROFILES
 10
-3314.846390356314
 20
2121.211851018656
 30
0.0
 42
0.4154699725099018
  0
VERTEX
  5
7C4
  8
OUTER_PROFILES
 10
-3314.091047775078
 20
2120.463999899089
 30
0.0
  0
VERTEX
  5
7C5
  8
OUTER_PROFILES
 10
-3305.594297841215
 20
2120.488128865984
 30
0.0
 42
0.4142135623733338
  0
VERTEX
  5
7C6
  8
OUTER_PROFILES
 10
-3304.846430718914
 20
2121.240263174094
 30
0.0
 42
0.4155238393973699
  0
SEQEND
  5
90D
  8
OUTER_PROFILES
  0
POLYLINE
  5
16F
  8
OUTER_PROFILES
 66
     1
 10
0.0
 20
0.0
 30
0.0
 70
     1
  0
VERTEX
  5
7C7
  8
OUTER_PROFILES
 10
-3271.925424810859
 20
2198.676746255117
 30
0.0
  0
VERTEX
  5
7C8
  8
OUTER_PROFILES
 10
-3280.422036948159
 20
2198.652617679536
 30
0.0
 42
0.4142135623733338
  0
VERTEX
  5
7C9
  8
OUTER_PROFILES
 10
-3281.169904072188
 20
2197.900483979531
 30
0.0
 42
0.4154699725099018
  0
VERTEX
  5
7CA
  8
OUTER_PROFILES
 10
-3280.414561490952
 20
2197.152632859964
 30
0.0
  0
VERTEX
  5
7CB
  8
OUTER_PROFILES
 10
-3271.917811557089
 20
2197.176761826859
 30
0.0
 42
0.4142135623733338
  0
VERTEX
  5
7CC
  8
OUTER_PROFILES
 10
-3271.169944434787
 20
2197.928896134969
 30
0.0
 42
0.4155238393973699
  0
SEQEND
  5
90E
  8
OUTER_PROFILES
  0
POLYLINE
  5
170
  8
OUTER_PROFILES
 66
     1
 10
0.0
 20
0.0
 30
0.0
 70
     1
  0
VERTEX
  5
7CD
  8
OUTER_PROFILES
 10
-3288.797706173338
 20
2198.628832556162
 30
0.0
  0
VERTEX
  5
7CE
  8
OUTER_PROFILES
 10
-3297.294318310639
 20
2198.604703980581
 30
0.0
 42
0.4142135623733338
  0
VERTEX
  5
7CF
  8
OUTER_PROFILES
 10
-3298.042185434667
 20
2197.852570280576
 30
0.0
 42
0.4154699725099018
  0
VERTEX
  5
7D0
  8
OUTER_PROFILES
 10
-3297.286842853432
 20
2197.104719161009
 30
0.0
  0
VERTEX
  5
7D1
  8
OUTER_PROFILES
 10
-3288.790092919569
 20
2197.128848127903
 30
0.0
 42
0.4142135623733338
  0
VERTEX
  5
7D2
  8
OUTER_PROFILES
 10
-3288.042225797267
 20
2197.880982436014
 30
0.0
 42
0.4155238393973699
  0
SEQEND
  5
90F
  8
OUTER_PROFILES
  0
POLYLINE
  5
171
  8
OUTER_PROFILES
 66
     1
 10
0.0
 20
0.0
 30
0.0
 70
     1
  0
VERTEX
  5
7D3
  8
OUTER_PROFILES
 10
-3305.817207181537
 20
2198.580500784652
 30
0.0
  0
VERTEX
  5
7D4
  8
OUTER_PROFILES
 10
-3314.313819318838
 20
2198.55637220907
 30
0.0
 42
0.4142135623733338
  0
VERTEX
  5
7D5
  8
OUTER_PROFILES
 10
-3315.061686442867
 20
2197.804238509065
 30
0.0
 42
0.4154699725099018
  0
VERTEX
  5
7D6
  8
OUTER_PROFILES
 10
-3314.306343861631
 20
2197.056387389498
 30
0.0
  0
VERTEX
  5
7D7
  8
OUTER_PROFILES
 10
-3305.809593927768
 20
2197.080516356393
 30
0.0
 42
0.4142135623733338
  0
VERTEX
  5
7D8
  8
OUTER_PROFILES
 10
-3305.061726805467
 20
2197.832650664503
 30
0.0
 42
0.4155238393973699
  0
SEQEND
  5
910
  8
OUTER_PROFILES
  0
POLYLINE
  5
172
  8
OUTER_PROFILES
 66
     1
 10
0.0
 20
0.0
 30
0.0
 70
     1
  0
VERTEX
  5
7D9
  8
OUTER_PROFILES
 10
-3485.046020872517
 20
2159.364845952726
 30
0.0
  0
VERTEX
  5
7DA
  8
OUTER_PROFILES
 10
-3493.542633009818
 20
2159.340717377145
 30
0.0
 42
0.4142135623733338
  0
VERTEX
  5
7DB
  8
OUTER_PROFILES
 10
-3494.290500133846
 20
2158.58858367714
 30
0.0
 42
0.4154699725099018
  0
VERTEX
  5
7DC
  8
OUTER_PROFILES
 10
-3493.535157552611
 20
2157.840732557573
 30
0.0
  0
VERTEX
  5
7DD
  8
OUTER_PROFILES
 10
-3485.038407618748
 20
2157.864861524467
 30
0.0
 42
0.4142135623733338
  0
VERTEX
  5
7DE
  8
OUTER_PROFILES
 10
-3484.290540496446
 20
2158.616995832578
 30
0.0
 42
0.4155238393973699
  0
SEQEND
  5
911
  8
OUTER_PROFILES
  0
POLYLINE
  5
173
  8
OUTER_PROFILES
 66
     1
 10
0.0
 20
0.0
 30
0.0
 70
     1
  0
VERTEX
  5
7DF
  8
OUTER_PROFILES
 10
-3501.918302234997
 20
2159.316932253771
 30
0.0
  0
VERTEX
  5
7E0
  8
OUTER_PROFILES
 10
-3510.414914372297
 20
2159.29280367819
 30
0.0
 42
0.4142135623733338
  0
VERTEX
  5
7E1
  8
OUTER_PROFILES
 10
-3511.162781496326
 20
2158.540669978185
 30
0.0
 42
0.4154699725099018
  0
VERTEX
  5
7E2
  8
OUTER_PROFILES
 10
-3510.407438915091
 20
2157.792818858617
 30
0.0
  0
VERTEX
  5
7E3
  8
OUTER_PROFILES
 10
-3501.910688981227
 20
2157.816947825512
 30
0.0
 42
0.4142135623733338
  0
VERTEX
  5
7E4
  8
OUTER_PROFILES
 10
-3501.162821858926
 20
2158.569082133622
 30
0.0
 42
0.4155238393973699
  0
SEQEND
  5
912
  8
OUTER_PROFILES
  0
POLYLINE
  5
174
  8
OUTER_PROFILES
 66
     1
 10
0.0
 20
0.0
 30
0.0
 70
     1
  0
VERTEX
  5
7E5
  8
OUTER_PROFILES
 10
-3518.937803243196
 20
2159.26860048226
 30
0.0
  0
VERTEX
  5
7E6
  8
OUTER_PROFILES
 10
-3527.434415380497
 20
2159.244471906679
 30
0.0
 42
0.4142135623733338
  0
VERTEX
  5
7E7
  8
OUTER_PROFILES
 10
-3528.182282504526
 20
2158.492338206674
 30
0.0
 42
0.4154699725099018
  0
VERTEX
  5
7E8
  8
OUTER_PROFILES
 10
-3527.42693992329
 20
2157.744487087107
 30
0.0
  0
VERTEX
  5
7E9
  8
OUTER_PROFILES
 10
-3518.930189989427
 20
2157.768616054002
 30
0.0
 42
0.4142135623733338
  0
VERTEX
  5
7EA
  8
OUTER_PROFILES
 10
-3518.182322867125
 20
2158.520750362111
 30
0.0
 42
0.4155238393973699
  0
SEQEND
  5
913
  8
OUTER_PROFILES
  0
POLYLINE
  5
175
  8
OUTER_PROFILES
 66
     1
 10
0.0
 20
0.0
 30
0.0
 70
     1
  0
VERTEX
  5
7EB
  8
OUTER_PROFILES
 10
-3484.828494003311
 20
2082.765154817179
 30
0.0
  0
VERTEX
  5
7EC
  8
OUTER_PROFILES
 10
-3493.325106140612
 20
2082.741026241598
 30
0.0
 42
0.4142135623733338
  0
VERTEX
  5
7ED
  8
OUTER_PROFILES
 10
-3494.07297326464
 20
2081.988892541593
 30
0.0
 42
0.4154699725099018
  0
VERTEX
  5
7EE
  8
OUTER_PROFILES
 10
-3493.317630683405
 20
2081.241041422027
 30
0.0
  0
VERTEX
  5
7EF
  8
OUTER_PROFILES
 10
-3484.820880749542
 20
2081.265170388921
 30
0.0
 42
0.4142135623733338
  0
VERTEX
  5
7F0
  8
OUTER_PROFILES
 10
-3484.07301362724
 20
2082.017304697031
 30
0.0
 42
0.4155238393973699
  0
SEQEND
  5
914
  8
OUTER_PROFILES
  0
POLYLINE
  5
176
  8
OUTER_PROFILES
 66
     1
 10
0.0
 20
0.0
 30
0.0
 70
     1
  0
VERTEX
  5
7F1
  8
OUTER_PROFILES
 10
-3501.700775365791
 20
2082.717241118224
 30
0.0
  0
VERTEX
  5
7F2
  8
OUTER_PROFILES
 10
-3510.197387503092
 20
2082.693112542643
 30
0.0
 42
0.4142135623733338
  0
VERTEX
  5
7F3
  8
OUTER_PROFILES
 10
-3510.94525462712
 20
2081.940978842638
 30
0.0
 42
0.4154699725099018
  0
VERTEX
  5
7F4
  8
OUTER_PROFILES
 10
-3510.189912045885
 20
2081.193127723071
 30
0.0
  0
VERTEX
  5
7F5
  8
OUTER_PROFILES
 10
-3501.693162112022
 20
2081.217256689966
 30
0.0
 42
0.4142135623733338
  0
VERTEX
  5
7F6
  8
OUTER_PROFILES
 10
-3500.94529498972
 20
2081.969390998076
 30
0.0
 42
0.4155238393973699
  0
SEQEND
  5
915
  8
OUTER_PROFILES
  0
POLYLINE
  5
177
  8
OUTER_PROFILES
 66
     1
 10
0.0
 20
0.0
 30
0.0
 70
     1
  0
VERTEX
  5
7F7
  8
OUTER_PROFILES
 10
-3518.720276373991
 20
2082.668909346713
 30
0.0
  0
VERTEX
  5
7F8
  8
OUTER_PROFILES
 10
-3527.216888511291
 20
2082.644780771132
 30
0.0
 42
0.4142135623733338
  0
VERTEX
  5
7F9
  8
OUTER_PROFILES
 10
-3527.96475563532
 20
2081.892647071127
 30
0.0
 42
0.4154699725099018
  0
VERTEX
  5
7FA
  8
OUTER_PROFILES
 10
-3527.209413054085
 20
2081.14479595156
 30
0.0
  0
VERTEX
  5
7FB
  8
OUTER_PROFILES
 10
-3518.712663120221
 20
2081.168924918455
 30
0.0
 42
0.4142135623733338
  0
VERTEX
  5
7FC
  8
OUTER_PROFILES
 10
-3517.964795997919
 20
2081.921059226565
 30
0.0
 42
0.4155238393973699
  0
SEQEND
  5
916
  8
OUTER_PROFILES
  0
POLYLINE
  5
178
  8
OUTER_PROFILES
 66
     1
 10
0.0
 20
0.0
 30
0.0
 70
     1
  0
VERTEX
  5
7FD
  8
OUTER_PROFILES
 10
-3332.073648574022
 20
2180.606721903408
 30
0.0
  0
VERTEX
  5
7FE
  8
OUTER_PROFILES
 10
-3332.04951999844
 20
2172.110109766107
 30
0.0
 42
0.4142135623733338
  0
VERTEX
  5
7FF
  8
OUTER_PROFILES
 10
-3331.297386298435
 20
2171.362242642078
 30
0.0
 42
0.4154699725099018
  0
VERTEX
  5
800
  8
OUTER_PROFILES
 10
-3330.549535178869
 20
2172.117585223314
 30
0.0
  0
VERTEX
  5
801
  8
OUTER_PROFILES
 10
-3330.573664145763
 20
2180.614335157177
 30
0.0
 42
0.4142135623733338
  0
VERTEX
  5
802
  8
OUTER_PROFILES
 10
-3331.325798453873
 20
2181.362202279478
 30
0.0
 42
0.4155238393973699
  0
SEQEND
  5
917
  8
OUTER_PROFILES
  0
POLYLINE
  5
179
  8
OUTER_PROFILES
 66
     1
 10
0.0
 20
0.0
 30
0.0
 70
     1
  0
VERTEX
  5
803
  8
OUTER_PROFILES
 10
-3332.025734875067
 20
2163.734440540928
 30
0.0
  0
VERTEX
  5
804
  8
OUTER_PROFILES
 10
-3332.001606299485
 20
2155.237828403627
 30
0.0
 42
0.4142135623733338
  0
VERTEX
  5
805
  8
OUTER_PROFILES
 10
-3331.24947259948
 20
2154.489961279598
 30
0.0
 42
0.4154699725099018
  0
VERTEX
  5
806
  8
OUTER_PROFILES
 10
-3330.501621479913
 20
2155.245303860834
 30
0.0
  0
VERTEX
  5
807
  8
OUTER_PROFILES
 10
-3330.525750446808
 20
2163.742053794697
 30
0.0
 42
0.4142135623733338
  0
VERTEX
  5
808
  8
OUTER_PROFILES
 10
-3331.277884754918
 20
2164.489920916998
 30
0.0
 42
0.4155238393973699
  0
SEQEND
  5
918
  8
OUTER_PROFILES
  0
POLYLINE
  5
17A
  8
OUTER_PROFILES
 66
     1
 10
0.0
 20
0.0
 30
0.0
 70
     1
  0
VERTEX
  5
809
  8
OUTER_PROFILES
 10
-3331.977403103556
 20
2146.714939532728
 30
0.0
  0
VERTEX
  5
80A
  8
OUTER_PROFILES
 10
-3331.953274527974
 20
2138.218327395427
 30
0.0
 42
0.4142135623733338
  0
VERTEX
  5
80B
  8
OUTER_PROFILES
 10
-3331.201140827969
 20
2137.470460271399
 30
0.0
 42
0.4154699725099018
  0
VERTEX
  5
80C
  8
OUTER_PROFILES
 10
-3330.453289708403
 20
2138.225802852634
 30
0.0
  0
VERTEX
  5
80D
  8
OUTER_PROFILES
 10
-3330.477418675297
 20
2146.722552786498
 30
0.0
 42
0.4142135623733338
  0
VERTEX
  5
80E
  8
OUTER_PROFILES
 10
-3331.229552983407
 20
2147.470419908799
 30
0.0
 42
0.4155238393973699
  0
SEQEND
  5
919
  8
OUTER_PROFILES
  0
ENDSEC
  0
EOF
