999
FreeCAD v0.18 4 (GitTag)
  0
SECTION
  2
HEADER
  9
$ACADVER
  1
AC1014
  9
$ACADMAINTVER
 70
     9
  9
$DWGCODEPAGE
  3
ANSI_1252
  9
$TEXTSTYLE
  7
STANDARD
  9
$DIMSTYLE
  2
STANDARD
  9
$DIMTXSTY
  7
STANDARD
  9
$CMLSTYLE
  2
STANDARD
  9
$HANDSEED
  5
FFF
  0
ENDSEC
  0
SECTION
  2
CLASSES
  0
CLASS
  1
ACDBDICTIONARYWDFLT
  2
AcDbDictionaryWithDefault
  3
ObjectDBX Classes
 90
        0
280
     0
281
     0
  0
CLASS
  1
XRECORD
  2
AcDbXrecord
  3
ObjectDBX Classes
 90
        0
280
     0
281
     0
  0
CLASS
  1
LWPOLYLINE
  2
AcDbPolyline
  3
ObjectDBX Classes
 90
        0
280
     0
281
     1
  0
ENDSEC
  0
SECTION
  2
TABLES
  0
TABLE
  2
VPORT
  5
20
330
0
100
AcDbSymbolTable
 70
     1
  0
VPORT
  5
21
330
20
100
AcDbSymbolTableRecord
100
AcDbViewportTableRecord
  2
*ACTIVE
 70
     0
  0
ENDTAB
  0
TABLE
  2
LTYPE
  5
22
330
0
100
AcDbSymbolTable
 70
     1
  0
LTYPE
  5
23
330
21
100
AcDbSymbolTableRecord
100
AcDbLinetypeTableRecord
  2
BYBLOCK
 70
     0
  3

 72
    65
 73
     0
 40
0.0
  0
LTYPE
  5
24
330
21
100
AcDbSymbolTableRecord
100
AcDbLinetypeTableRecord
  2
BYLAYER
 70
     0
  3

 72
    65
 73
     0
 40
0.0
  0
LTYPE
  5
25
330
21
100
AcDbSymbolTableRecord
100
AcDbLinetypeTableRecord
  2
CONTINUOUS
 70
     0
  3
Solid line
 72
    65
 73
     0
 40
0.0
  0
ENDTAB
  0
TABLE
  2
LAYER
  5
31
330
0
100
AcDbSymbolTable
 70
2
  0
LAYER
  5
32
330
31
100
AcDbSymbolTableRecord
100
AcDbLayerTableRecord
  2
0
 70
   0
 62
   7
  6
CONTINUOUS
  0
LAYER
  5
33
330
31
100
AcDbSymbolTableRecord
100
AcDbLayerTableRecord
  2
View
 70
    0
 62
    7
  6
CONTINUOUS
  0
ENDTAB
  0
TABLE
  2
STYLE
  5
60
330
0
100
AcDbSymbolTable
 70
     2
  0
STYLE
  5
61
330
60
100
AcDbSymbolTableRecord
100
AcDbTextStyleTableRecord
  2
STANDARD
 70
     0
 40
0.0
 41
1.0
 50
0.0
 71
     0
 42
2.5
  3
arial.ttf
  4

  0
STYLE
  5
62
330
60
100
AcDbSymbolTableRecord
100
AcDbTextStyleTableRecord
  2
ANNOTATIVE
 70
     0
 40
0.0
 41
1.0
 50
0.0
 71
     0
 42
2.5
  3
arial.ttf
  4

  0
ENDTAB
  0
TABLE
  2
VIEW
  5
63
330
0
100
AcDbSymbolTable
 70
     0
  0
ENDTAB
  0
TABLE
  2
UCS
  5
64
330
0
100
AcDbSymbolTable
 70
     0
  0
ENDTAB
  0
TABLE
  2
APPID
  5
65
330
0
100
AcDbSymbolTable
 70
     2
  0
APPID
  5
66
330
65
100
AcDbSymbolTableRecord
100
AcDbRegAppTableRecord
  2
ACAD
 70
     0
  0
APPID
  5
67
330
65
100
AcDbSymbolTableRecord
100
AcDbRegAppTableRecord
  2
ACADANNOTATIVE
 70
     0
  0
ENDTAB
  0
TABLE
  2
DIMSTYLE
  5
68
330
0
100
AcDbSymbolTable
 70
     2
  0
DIMSTYLE
105
69
330
68
100
AcDbSymbolTableRecord
100
AcDbDimStyleTableRecord
  2
STANDARD
 70
     0
  3

  4

  5

  6

  7

 40
0.0
 41
2.5
 42
0.625
 43
3.75
 44
1.25
 45
0.0
 46
0.0
 47
0.0
 48
0.0
140
2.5
141
2.5
142
0.0
143
0.03937007874016
144
1.0
145
0.0
146
1.0
147
0.625
 71
     0
 72
     0
 73
     0
 74
     0
 75
     0
 76
     0
 77
     1
 78
     8
170
     0
171
     3
172
     1
173
     0
174
     0
175
     0
176
     0
177
     0
178
     0
270
     2
271
     2
272
     2
273
     2
274
     3
340
61
275
     0
280
     0
281
     0
282
     0
283
     0
284
     8
285
     0
286
     0
287
     3
288
     0
  0
ENDTAB
  0
TABLE
  2
BLOCK_RECORD
  5
111
330
0
100
AcDbSymbolTable
  70
5
  0
BLOCK_RECORD
  5
112
330
111
100
AcDbSymbolTableRecord
100
AcDbBlockTableRecord
  2
*MODEL_SPACE
  0
BLOCK_RECORD
  5
113
330
111
100
AcDbSymbolTableRecord
100
AcDbBlockTableRecord
  2
*PAPER_SPACE
  0
ENDTAB
  0
ENDSEC
  0
SECTION
  2
BLOCKS
  0
BLOCK
  5
211
330
112
100
AcDbEntity
  8
0
100
AcDbBlockBegin
  2
*MODEL_SPACE
 70
   0
 10
0
 20
0
 30
0
  3
*MODEL_SPACE
  1
 
  0
ENDBLK
  5
212
330
112
100
AcDbEntity
  8
0
100
AcDbBlockEnd
  0
BLOCK
  5
213
330
113
100
AcDbEntity
 67
1
  8
0
100
AcDbBlockBegin
  2
*PAPER_SPACE
 70
   0
 10
0
 20
0
 30
0
  3
*PAPER_SPACE
  1
 
  0
ENDBLK
  5
214
330
113
100
AcDbEntity
 67
    1
  8
0
100
AcDbBlockEnd
  0
ENDSEC
  0
SECTION
  2
ENTITIES
  0
CIRCLE
  5
301
330
112
100
AcDbEntity
  8
View
100
AcDbCircle
 10
88.1246
 20
121.268
 40
20
  0
CIRCLE
  5
302
330
112
100
AcDbEntity
  8
View
100
AcDbCircle
 10
88.1246
 20
121.268
 40
60
  0
LINE
  5
303
330
112
100
AcDbEntity
  8
View
100
AcDbLine
 10
148.125
 20
121.268
 30
0
 11
153.525
 21
121.268
 31
0
  0
LINE
  5
304
330
112
100
AcDbEntity
  8
View
100
AcDbLine
 10
153.525
 20
121.268
 30
0
 11
154.025
 21
119.268
 31
0
  0
LINE
  5
305
330
112
100
AcDbEntity
  8
View
100
AcDbLine
 10
154.025
 20
119.268
 30
0
 11
154.025
 21
111.268
 31
0
  0
LINE
  5
306
330
112
100
AcDbEntity
  8
View
100
AcDbLine
 10
154.025
 20
111.268
 30
0
 11
159.925
 21
111.268
 31
0
  0
LINE
  5
307
330
112
100
AcDbEntity
  8
View
100
AcDbLine
 10
159.925
 20
111.268
 30
0
 11
159.925
 21
119.268
 31
0
  0
LINE
  5
308
330
112
100
AcDbEntity
  8
View
100
AcDbLine
 10
159.925
 20
119.268
 30
0
 11
160.425
 21
121.268
 31
0
  0
CIRCLE
  5
309
330
112
100
AcDbEntity
  8
View
100
AcDbCircle
 10
88.1246
 20
121.268
 40
40
  0
LINE
  5
30A
330
112
100
AcDbEntity
  8
View
100
AcDbLine
 10
88.1246
 20
161.268
 30
0
 11
88.1246
 21
141.268
 31
0
  0
LINE
  5
30B
330
112
100
AcDbEntity
  8
View
100
AcDbLine
 10
88.1246
 20
101.268
 30
0
 11
88.1246
 21
81.2676
 31
0
  0
LINE
  5
30C
330
112
100
AcDbEntity
  8
View
100
AcDbLine
 10
85.1746
 20
179.268
 30
0
 11
84.6746
 21
181.168
 31
0
  0
LINE
  5
30D
330
112
100
AcDbEntity
  8
View
100
AcDbLine
 10
85.1746
 20
179.268
 30
0
 11
85.1746
 21
171.268
 31
0
  0
LINE
  5
30E
330
112
100
AcDbEntity
  8
View
100
AcDbLine
 10
85.1746
 20
171.268
 30
0
 11
91.0746
 21
171.268
 31
0
  0
LINE
  5
30F
330
112
100
AcDbEntity
  8
View
100
AcDbLine
 10
91.0746
 20
171.268
 30
0
 11
91.0746
 21
179.268
 31
0
  0
LINE
  5
310
330
112
100
AcDbEntity
  8
View
100
AcDbLine
 10
91.0746
 20
179.268
 30
0
 11
91.5746
 21
181.168
 31
0
  0
LINE
  5
311
330
112
100
AcDbEntity
  8
View
100
AcDbLine
 10
84.6746
 20
140.968
 30
0
 11
85.1746
 21
139.268
 31
0
  0
LINE
  5
312
330
112
100
AcDbEntity
  8
View
100
AcDbLine
 10
85.1746
 20
139.268
 30
0
 11
85.1746
 21
131.268
 31
0
  0
LINE
  5
313
330
112
100
AcDbEntity
  8
View
100
AcDbLine
 10
85.1746
 20
131.268
 30
0
 11
91.0746
 21
131.268
 31
0
  0
LINE
  5
314
330
112
100
AcDbEntity
  8
View
100
AcDbLine
 10
91.0746
 20
131.268
 30
0
 11
91.0746
 21
139.268
 31
0
  0
LINE
  5
315
330
112
100
AcDbEntity
  8
View
100
AcDbLine
 10
91.0746
 20
139.268
 30
0
 11
91.5746
 21
140.968
 31
0
  0
LINE
  5
316
330
112
100
AcDbEntity
  8
View
100
AcDbLine
 10
37.9741
 20
154.206
 30
0
 11
39.3702
 21
152.822
 31
0
  0
LINE
  5
317
330
112
100
AcDbEntity
  8
View
100
AcDbLine
 10
39.3702
 20
152.822
 30
0
 11
46.2984
 21
148.822
 31
0
  0
LINE
  5
318
330
112
100
AcDbEntity
  8
View
100
AcDbLine
 10
46.2984
 20
148.822
 30
0
 11
43.3484
 21
143.713
 31
0
  0
LINE
  5
319
330
112
100
AcDbEntity
  8
View
100
AcDbLine
 10
43.3484
 20
143.713
 30
0
 11
36.4202
 21
147.713
 31
0
  0
LINE
  5
31A
330
112
100
AcDbEntity
  8
View
100
AcDbLine
 10
36.4202
 20
147.713
 30
0
 11
34.5241
 21
148.23
 31
0
  0
LINE
  5
31B
330
112
100
AcDbEntity
  8
View
100
AcDbLine
 10
34.5241
 20
94.305
 30
0
 11
36.4202
 21
94.8224
 31
0
  0
LINE
  5
31C
330
112
100
AcDbEntity
  8
View
100
AcDbLine
 10
36.4202
 20
94.8224
 30
0
 11
43.3484
 21
98.8224
 31
0
  0
LINE
  5
31D
330
112
100
AcDbEntity
  8
View
100
AcDbLine
 10
43.3484
 20
98.8224
 30
0
 11
46.2984
 21
93.7128
 31
0
  0
LINE
  5
31E
330
112
100
AcDbEntity
  8
View
100
AcDbLine
 10
46.2984
 20
93.7128
 30
0
 11
39.3702
 21
89.7128
 31
0
  0
LINE
  5
31F
330
112
100
AcDbEntity
  8
View
100
AcDbLine
 10
39.3702
 20
89.7128
 30
0
 11
37.9741
 21
88.3295
 31
0
  0
LINE
  5
320
330
112
100
AcDbEntity
  8
View
100
AcDbLine
 10
84.6746
 20
61.3669
 30
0
 11
85.1746
 21
63.2676
 31
0
  0
LINE
  5
321
330
112
100
AcDbEntity
  8
View
100
AcDbLine
 10
85.1746
 20
63.2676
 30
0
 11
85.1746
 21
71.2676
 31
0
  0
LINE
  5
322
330
112
100
AcDbEntity
  8
View
100
AcDbLine
 10
85.1746
 20
71.2676
 30
0
 11
91.0746
 21
71.2676
 31
0
  0
LINE
  5
323
330
112
100
AcDbEntity
  8
View
100
AcDbLine
 10
91.0746
 20
71.2676
 30
0
 11
91.0746
 21
63.2676
 31
0
  0
LINE
  5
324
330
112
100
AcDbEntity
  8
View
100
AcDbLine
 10
91.0746
 20
63.2676
 30
0
 11
91.5746
 21
61.3669
 31
0
  0
LINE
  5
325
330
112
100
AcDbEntity
  8
View
100
AcDbLine
 10
141.725
 20
94.305
 30
0
 11
139.829
 21
94.8224
 31
0
  0
LINE
  5
326
330
112
100
AcDbEntity
  8
View
100
AcDbLine
 10
139.829
 20
94.8224
 30
0
 11
132.901
 21
98.8224
 31
0
  0
LINE
  5
327
330
112
100
AcDbEntity
  8
View
100
AcDbLine
 10
132.901
 20
98.8224
 30
0
 11
129.951
 21
93.7128
 31
0
  0
LINE
  5
328
330
112
100
AcDbEntity
  8
View
100
AcDbLine
 10
129.951
 20
93.7128
 30
0
 11
136.879
 21
89.7128
 31
0
  0
LINE
  5
329
330
112
100
AcDbEntity
  8
View
100
AcDbLine
 10
136.879
 20
89.7128
 30
0
 11
138.275
 21
88.3295
 31
0
  0
LINE
  5
32A
330
112
100
AcDbEntity
  8
View
100
AcDbLine
 10
136.879
 20
152.822
 30
0
 11
138.275
 21
154.206
 31
0
  0
LINE
  5
32B
330
112
100
AcDbEntity
  8
View
100
AcDbLine
 10
136.879
 20
152.822
 30
0
 11
129.951
 21
148.822
 31
0
  0
LINE
  5
32C
330
112
100
AcDbEntity
  8
View
100
AcDbLine
 10
129.951
 20
148.822
 30
0
 11
132.901
 21
143.713
 31
0
  0
LINE
  5
32D
330
112
100
AcDbEntity
  8
View
100
AcDbLine
 10
132.901
 20
143.713
 30
0
 11
139.829
 21
147.713
 31
0
  0
LINE
  5
32E
330
112
100
AcDbEntity
  8
View
100
AcDbLine
 10
139.829
 20
147.713
 30
0
 11
141.725
 21
148.23
 31
0
  0
LINE
  5
32F
330
112
100
AcDbEntity
  8
View
100
AcDbLine
 10
124.362
 20
104.33
 30
0
 11
122.509
 21
104.822
 31
0
  0
LINE
  5
330
330
112
100
AcDbEntity
  8
View
100
AcDbLine
 10
122.509
 20
104.822
 30
0
 11
115.58
 21
108.822
 31
0
  0
LINE
  5
331
330
112
100
AcDbEntity
  8
View
100
AcDbLine
 10
115.58
 20
108.822
 30
0
 11
112.63
 21
103.713
 31
0
  0
LINE
  5
332
330
112
100
AcDbEntity
  8
View
100
AcDbLine
 10
112.63
 20
103.713
 30
0
 11
119.559
 21
99.7128
 31
0
  0
LINE
  5
333
330
112
100
AcDbEntity
  8
View
100
AcDbLine
 10
119.559
 20
99.7128
 30
0
 11
120.912
 21
98.3543
 31
0
  0
LINE
  5
334
330
112
100
AcDbEntity
  8
View
100
AcDbLine
 10
120.912
 20
144.181
 30
0
 11
119.559
 21
142.822
 31
0
  0
LINE
  5
335
330
112
100
AcDbEntity
  8
View
100
AcDbLine
 10
119.559
 20
142.822
 30
0
 11
112.63
 21
138.822
 31
0
  0
LINE
  5
336
330
112
100
AcDbEntity
  8
View
100
AcDbLine
 10
112.63
 20
138.822
 30
0
 11
115.58
 21
133.713
 31
0
  0
LINE
  5
337
330
112
100
AcDbEntity
  8
View
100
AcDbLine
 10
115.58
 20
133.713
 30
0
 11
122.509
 21
137.713
 31
0
  0
LINE
  5
338
330
112
100
AcDbEntity
  8
View
100
AcDbLine
 10
122.509
 20
137.713
 30
0
 11
124.362
 21
138.205
 31
0
  0
LINE
  5
339
330
112
100
AcDbEntity
  8
View
100
AcDbLine
 10
55.3377
 20
144.181
 30
0
 11
56.6907
 21
142.822
 31
0
  0
LINE
  5
33A
330
112
100
AcDbEntity
  8
View
100
AcDbLine
 10
56.6907
 20
142.822
 30
0
 11
63.6189
 21
138.822
 31
0
  0
LINE
  5
33B
330
112
100
AcDbEntity
  8
View
100
AcDbLine
 10
63.6189
 20
138.822
 30
0
 11
60.6689
 21
133.713
 31
0
  0
LINE
  5
33C
330
112
100
AcDbEntity
  8
View
100
AcDbLine
 10
60.6689
 20
133.713
 30
0
 11
53.7407
 21
137.713
 31
0
  0
LINE
  5
33D
330
112
100
AcDbEntity
  8
View
100
AcDbLine
 10
53.7407
 20
137.713
 30
0
 11
51.8877
 21
138.205
 31
0
  0
LINE
  5
33E
330
112
100
AcDbEntity
  8
View
100
AcDbLine
 10
51.8877
 20
104.33
 30
0
 11
53.7407
 21
104.822
 31
0
  0
LINE
  5
33F
330
112
100
AcDbEntity
  8
View
100
AcDbLine
 10
53.7407
 20
104.822
 30
0
 11
60.6689
 21
108.822
 31
0
  0
LINE
  5
340
330
112
100
AcDbEntity
  8
View
100
AcDbLine
 10
60.6689
 20
108.822
 30
0
 11
63.6189
 21
103.713
 31
0
  0
LINE
  5
341
330
112
100
AcDbEntity
  8
View
100
AcDbLine
 10
63.6189
 20
103.713
 30
0
 11
56.6907
 21
99.7128
 31
0
  0
LINE
  5
342
330
112
100
AcDbEntity
  8
View
100
AcDbLine
 10
56.6907
 20
99.7128
 30
0
 11
55.3377
 21
98.3543
 31
0
  0
LINE
  5
343
330
112
100
AcDbEntity
  8
View
100
AcDbLine
 10
69.3388
 20
114.405
 30
0
 11
71.0612
 21
114.822
 31
0
  0
LINE
  5
344
330
112
100
AcDbEntity
  8
View
100
AcDbLine
 10
71.0612
 20
114.822
 30
0
 11
77.9894
 21
118.822
 31
0
  0
LINE
  5
345
330
112
100
AcDbEntity
  8
View
100
AcDbLine
 10
77.9894
 20
118.822
 30
0
 11
80.9394
 21
113.713
 31
0
  0
LINE
  5
346
330
112
100
AcDbEntity
  8
View
100
AcDbLine
 10
80.9394
 20
113.713
 30
0
 11
74.0112
 21
109.713
 31
0
  0
LINE
  5
347
330
112
100
AcDbEntity
  8
View
100
AcDbLine
 10
74.0112
 20
109.713
 30
0
 11
72.7888
 21
108.43
 31
0
  0
LINE
  5
348
330
112
100
AcDbEntity
  8
View
100
AcDbLine
 10
105.188
 20
114.822
 30
0
 11
106.911
 21
114.405
 31
0
  0
LINE
  5
349
330
112
100
AcDbEntity
  8
View
100
AcDbLine
 10
105.188
 20
114.822
 30
0
 11
98.2599
 21
118.822
 31
0
  0
LINE
  5
34A
330
112
100
AcDbEntity
  8
View
100
AcDbLine
 10
98.2599
 20
118.822
 30
0
 11
95.3099
 21
113.713
 31
0
  0
LINE
  5
34B
330
112
100
AcDbEntity
  8
View
100
AcDbLine
 10
95.3099
 20
113.713
 30
0
 11
102.238
 21
109.713
 31
0
  0
LINE
  5
34C
330
112
100
AcDbEntity
  8
View
100
AcDbLine
 10
102.238
 20
109.713
 30
0
 11
103.461
 21
108.43
 31
0
  0
ENDSEC
  0
SECTION
  2
OBJECTS
  0
DICTIONARY
  5
500
330
0
100
AcDbDictionary
  3
ACAD_GROUP
350
501
  0
DICTIONARY
  5
501
330
500
100
AcDbDictionary
  0
ENDSEC
  0
EOF