0
SECTION
2
HEADER
9
$INSUNITS
70
4
9
$ACADVER
1
AC1014
9
$HANDSEED
5
FFFF
0
ENDSEC
0
SECTION
2
TABLES
0
TABLE
2
VPORT
5
8
100
AcDbSymbolTable
0
ENDTAB
0
TABLE
2
LTYPE
5
5
100
AcDbSymbolTable
0
LTYPE
5
14
100
AcDbSymbolTableRecord
100
AcDbLinetypeTableRecord
2
BYBLOCK
70
0
0
LTYPE
5
15
100
AcDbSymbolTableRecord
100
AcDbLinetypeTableRecord
2
BYLAYER
70
0
0
ENDTAB
0
TABLE
2
LAYER
5
2
100
AcDbSymbolTable
70
2
0
LAYER
5
50
100
AcDbSymbolTableRecord
100
AcDbLayerTableRecord
2
0
70
0
6
CONTINUOUS
0
ENDTAB
0
TABLE
2
STYLE
5
3
100
AcDbSymbolTable
70
1
0
STYLE
5
11
100
AcDbSymbolTableRecord
100
AcDbTextStyleTableRecord
2
STANDARD
70
0
0
ENDTAB
0
TABLE
2
VIEW
5
6
100
AcDbSymbolTable
70
0
0
ENDTAB
0
TABLE
2
UCS
5
7
100
AcDbSymbolTable
70
0
0
ENDTAB
0
TABLE
2
APPID
5
9
100
AcDbSymbolTable
70
2
0
APPID
5
12
100
AcDbSymbolTableRecord
100
AcDbRegAppTableRecord
2
ACAD
70
0
0
ENDTAB
0
TABLE
2
DIMSTYLE
5
A
100
AcDbSymbolTable
70
1
0
ENDTAB
0
TABLE
2
BLOCK_RECORD
5
1
100
AcDbSymbolTable
70
1
0
BLOCK_RECORD
5
1F
100
AcDbSymbolTableRecord
100
AcDbBlockTableRecord
2
*MODEL_SPACE
0
BLOCK_RECORD
5
1B
100
AcDbSymbolTableRecord
100
AcDbBlockTableRecord
2
*PAPER_SPACE
0
ENDTAB
0
ENDSEC
0
SECTION
2
BLOCKS
0
BLOCK
5
20
100
AcDbEntity
100
AcDbBlockBegin
2
*MODEL_SPACE
0
ENDBLK
5
21
100
AcDbEntity
100
AcDbBlockEnd
0
BLOCK
5
1C
100
AcDbEntity
100
AcDbBlockBegin
2
*PAPER_SPACE
0
ENDBLK
5
1D
100
AcDbEntity
100
AcDbBlockEnd
0
ENDSEC
0
SECTION
2
ENTITIES
0
LINE
5
100
100
AcDbEntity
8
0
100
AcDbLine
10
2386.3396127015967
20
552.80019367494651
30
0
11
2386.3396127015958
21
-184.04675595365086
31
0
0
LINE
5
101
100
AcDbEntity
8
0
100
AcDbLine
10
2386.3396127015963
20
188.78802310987254
30
0
11
1688.3396127015974
21
188.78802310987169
31
0
0
LINE
5
102
100
AcDbEntity
8
0
100
AcDbLine
10
1688.3396127015974
20
188.78802310987169
30
0
11
1688.3396127016358
21
259.75784597116154
31
0
0
LINE
5
103
100
AcDbEntity
8
0
100
AcDbLine
10
2386.3396127015963
20
273.0121519665372
30
0
11
1688.3396127015974
21
188.78802310987169
31
0
0
LINE
5
104
100
AcDbEntity
8
0
100
AcDbLine
10
2204.3396127015972
20
540.15373303644674
30
0
11
2204.3396127015972
21
340.80721497122022
31
0
0
LINE
5
105
100
AcDbEntity
8
0
100
AcDbLine
10
2204.3396127015972
20
340.80721497122022
30
0
11
1688.3396127016358
21
259.75784597116154
31
0
0
LINE
5
106
100
AcDbEntity
8
0
100
AcDbLine
10
2386.3396127015963
20
273.0121519665372
30
0
11
2386.3396127015963
21
334.63040933430483
31
0
0
LINE
5
107
100
AcDbEntity
8
0
100
AcDbLine
10
2390.935764981733
20
339.22656164386757
30
0
11
2404.3396127097903
21
339.22656164386717
31
0
0
LINE
5
108
100
AcDbEntity
8
0
100
AcDbLine
10
2404.3396127097903
20
339.22656164386717
30
0
11
2404.3396127097903
21
438.80019367882596
31
0
0
LINE
5
109
100
AcDbEntity
8
0
100
AcDbLine
10
2386.3396127015967
20
552.80019367494651
30
0
11
2370.4162061385668
21
552.79682807341555
31
0
0
LINE
5
110
100
AcDbEntity
8
0
100
AcDbLine
10
2391.0213224358959
20
612.80019367363036
30
0
11
2404.3396127015972
21
612.80019367362979
31
0
0
LINE
5
111
100
AcDbEntity
8
0
100
AcDbLine
10
2386.3396127136484
20
617.30924162749886
30
0
11
2386.3396127136498
21
662.20433552364261
31
0
0
LINE
5
112
100
AcDbEntity
8
0
100
AcDbLine
10
2404.3396127015972
20
666.80019366958606
30
0
11
2390.8650271141769
21
666.87018969312533
31
0
0
LINE
5
113
100
AcDbEntity
8
0
100
AcDbLine
10
2404.3396127097903
20
766.37382584728743
30
0
11
2404.3396127015972
21
666.80019366958606
31
0
0
LINE
5
114
100
AcDbEntity
8
0
100
AcDbLine
10
2386.3396121158225
20
832.58823540464732
30
0
11
1688.3396126995972
21
916.81236420917617
31
0
0
LINE
5
115
100
AcDbEntity
8
0
100
AcDbLine
10
2204.3396127015972
20
558.65373303644674
30
0
11
2204.3396127015972
21
764.79317237867303
31
0
0
LINE
5
116
100
AcDbEntity
8
0
100
AcDbLine
10
2204.3396127015972
20
764.79317237867303
30
0
11
1688.3396126998016
21
845.84254137890809
31
0
0
LINE
5
117
100
AcDbEntity
8
0
100
AcDbLine
10
1688.3396126995972
20
916.81236420917617
30
0
11
1688.3396126998016
21
845.84254137890809
31
0
0
LINE
5
118
100
AcDbEntity
8
0
100
AcDbLine
10
2404.3396127015972
20
612.80019367362979
30
0
11
2404.3396127015972
21
562.05019367440093
31
0
0
LINE
5
119
100
AcDbEntity
8
0
100
AcDbLine
10
2404.3396127015972
20
543.42220216064834
30
0
11
2404.3396127015972
21
492.80019367363019
31
0
0
LINE
5
120
100
AcDbEntity
8
0
100
AcDbLine
10
2386.3396127524793
20
766.3738256742148
30
0
11
2330.5290153024425
21
710.56322712009705
31
0
0
LINE
5
121
100
AcDbEntity
8
0
100
AcDbLine
10
2386.3396127524793
20
766.3738256742148
30
0
11
2387.4739986584705
21
766.3738257197416
31
0
0
LINE
5
122
100
AcDbEntity
8
0
100
AcDbLine
10
2386.3396127524793
20
766.3738256742148
30
0
11
2387.4739986584705
21
766.3738257197416
31
0
0
LINE
5
123
100
AcDbEntity
8
0
100
AcDbLine
10
2390.7936186841584
20
766.37382571704075
30
0
11
2404.3396127097903
21
766.37382584728743
31
0
0
ARC
5
124
100
AcDbEntity
8
0
100
AcDbCircle
10
2389.1338086748237
20
769.16802161945623
30
0
40
3.2500000025184113
210
0
220
0
230
1
100
AcDbArc
50
149.28881662254892
51
300.71118550621071
0
LINE
5
125
100
AcDbEntity
8
0
100
AcDbLine
10
2386.3396127096544
20
770.82783152562058
30
0
11
2386.3396126905727
21
1289.647143303544
31
0
0
LINE
5
126
100
AcDbEntity
8
0
100
AcDbLine
10
2386.3396121158225
20
832.58823540464732
30
0
11
2386.3396127096544
21
770.82783152562058
31
0
0
LINE
5
127
100
AcDbEntity
8
0
100
AcDbLine
10
2386.3396127415722
20
767.5082116601377
30
0
11
2386.3396127524793
21
766.3738256742148
31
0
0
LINE
5
128
100
AcDbEntity
8
0
100
AcDbLine
10
2386.3396127015967
20
666.80019367106706
30
0
11
2335.1692115959222
21
717.97059459210254
31
0
0
LINE
5
129
100
AcDbEntity
8
0
100
AcDbLine
10
2386.3396127015967
20
666.80019367106706
30
0
11
2279.5456872821519
21
666.80019347839425
31
0
0
ARC
5
130
100
AcDbEntity
8
0
100
AcDbCircle
10
2388.6097572046037
20
664.53004917625162
30
0
40
3.2500000005752034
210
0
220
-0
230
1
100
AcDbArc
50
46.058050183296565
51
225.69273750226324
0
LINE
5
131
100
AcDbEntity
8
0
100
AcDbLine
10
2386.3396127123251
20
552.80019367494651
30
0
11
2386.3396127136498
21
662.20433552364261
31
0
0
LINE
5
132
100
AcDbEntity
8
0
100
AcDbLine
10
2386.3396127015967
20
666.80019367106706
30
0
11
2386.3396127415722
21
767.5082116601377
31
0
0
LINE
5
133
100
AcDbEntity
8
0
100
AcDbLine
10
2386.3396127015967
20
612.80019367106729
30
0
11
2274.9330731856899
21
612.80019367105103
31
0
0
ARC
5
134
100
AcDbEntity
8
0
100
AcDbCircle
10
2388.6773535543271
20
615.05148438714809
30
0
40
3.2499999991590611
210
0
220
0
230
1
100
AcDbArc
50
135.99711935250613
51
316.155396769096
0
ARC
5
135
100
AcDbEntity
8
0
100
AcDbCircle
10
2306.4171254376593
20
559.73974571555436
30
0
40
3.2500000000809228
210
0
220
0
230
1
100
AcDbArc
50
134.691235432116
51
135.30876456787109
0
LINE
5
136
100
AcDbEntity
8
0
100
AcDbLine
10
2304.1066774788123
20
562.05019367440093
30
0
11
2304.1314460572589
21
562.05019367440093
31
0
0
LINE
5
137
100
AcDbEntity
8
0
100
AcDbLine
10
2304.1314460572589
20
562.05019367440093
30
0
11
2304.1066774788123
21
562.05019367440093
31
0
0
LINE
5
138
100
AcDbEntity
8
0
100
AcDbLine
10
2304.1066774788123
20
562.05019367440093
30
0
11
2304.1314460572589
21
562.05019367440093
31
0
0
LINE
5
139
100
AcDbEntity
8
0
100
AcDbLine
10
2304.1066774788119
20
562.02542509595651
30
0
11
2304.1066774788123
21
562.05019367440093
31
0
0
ARC
5
140
100
AcDbEntity
8
0
100
AcDbCircle
10
2388.6608053078653
20
490.47900107255765
30
0
40
3.2499999999858757
210
0
220
-0
230
1
100
AcDbArc
50
45.578747707091139
51
224.42125230571759
0
LINE
5
141
100
AcDbEntity
8
0
100
AcDbLine
10
2386.3396127015967
20
492.80019367882596
30
0
11
2386.3860383122069
21
492.80019367882596
31
0
0
LINE
5
142
100
AcDbEntity
8
0
100
AcDbLine
10
2390.9355723035187
20
492.80019367882596
30
0
11
2283.2770715029487
21
492.80019369989452
31
0
0
LINE
5
143
100
AcDbEntity
8
0
100
AcDbLine
10
2386.3396127015967
20
492.80019367882596
30
0
11
2386.3396127015981
21
492.75376806822669
31
0
0
LINE
5
144
100
AcDbEntity
8
0
100
AcDbLine
10
2386.3396127015967
20
492.80019367882596
30
0
11
2386.3860383122069
21
492.80019367882596
31
0
0
LINE
5
145
100
AcDbEntity
8
0
100
AcDbLine
10
2390.9355723035187
20
492.80019367882596
30
0
11
2404.3396127015972
21
492.80019367363019
31
0
0
LINE
5
146
100
AcDbEntity
8
0
100
AcDbLine
10
2386.3396127015967
20
438.80019367882608
30
0
11
2337.4587335195392
21
389.91931449666572
31
0
0
LINE
5
147
100
AcDbEntity
8
0
100
AcDbLine
10
2386.3396127015967
20
438.80019367882608
30
0
11
2281.9132594753096
21
438.80019367871557
31
0
0
LINE
5
148
100
AcDbEntity
8
0
100
AcDbLine
10
2404.3396127097903
20
438.80019367882596
30
0
11
2390.934317497803
21
438.80019367882596
31
0
0
LINE
5
149
100
AcDbEntity
8
0
100
AcDbLine
10
2386.4566077241711
20
438.80019367882608
30
0
11
2386.3396127015967
21
438.80019367882608
31
0
0
ARC
5
150
100
AcDbEntity
8
0
100
AcDbCircle
10
2388.6954626109891
20
441.1560435882235
30
0
40
3.2499999999759739
210
0
220
0
230
1
100
AcDbArc
50
136.45860792909772
51
313.54139207069778
0
LINE
5
151
100
AcDbEntity
8
0
100
AcDbLine
10
2386.3396127015967
20
488.20423407588669
30
0
11
2386.3396127015967
21
443.39489847504854
31
0
0
LINE
5
152
100
AcDbEntity
8
0
100
AcDbLine
10
2386.3396127015958
20
438.91718870140448
30
0
11
2386.3396127015967
21
438.80019367882608
31
0
0
LINE
5
153
100
AcDbEntity
8
0
100
AcDbLine
10
2386.3396127015967
20
339.22656162922897
30
0
11
2342.8260256580988
21
382.74014867272291
31
0
0
LINE
5
154
100
AcDbEntity
8
0
100
AcDbLine
10
2390.935764981733
20
339.22656164386757
30
0
11
2290.254250506146
21
339.22656164386291
31
0
0
ARC
5
155
100
AcDbEntity
8
0
100
AcDbCircle
10
2388.6474878537906
20
336.91868647703507
30
0
40
3.2499999999917799
210
0
220
-0
230
1
100
AcDbArc
50
45.244308290467202
51
224.75569207635974
0
LINE
5
156
100
AcDbEntity
8
0
100
AcDbLine
10
2404.3396127015972
20
562.05019367440093
30
0
11
2404.3396127015972
21
543.42220216064834
31
0
0
LINE
5
157
100
AcDbEntity
8
0
100
AcDbLine
10
2304.3727880437496
20
544.74917603846825
30
0
11
2304.3727880437505
21
549.40373303644674
31
0
0
LINE
5
158
100
AcDbEntity
8
0
100
AcDbLine
10
2304.3727880437505
20
549.40373303644674
30
0
11
2304.3727880437505
21
554.05796680283618
31
0
0
LINE
5
159
100
AcDbEntity
8
0
100
AcDbLine
10
2304.3727880437505
20
558.65373303644674
30
0
11
2204.3396127015972
21
558.65373303644674
31
0
0
LINE
5
160
100
AcDbEntity
8
0
100
AcDbLine
10
2299.7773450417276
20
540.15373303644674
30
0
11
2204.3396127015972
21
540.15373303644674
31
0
0
LINE
5
161
100
AcDbEntity
8
0
100
AcDbLine
10
2304.3727880437505
20
558.65373303644674
30
0
11
2299.1516517941618
21
553.43259678685808
31
0
0
LINE
5
162
100
AcDbEntity
8
0
100
AcDbLine
10
2299.7770218101405
20
558.65373303644674
30
0
11
2296.9889863485841
21
558.65373303644674
31
0
0
ARC
5
163
100
AcDbEntity
8
0
100
AcDbCircle
10
2302.1062606521282
20
556.38720564482412
30
0
40
3.2499999999999707
210
0
220
0
230
1
100
AcDbArc
50
-45.781780069850292
51
135.78178006984319
0
LINE
5
164
100
AcDbEntity
8
0
100
AcDbLine
10
2304.3727880437491
20
540.15373303644674
30
0
11
2297.409819310506
21
547.11670176968948
31
0
0
LINE
5
165
100
AcDbEntity
8
0
100
AcDbLine
10
2304.3727880437491
20
540.15373303644674
30
0
11
2294.5256632268174
21
540.15373303644674
31
0
0
ARC
5
166
100
AcDbEntity
8
0
100
AcDbCircle
10
2302.1166105410139
20
542.40991053918253
30
0
40
3.2500000000001625
210
0
220
0
230
1
100
AcDbArc
50
-136.03582459322348
51
46.035824593217946
0
ENDSEC
0
SECTION
2
OBJECTS
0
DICTIONARY
5
C
100
AcDbDictionary
3
ACAD_GROUP
350
D
3
ACAD_MLINESTYLE
350
17
0
DICTIONARY
5
D
100
AcDbDictionary
0
DICTIONARY
5
1A
330
C
100
AcDbDictionary
0
DICTIONARY
5
17
100
AcDbDictionary
0
ENDSEC
0
EOF
