0
SECTION
2
HEADER
9
$INSUNITS
70
4
9
$ACADVER
1
AC1014
9
$HANDSEED
5
FFFF
0
ENDSEC
0
SECTION
2
TABLES
0
TABLE
2
VPORT
5
8
100
AcDbSymbolTable
0
ENDTAB
0
TABLE
2
LTYPE
5
5
100
AcDbSymbolTable
0
LTYPE
5
14
100
AcDbSymbolTableRecord
100
AcDbLinetypeTableRecord
2
BYBLOCK
70
0
0
LTYPE
5
15
100
AcDbSymbolTableRecord
100
AcDbLinetypeTableRecord
2
BYLAYER
70
0
0
ENDTAB
0
TABLE
2
LAYER
5
2
100
AcDbSymbolTable
70
2
0
LAYER
5
50
100
AcDbSymbolTableRecord
100
AcDbLayerTableRecord
2
0
70
0
6
CONTINUOUS
0
ENDTAB
0
TABLE
2
STYLE
5
3
100
AcDbSymbolTable
70
1
0
STYLE
5
11
100
AcDbSymbolTableRecord
100
AcDbTextStyleTableRecord
2
STANDARD
70
0
0
ENDTAB
0
TABLE
2
VIEW
5
6
100
AcDbSymbolTable
70
0
0
ENDTAB
0
TABLE
2
UCS
5
7
100
AcDbSymbolTable
70
0
0
ENDTAB
0
TABLE
2
APPID
5
9
100
AcDbSymbolTable
70
2
0
APPID
5
12
100
AcDbSymbolTableRecord
100
AcDbRegAppTableRecord
2
ACAD
70
0
0
ENDTAB
0
TABLE
2
DIMSTYLE
5
A
100
AcDbSymbolTable
70
1
0
ENDTAB
0
TABLE
2
BLOCK_RECORD
5
1
100
AcDbSymbolTable
70
1
0
BLOCK_RECORD
5
1F
100
AcDbSymbolTableRecord
100
AcDbBlockTableRecord
2
*MODEL_SPACE
0
BLOCK_RECORD
5
1B
100
AcDbSymbolTableRecord
100
AcDbBlockTableRecord
2
*PAPER_SPACE
0
ENDTAB
0
ENDSEC
0
SECTION
2
BLOCKS
0
BLOCK
5
20
100
AcDbEntity
100
AcDbBlockBegin
2
*MODEL_SPACE
0
ENDBLK
5
21
100
AcDbEntity
100
AcDbBlockEnd
0
BLOCK
5
1C
100
AcDbEntity
100
AcDbBlockBegin
2
*PAPER_SPACE
0
ENDBLK
5
1D
100
AcDbEntity
100
AcDbBlockEnd
0
ENDSEC
0
SECTION
2
ENTITIES
0
LINE
5
100
100
AcDbEntity
8
0
100
AcDbLine
10
1499.9999999999989
20
736.84694963190077
30
0
11
2324.4478848892704
21
736.84694963190077
31
0
0
LINE
5
101
100
AcDbEntity
8
0
100
AcDbLine
10
1499.9999999999989
20
736.84694963190077
30
0
11
1500
21
1473.6938992638015
31
0
0
LINE
5
102
100
AcDbEntity
8
0
100
AcDbLine
10
1499.9999999999995
20
1100.8591201969755
30
0
11
2197.9999999999991
21
1100.8591201969762
31
0
0
LINE
5
103
100
AcDbEntity
8
0
100
AcDbLine
10
2197.9999999999991
20
1100.8591201969762
30
0
11
2197.9999999999609
21
1029.8892973356863
31
0
0
LINE
5
104
100
AcDbEntity
8
0
100
AcDbLine
10
1499.9999999999995
20
1016.6349913403108
30
0
11
2197.9999999999991
21
1100.8591201969762
31
0
0
LINE
5
105
100
AcDbEntity
8
0
100
AcDbLine
10
1681.9999999999986
20
736.84694963190077
30
0
11
1681.9999999999986
21
948.83992833562752
31
0
0
LINE
5
106
100
AcDbEntity
8
0
100
AcDbLine
10
1681.9999999999986
20
948.83992833562752
30
0
11
2197.9999999999609
21
1029.8892973356863
31
0
0
LINE
5
107
100
AcDbEntity
8
0
100
AcDbLine
10
1499.9999999999995
20
1016.6349913403108
30
0
11
1499.9999999999991
21
955.01673397254308
31
0
0
LINE
5
108
100
AcDbEntity
8
0
100
AcDbLine
10
1495.4038477198626
20
950.42058166298045
30
0
11
1481.9999999918057
21
950.42058166298079
31
0
0
LINE
5
109
100
AcDbEntity
8
0
100
AcDbLine
10
1481.9999999918057
20
950.42058166298079
30
0
11
1481.9999999918057
21
850.84694962802178
31
0
0
LINE
5
110
100
AcDbEntity
8
0
100
AcDbLine
10
1499.9999999999989
20
736.84694963190077
30
0
11
1515.9234065630289
21
736.85031523343196
31
0
0
LINE
5
111
100
AcDbEntity
8
0
100
AcDbLine
10
1495.4046540640684
20
676.84694963161473
30
0
11
1481.9999999999986
21
676.84694963161462
31
0
0
LINE
5
112
100
AcDbEntity
8
0
100
AcDbLine
10
1499.9999999932559
20
672.25160371344737
30
0
11
1499.9999999932561
21
627.44280777790391
31
0
0
LINE
5
113
100
AcDbEntity
8
0
100
AcDbLine
10
1481.9999999918057
20
622.84694963577988
30
0
11
1495.4745855925426
21
622.77695360859514
31
0
0
LINE
5
114
100
AcDbEntity
8
0
100
AcDbLine
10
1481.9999999918057
20
523.27331760082086
30
0
11
1481.9999999918057
21
622.84694963577988
31
0
0
LINE
5
115
100
AcDbEntity
8
0
100
AcDbLine
10
1499.9999999999989
20
457.05890792349095
30
0
11
2197.9999999999991
21
372.83477906682543
31
0
0
LINE
5
116
100
AcDbEntity
8
0
100
AcDbLine
10
1681.9999999999986
20
736.84694963190077
30
0
11
1681.9999999999986
21
524.85397092817402
31
0
0
LINE
5
117
100
AcDbEntity
8
0
100
AcDbLine
10
1681.9999999999986
20
524.85397092817402
30
0
11
2197.99999999996
21
443.80460192811535
31
0
0
LINE
5
118
100
AcDbEntity
8
0
100
AcDbLine
10
2197.9999999999991
20
372.83477906682543
30
0
11
2197.99999999996
21
443.80460192811535
31
0
0
LINE
5
119
100
AcDbEntity
8
0
100
AcDbLine
10
1582.2329352227844
20
736.84694963190077
30
0
11
1582.2329352227844
21
741.73165574351219
31
0
0
LINE
5
120
100
AcDbEntity
8
0
100
AcDbLine
10
1577.5361359970364
20
746.2249411461994
30
0
11
1481.9999999999986
21
746.22494114619928
31
0
0
LINE
5
121
100
AcDbEntity
8
0
100
AcDbLine
10
1481.9999999999986
20
676.84694963161462
30
0
11
1481.9999999999986
21
727.59694963244658
31
0
0
LINE
5
122
100
AcDbEntity
8
0
100
AcDbLine
10
1481.9999999999986
20
746.22494114619928
30
0
11
1481.9999999999986
21
796.84694963218703
31
0
0
LINE
5
123
100
AcDbEntity
8
0
100
AcDbLine
10
1499.999999929264
20
523.27331758618266
30
0
11
1555.8105980099008
21
579.08391557602192
31
0
0
LINE
5
124
100
AcDbEntity
8
0
100
AcDbLine
10
1499.999999929264
20
523.27331758618266
30
0
11
1498.8656140431253
21
523.27331758710568
31
0
0
LINE
5
125
100
AcDbEntity
8
0
100
AcDbLine
10
1499.999999929264
20
523.27331758618266
30
0
11
1498.8656140431253
21
523.27331758710568
31
0
0
LINE
5
126
100
AcDbEntity
8
0
100
AcDbLine
10
1495.5459940174374
20
523.27331758980654
30
0
11
1481.9999999918057
21
523.27331760082086
31
0
0
ARC
5
127
100
AcDbEntity
8
0
100
AcDbCircle
10
1497.205804028009
20
520.47912168947346
30
0
40
3.2500000025184699
210
-0
220
0
230
1
100
AcDbArc
50
-30.711183420150608
51
120.71118554370761
0
LINE
5
128
100
AcDbEntity
8
0
100
AcDbLine
10
1499.9999999919414
20
518.8193117812267
30
0
11
1500
21
0
31
0
0
LINE
5
129
100
AcDbEntity
8
0
100
AcDbLine
10
1499.9999999999989
20
457.05890792349095
30
0
11
1499.9999999919414
21
518.8193117812267
31
0
0
LINE
5
130
100
AcDbEntity
8
0
100
AcDbLine
10
1499.9999999600236
20
522.13893164670958
30
0
11
1499.999999929264
21
523.27331758618266
31
0
0
LINE
5
131
100
AcDbEntity
8
0
100
AcDbLine
10
1499.9999999918057
20
622.84694963577999
30
0
11
1551.1704010091962
21
571.67654861826281
31
0
0
LINE
5
132
100
AcDbEntity
8
0
100
AcDbLine
10
1499.9999999918057
20
622.84694963577999
30
0
11
1606.7939254194439
21
622.84694963564789
31
0
0
ARC
5
133
100
AcDbEntity
8
0
100
AcDbCircle
10
1497.7298555022096
20
625.11709412538187
30
0
40
3.2500000005779137
210
0
220
0
230
1
100
AcDbArc
50
-133.94194981895944
51
45.692737500024798
0
LINE
5
134
100
AcDbEntity
8
0
100
AcDbLine
10
1499.9999999945803
20
736.84694963190077
30
0
11
1499.9999999932561
21
627.44280777790391
31
0
0
LINE
5
135
100
AcDbEntity
8
0
100
AcDbLine
10
1499.9999999918057
20
622.84694963577999
30
0
11
1499.9999999600236
21
522.13893164670958
31
0
0
LINE
5
136
100
AcDbEntity
8
0
100
AcDbLine
10
1499.9999999918057
20
676.84694963578011
30
0
11
1553.8992517653412
21
730.74620140930449
31
0
0
LINE
5
137
100
AcDbEntity
8
0
100
AcDbLine
10
1499.9999999918057
20
676.84694963578011
30
0
11
1611.4065395159059
21
676.84694963579636
31
0
0
ARC
5
138
100
AcDbEntity
8
0
100
AcDbCircle
10
1497.7464740296837
20
674.59342367365809
30
0
40
3.2499999991592694
210
0
220
0
230
1
100
AcDbArc
50
-46.100733450333877
51
136.10073358773499
0
LINE
5
139
100
AcDbEntity
8
0
100
AcDbLine
10
1582.2329352227835
20
727.59694963244647
30
0
11
1635.6088988367701
21
674.22098601846005
31
0
0
ARC
5
140
100
AcDbEntity
8
0
100
AcDbCircle
10
1579.9224872639365
20
729.90739759129315
30
0
40
3.2500000000809228
210
0
220
0
230
1
100
AcDbArc
50
-134.691235432116
51
44.691235432094771
0
LINE
5
141
100
AcDbEntity
8
0
100
AcDbLine
10
1582.2329352227835
20
727.59694963244647
30
0
11
1582.2081666443369
21
727.59694963244647
31
0
0
LINE
5
142
100
AcDbEntity
8
0
100
AcDbLine
10
1577.6368078835362
20
727.59694963244658
30
0
11
1692.2528727145479
21
727.59694963244624
31
0
0
LINE
5
143
100
AcDbEntity
8
0
100
AcDbLine
10
1582.2329352227835
20
727.59694963244647
30
0
11
1582.2081666443369
21
727.59694963244647
31
0
0
LINE
5
144
100
AcDbEntity
8
0
100
AcDbLine
10
1577.6368078835362
20
727.59694963244658
30
0
11
1481.9999999999986
21
727.59694963244658
31
0
0
LINE
5
145
100
AcDbEntity
8
0
100
AcDbLine
10
1582.2329352227844
20
736.84694963190077
30
0
11
1582.2329352227844
21
732.19307697169302
31
0
0
LINE
5
146
100
AcDbEntity
8
0
100
AcDbLine
10
1582.2329352227837
20
727.62171821089078
30
0
11
1582.2329352227835
21
727.59694963244647
31
0
0
LINE
5
147
100
AcDbEntity
8
0
100
AcDbLine
10
1581.9999142905024
20
746.09401409827069
30
0
11
1636.3227726623679
21
800.41687247012555
31
0
0
LINE
5
148
100
AcDbEntity
8
0
100
AcDbLine
10
1577.5361359970364
20
746.2249411461994
30
0
11
1694.003473373956
21
746.2249411461944
31
0
0
ARC
5
149
100
AcDbEntity
8
0
100
AcDbCircle
10
1579.8919754734152
20
743.98607528118407
30
0
40
3.2500000000004237
210
0
220
0
230
1
100
AcDbArc
50
-43.92113304509008
51
136.45834093227293
0
LINE
5
150
100
AcDbEntity
8
0
100
AcDbLine
10
1499.9999999999989
20
796.84694962802166
30
0
11
1548.4471985080606
21
748.39975110186765
31
0
0
ARC
5
151
100
AcDbEntity
8
0
100
AcDbCircle
10
1497.6788073941639
20
799.16814223472329
30
0
40
3.2500000002178968
210
0
220
0
230
1
100
AcDbArc
50
-134.42125149739726
51
44.421252305609158
0
LINE
5
152
100
AcDbEntity
8
0
100
AcDbLine
10
1499.9999999999989
20
796.84694962802166
30
0
11
1499.9535743893887
21
796.84694962770538
31
0
0
LINE
5
153
100
AcDbEntity
8
0
100
AcDbLine
10
1495.4040404305763
20
796.84694959670583
30
0
11
1603.0625411986475
21
796.8469496057071
31
0
0
LINE
5
154
100
AcDbEntity
8
0
100
AcDbLine
10
1499.9999999999989
20
796.84694962802166
30
0
11
1499.9999999999977
21
796.89337523862093
31
0
0
LINE
5
155
100
AcDbEntity
8
0
100
AcDbLine
10
1499.9999999999989
20
796.84694962802166
30
0
11
1499.9535743893887
21
796.84694962770538
31
0
0
LINE
5
156
100
AcDbEntity
8
0
100
AcDbLine
10
1495.4040404305763
20
796.84694959670583
30
0
11
1481.9999999999986
21
796.84694963218703
31
0
0
LINE
5
157
100
AcDbEntity
8
0
100
AcDbLine
10
1499.9999999999991
20
850.84694962802155
30
0
11
1548.880879182095
21
899.72782881014382
31
0
0
LINE
5
158
100
AcDbEntity
8
0
100
AcDbLine
10
1499.9999999999991
20
850.84694962802155
30
0
11
1604.4263532262867
21
850.84694962813217
31
0
0
LINE
5
159
100
AcDbEntity
8
0
100
AcDbLine
10
1481.9999999918057
20
850.84694962802178
30
0
11
1495.405295203793
21
850.84694962802178
31
0
0
LINE
5
160
100
AcDbEntity
8
0
100
AcDbLine
10
1499.8830049774247
20
850.84694962802155
30
0
11
1499.9999999999991
21
850.84694962802155
31
0
0
ARC
5
161
100
AcDbEntity
8
0
100
AcDbCircle
10
1497.6441500906051
20
848.49109971862617
30
0
40
3.2499999999785807
210
0
220
0
230
1
100
AcDbArc
50
-43.541392070907641
51
133.54139207069801
0
LINE
5
162
100
AcDbEntity
8
0
100
AcDbLine
10
1499.9999999999991
20
801.44290923096094
30
0
11
1499.9999999999991
21
846.2522448317992
31
0
0
LINE
5
163
100
AcDbEntity
8
0
100
AcDbLine
10
1499.9999999999998
20
850.72995460544325
30
0
11
1499.9999999999991
21
850.84694962802155
31
0
0
LINE
5
164
100
AcDbEntity
8
0
100
AcDbLine
10
1499.9999999999991
20
950.42058167761888
30
0
11
1543.513587043497
21
906.90699463412489
31
0
0
LINE
5
165
100
AcDbEntity
8
0
100
AcDbLine
10
1495.4038477198626
20
950.42058166298045
30
0
11
1596.0853621954498
21
950.42058166298489
31
0
0
ARC
5
166
100
AcDbEntity
8
0
100
AcDbCircle
10
1497.692124847805
20
952.72845682981279
30
0
40
3.2499999999916791
210
0
220
0
230
1
100
AcDbArc
50
-134.75569170953491
51
44.755692076363296
0
ENDSEC
0
SECTION
2
OBJECTS
0
DICTIONARY
5
C
100
AcDbDictionary
3
ACAD_GROUP
350
D
3
ACAD_MLINESTYLE
350
17
0
DICTIONARY
5
D
100
AcDbDictionary
0
DICTIONARY
5
1A
330
C
100
AcDbDictionary
0
DICTIONARY
5
17
100
AcDbDictionary
0
ENDSEC
0
EOF
