0
SECTION
2
HEADER
9
$INSUNITS
70
4
9
$ACADVER
1
AC1014
9
$HANDSEED
5
FFFF
0
ENDSEC
0
SECTION
2
TABLES
0
TABLE
2
VPORT
5
8
100
AcDbSymbolTable
0
ENDTAB
0
TABLE
2
LTYPE
5
5
100
AcDbSymbolTable
0
LTYPE
5
14
100
AcDbSymbolTableRecord
100
AcDbLinetypeTableRecord
2
BYBLOCK
70
0
0
LTYPE
5
15
100
AcDbSymbolTableRecord
100
AcDbLinetypeTableRecord
2
BYLAYER
70
0
0
ENDTAB
0
TABLE
2
LAYER
5
2
100
AcDbSymbolTable
70
2
0
LAYER
5
50
100
AcDbSymbolTableRecord
100
AcDbLayerTableRecord
2
0
70
0
6
CONTINUOUS
0
ENDTAB
0
TABLE
2
STYLE
5
3
100
AcDbSymbolTable
70
1
0
STYLE
5
11
100
AcDbSymbolTableRecord
100
AcDbTextStyleTableRecord
2
STANDARD
70
0
0
ENDTAB
0
TABLE
2
VIEW
5
6
100
AcDbSymbolTable
70
0
0
ENDTAB
0
TABLE
2
UCS
5
7
100
AcDbSymbolTable
70
0
0
ENDTAB
0
TABLE
2
APPID
5
9
100
AcDbSymbolTable
70
2
0
APPID
5
12
100
AcDbSymbolTableRecord
100
AcDbRegAppTableRecord
2
ACAD
70
0
0
ENDTAB
0
TABLE
2
DIMSTYLE
5
A
100
AcDbSymbolTable
70
1
0
ENDTAB
0
TABLE
2
BLOCK_RECORD
5
1
100
AcDbSymbolTable
70
1
0
BLOCK_RECORD
5
1F
100
AcDbSymbolTableRecord
100
AcDbBlockTableRecord
2
*MODEL_SPACE
0
BLOCK_RECORD
5
1B
100
AcDbSymbolTableRecord
100
AcDbBlockTableRecord
2
*PAPER_SPACE
0
ENDTAB
0
ENDSEC
0
SECTION
2
BLOCKS
0
BLOCK
5
20
100
AcDbEntity
100
AcDbBlockBegin
2
*MODEL_SPACE
0
ENDBLK
5
21
100
AcDbEntity
100
AcDbBlockEnd
0
BLOCK
5
1C
100
AcDbEntity
100
AcDbBlockBegin
2
*PAPER_SPACE
0
ENDBLK
5
1D
100
AcDbEntity
100
AcDbBlockEnd
0
ENDSEC
0
SECTION
2
ENTITIES
0
LINE
5
100
100
AcDbEntity
8
0
100
AcDbLine
10
1481.9999999918057
20
950.42058166298079
30
0
11
1481.9999999918057
21
850.84694962802178
31
0
0
LINE
5
101
100
AcDbEntity
8
0
100
AcDbLine
10
1481.9999999999986
20
746.22494114619928
30
0
11
1481.9999999999986
21
796.84694963218703
31
0
0
LINE
5
102
100
AcDbEntity
8
0
100
AcDbLine
10
1481.9999999999986
20
676.84694963161462
30
0
11
1481.9999999999986
21
727.59694963244658
31
0
0
LINE
5
103
100
AcDbEntity
8
0
100
AcDbLine
10
1481.9999999918057
20
523.27331760082086
30
0
11
1481.9999999918057
21
622.84694963577988
31
0
0
LINE
5
104
100
AcDbEntity
8
0
100
AcDbLine
10
1481.9999999918057
20
950.42058166298079
30
0
11
1463.9999999918055
21
950.42058166298079
31
0
0
LINE
5
105
100
AcDbEntity
8
0
100
AcDbLine
10
1463.9999999918055
20
950.42058166298079
30
0
11
1463.9999999918055
21
850.84694962802178
31
0
0
LINE
5
106
100
AcDbEntity
8
0
100
AcDbLine
10
1463.9999999918055
20
850.84694962802178
30
0
11
1481.9999999918057
21
850.84694962802178
31
0
0
LINE
5
107
100
AcDbEntity
8
0
100
AcDbLine
10
1481.9999999999986
20
796.84694963218703
30
0
11
1463.9999999918055
21
796.84694963218703
31
0
0
LINE
5
108
100
AcDbEntity
8
0
100
AcDbLine
10
1463.9999999918055
20
676.84694963161462
30
0
11
1481.9999999999986
21
676.84694963161462
31
0
0
LINE
5
109
100
AcDbEntity
8
0
100
AcDbLine
10
1481.9999999918057
20
622.84694963577988
30
0
11
1481.9999999918057
21
523.27331760082086
31
0
0
LINE
5
110
100
AcDbEntity
8
0
100
AcDbLine
10
1463.9999999918055
20
622.84694963577988
30
0
11
1481.9999999918057
21
622.84694963577988
31
0
0
LINE
5
111
100
AcDbEntity
8
0
100
AcDbLine
10
1481.9999999918057
20
523.27331760082086
30
0
11
1463.9999999918055
21
523.27331760082086
31
0
0
LINE
5
112
100
AcDbEntity
8
0
100
AcDbLine
10
1463.9999999918055
20
523.27331760082086
30
0
11
1463.9999999918055
21
622.84694963577988
31
0
0
LINE
5
113
100
AcDbEntity
8
0
100
AcDbLine
10
1358.9999999997815
20
745.84694962780418
30
0
11
1259.4263679648222
21
745.84694962780418
31
0
0
LINE
5
114
100
AcDbEntity
8
0
100
AcDbLine
10
1686.5736320269823
20
727.84694962780407
30
0
11
1586.9999999920233
21
727.84694962780407
31
0
0
LINE
5
115
100
AcDbEntity
8
0
100
AcDbLine
10
1259.4263679648222
20
745.84694962780418
30
0
11
1259.4263679648222
21
727.84694962780407
31
0
0
LINE
5
116
100
AcDbEntity
8
0
100
AcDbLine
10
1686.5736320269823
20
745.84694962780418
30
0
11
1586.9999999920233
21
745.84694962780418
31
0
0
LINE
5
117
100
AcDbEntity
8
0
100
AcDbLine
10
1259.4263679648222
20
745.84694962780418
30
0
11
1358.9999999997815
21
745.84694962780418
31
0
0
LINE
5
118
100
AcDbEntity
8
0
100
AcDbLine
10
1532.9999999961885
20
745.84694963599736
30
0
11
1532.9999999961885
21
727.84694962780407
31
0
0
LINE
5
119
100
AcDbEntity
8
0
100
AcDbLine
10
1482.3779915102004
20
745.84694963599736
30
0
11
1532.9999999961885
21
745.84694963599736
31
0
0
LINE
5
120
100
AcDbEntity
8
0
100
AcDbLine
10
1259.4263679648222
20
727.84694962780407
30
0
11
1358.9999999997815
21
727.84694962780407
31
0
0
LINE
5
121
100
AcDbEntity
8
0
100
AcDbLine
10
1358.9999999997815
20
727.84694962780407
30
0
11
1358.9999999997815
21
745.84694962780418
31
0
0
LINE
5
122
100
AcDbEntity
8
0
100
AcDbLine
10
1412.999999995616
20
745.84694963599736
30
0
11
1463.749999996448
21
745.84694963599736
31
0
0
LINE
5
123
100
AcDbEntity
8
0
100
AcDbLine
10
1586.9999999920233
20
727.84694962780407
30
0
11
1586.9999999920233
21
745.84694962780418
31
0
0
LINE
5
124
100
AcDbEntity
8
0
100
AcDbLine
10
1686.5736320269823
20
745.84694962780418
30
0
11
1686.5736320269823
21
727.84694962780407
31
0
0
LINE
5
125
100
AcDbEntity
8
0
100
AcDbLine
10
1412.999999995616
20
727.84694962780407
30
0
11
1412.999999995616
21
745.84694963599736
31
0
0
LWPOLYLINE
5
126
100
AcDbEntity
8
0
100
AcDbPolyline
90
8
70
1
43
0.0
10
1013.3805922246466
20
772.20228869122798
10
1437.6446609365748
20
1196.4663574031567
42
-0.4142135623730927
10
1508.3553390552297
20
1196.4663574031567
10
1932.619407767158
20
772.20228869122843
42
-0.4142135623730927
10
1932.619407767158
20
701.49161057257379
10
1508.3553390552297
20
277.22754186064492
42
-0.4142135623730927
10
1437.6446609365748
20
277.22754186064492
10
1013.3805922246466
20
701.49161057257311
42
-0.41421356237309509
0
LINE
5
127
100
AcDbEntity
8
0
100
AcDbLine
10
1463.9999999918055
20
745.84694963599736
30
0
11
1412.999999995616
21
745.84694963599736
31
0
0
LINE
5
128
100
AcDbEntity
8
0
100
AcDbLine
10
1532.9999999961885
20
745.84694963599736
30
0
11
1481.9999999999986
21
745.84694963599736
31
0
0
LINE
5
129
100
AcDbEntity
8
0
100
AcDbLine
10
1481.9999999999986
20
796.84694963218703
30
0
11
1481.9999999999986
21
745.84694963599736
31
0
0
LINE
5
130
100
AcDbEntity
8
0
100
AcDbLine
10
1463.9999999918055
20
727.84694962780407
30
0
11
1463.9999999918055
21
676.84694963161462
31
0
0
LINE
5
131
100
AcDbEntity
8
0
100
AcDbLine
10
1463.9999999918055
20
796.84694963218703
30
0
11
1463.9999999918055
21
745.84694963599736
31
0
0
LINE
5
132
100
AcDbEntity
8
0
100
AcDbLine
10
1481.9999999999986
20
727.84694962780407
30
0
11
1481.9999999999986
21
676.84694963161462
31
0
0
LINE
5
133
100
AcDbEntity
8
0
100
AcDbLine
10
1532.9999999961885
20
727.84694962780407
30
0
11
1481.9999999999986
21
727.84694962780407
31
0
0
LINE
5
134
100
AcDbEntity
8
0
100
AcDbLine
10
1463.9999999918055
20
727.84694962780407
30
0
11
1412.999999995616
21
727.84694962780407
31
0
0
LINE
5
135
100
AcDbEntity
8
0
100
AcDbLine
10
1259.4263679648222
20
745.84694962780418
30
0
11
1266.1559452651238
21
739.11737232750272
31
0
0
LINE
5
136
100
AcDbEntity
8
0
100
AcDbLine
10
1259.4263679648222
20
745.84694962780418
30
0
11
1268.9434274519467
21
745.84694962780418
31
0
0
CIRCLE
5
137
100
AcDbEntity
8
0
100
AcDbCircle
10
1261.7244650036787
20
743.54885258894797
30
0
40
3.2500000000000062
210
0
220
0
230
1
0
ENDSEC
0
SECTION
2
OBJECTS
0
DICTIONARY
5
C
100
AcDbDictionary
3
ACAD_GROUP
350
D
3
ACAD_MLINESTYLE
350
17
0
DICTIONARY
5
D
100
AcDbDictionary
0
DICTIONARY
5
1A
330
C
100
AcDbDictionary
0
DICTIONARY
5
17
100
AcDbDictionary
0
ENDSEC
0
EOF
