0
SECTION
2
HEADER
9
$INSUNITS
70
4
9
$ACADVER
1
AC1014
9
$HANDSEED
5
FFFF
0
ENDSEC
0
SECTION
2
TABLES
0
TABLE
2
VPORT
5
8
100
AcDbSymbolTable
0
ENDTAB
0
TABLE
2
LTYPE
5
5
100
AcDbSymbolTable
0
LTYPE
5
14
100
AcDbSymbolTableRecord
100
AcDbLinetypeTableRecord
2
BYBLOCK
70
0
0
LTYPE
5
15
100
AcDbSymbolTableRecord
100
AcDbLinetypeTableRecord
2
BYLAYER
70
0
0
ENDTAB
0
TABLE
2
LAYER
5
2
100
AcDbSymbolTable
70
2
0
LAYER
5
50
100
AcDbSymbolTableRecord
100
AcDbLayerTableRecord
2
0
70
0
6
CONTINUOUS
0
ENDTAB
0
TABLE
2
STYLE
5
3
100
AcDbSymbolTable
70
1
0
STYLE
5
11
100
AcDbSymbolTableRecord
100
AcDbTextStyleTableRecord
2
STANDARD
70
0
0
ENDTAB
0
TABLE
2
VIEW
5
6
100
AcDbSymbolTable
70
0
0
ENDTAB
0
TABLE
2
UCS
5
7
100
AcDbSymbolTable
70
0
0
ENDTAB
0
TABLE
2
APPID
5
9
100
AcDbSymbolTable
70
2
0
APPID
5
12
100
AcDbSymbolTableRecord
100
AcDbRegAppTableRecord
2
ACAD
70
0
0
ENDTAB
0
TABLE
2
DIMSTYLE
5
A
100
AcDbSymbolTable
70
1
0
ENDTAB
0
TABLE
2
BLOCK_RECORD
5
1
100
AcDbSymbolTable
70
1
0
BLOCK_RECORD
5
1F
100
AcDbSymbolTableRecord
100
AcDbBlockTableRecord
2
*MODEL_SPACE
0
BLOCK_RECORD
5
1B
100
AcDbSymbolTableRecord
100
AcDbBlockTableRecord
2
*PAPER_SPACE
0
ENDTAB
0
ENDSEC
0
SECTION
2
BLOCKS
0
BLOCK
5
20
100
AcDbEntity
100
AcDbBlockBegin
2
*MODEL_SPACE
0
ENDBLK
5
21
100
AcDbEntity
100
AcDbBlockEnd
0
BLOCK
5
1C
100
AcDbEntity
100
AcDbBlockBegin
2
*PAPER_SPACE
0
ENDBLK
5
1D
100
AcDbEntity
100
AcDbBlockEnd
0
ENDSEC
0
SECTION
2
ENTITIES
0
LWPOLYLINE
5
100
100
AcDbEntity
8
0
100
AcDbPolyline
90
4
70
1
43
0.0
10
311.68572010989493
20
140.03086586368838
10
111.68572010989493
20
140.03086586368838
10
111.68572010989493
20
90.030865863688376
10
311.68572010989493
20
90.030865863688376
0
LWPOLYLINE
5
101
100
AcDbEntity
8
0
100
AcDbPolyline
90
4
70
1
43
0.0
10
311.68572010989493
20
40.030865863688376
10
111.68572010989493
20
40.030865863688376
10
111.68572010989493
20
-9.9691341363116237
10
311.68572010989493
20
-9.9691341363116237
0
LWPOLYLINE
5
102
100
AcDbEntity
8
0
100
AcDbPolyline
90
4
70
1
43
0.0
10
111.68572010989493
20
-109.96913413631162
10
311.68572010989493
20
-109.96913413631162
10
311.68572010989493
20
-59.969134136311624
10
111.68572010989493
20
-59.969134136311624
0
LWPOLYLINE
5
103
100
AcDbEntity
8
0
100
AcDbPolyline
90
14
70
1
43
0.0
10
13.712989353580625
20
226.61513285549034
10
413.71298935358061
20
226.61513285549034
10
413.71298935358061
20
-165.38486714450968
42
-0.41421356237309509
10
405.71298935358067
20
-173.38486714450966
10
323.71298935358061
20
-173.38486714450966
10
323.71298935358061
20
-161.38486714450971
10
273.71298935358061
20
-161.38486714450963
10
273.71298935358061
20
-173.38486714450966
10
153.71298935358061
20
-173.38486714450966
10
153.71298935358061
20
-161.38486714450971
10
103.71298935358062
20
-161.38486714450963
10
103.71298935358062
20
-173.38486714450966
10
21.712989353580596
20
-173.38486714450966
42
-0.41421356237309509
10
13.712989353580625
20
-165.38486714450968
0
LINE
5
104
100
AcDbEntity
8
0
100
AcDbLine
10
413.71298935358061
20
26.615132855490344
30
0
11
13.712989353580625
21
26.615132855490344
31
0
0
LINE
5
105
100
AcDbEntity
8
0
100
AcDbLine
10
323.71298935358061
20
214.6151328554904
30
0
11
323.71298935358061
21
226.61513285549034
31
0
0
LINE
5
106
100
AcDbEntity
8
0
100
AcDbLine
10
273.71298935358061
20
214.61513285549032
30
0
11
323.71298935358061
21
214.6151328554904
31
0
0
LINE
5
107
100
AcDbEntity
8
0
100
AcDbLine
10
273.71298935358061
20
226.61513285549034
30
0
11
273.71298935358061
21
214.61513285549032
31
0
0
LINE
5
108
100
AcDbEntity
8
0
100
AcDbLine
10
103.71298935358062
20
226.61513285549034
30
0
11
103.71298935358062
21
214.61513285549032
31
0
0
LINE
5
109
100
AcDbEntity
8
0
100
AcDbLine
10
103.71298935358062
20
214.61513285549032
30
0
11
153.71298935358061
21
214.6151328554904
31
0
0
LINE
5
110
100
AcDbEntity
8
0
100
AcDbLine
10
153.71298935358061
20
214.6151328554904
30
0
11
153.71298935358061
21
226.61513285549034
31
0
0
ENDSEC
0
SECTION
2
OBJECTS
0
DICTIONARY
5
C
100
AcDbDictionary
3
ACAD_GROUP
350
D
3
ACAD_MLINESTYLE
350
17
0
DICTIONARY
5
D
100
AcDbDictionary
0
DICTIONARY
5
1A
330
C
100
AcDbDictionary
0
DICTIONARY
5
17
100
AcDbDictionary
0
ENDSEC
0
EOF
